  0
SECTION
  2
HEADER
  9
$ACADVER
  1
AC1015
  9
$ACADMAINTVER
 70
     6
  9
$DWGCODEPAGE
  3
ANSI_1250
  9
$INSBASE
 10
0.0
 20
0.0
 30
0.0
  9
$EXTMIN
 10
0.0
 20
0.0
 30
0.0
  9
$EXTMAX
 10
20000.0
 20
10000.0
 30
0.0
  9
$LIMMIN
 10
0.0
 20
0.0
  9
$LIMMAX
 10
20000.0
 20
10000.0
  9
$ORTHOMODE
 70
     0
  9
$REGENMODE
 70
     1
  9
$FILLMODE
 70
     1
  9
$QTEXTMODE
 70
     0
  9
$MIRRTEXT
 70
     1
  9
$LTSCALE
 40
1.0
  9
$ATTMODE
 70
     1
  9
$TEXTSIZE
 40
2.0
  9
$TRACEWID
 40
1.0
  9
$TEXTSTYLE
  7
Standard
  9
$CLAYER
  8
0
  9
$CELTYPE
  6
ByLayer
  9
$CECOLOR
 62
   256
  9
$CELTSCALE
 40
1.0
  9
$DISPSILH
 70
     0
  9
$DIMSCALE
 40
1.0
  9
$DIMASZ
 40
2.0
  9
$DIMEXO
 40
1.0
  9
$DIMDLI
 40
3.75
  9
$DIMRND
 40
0.0
  9
$DIMDLE
 40
0.0
  9
$DIMEXE
 40
1.0
  9
$DIMTP
 40
0.0
  9
$DIMTM
 40
0.0
  9
$DIMTXT
 40
2.0
  9
$DIMCEN
 40
2.5
  9
$DIMTSZ
 40
0.0
  9
$DIMTOL
 70
     0
  9
$DIMLIM
 70
     0
  9
$DIMTIH
 70
     1
  9
$DIMTOH
 70
     1
  9
$DIMSE1
 70
     0
  9
$DIMSE2
 70
     0
  9
$DIMTAD
 70
     1
  9
$DIMZIN
 70
     0
  9
$DIMBLK
  1

  9
$DIMASO
 70
     1
  9
$DIMSHO
 70
     1
  9
$DIMPOST
  1

  9
$DIMAPOST
  1

  9
$DIMALT
 70
     0
  9
$DIMALTD
 70
     3
  9
$DIMALTF
 40
0.0393700787
  9
$DIMLFAC
 40
1.0
  9
$DIMTOFL
 70
     1
  9
$DIMTVP
 40
0.0
  9
$DIMTIX
 70
     0
  9
$DIMSOXD
 70
     0
  9
$DIMSAH
 70
     0
  9
$DIMBLK1
  1

  9
$DIMBLK2
  1

  9
$DIMSTYLE
  2
ISO-25
  9
$DIMCLRD
 70
     0
  9
$DIMCLRE
 70
     0
  9
$DIMCLRT
 70
     0
  9
$DIMTFAC
 40
1.0
  9
$DIMGAP
 40
1.524
  9
$DIMJUST
 70
     0
  9
$DIMSD1
 70
     0
  9
$DIMSD2
 70
     0
  9
$DIMTOLJ
 70
     0
  9
$DIMTZIN
 70
     0
  9
$DIMALTZ
 70
     0
  9
$DIMALTTZ
 70
     0
  9
$DIMUPT
 70
     0
  9
$DIMDEC
 70
     2
  9
$DIMTDEC
 70
     0
  9
$DIMALTU
 70
     2
  9
$DIMALTTD
 70
     3
  9
$DIMTXSTY
  7
Standard
  9
$DIMAUNIT
 70
     0
  9
$DIMADEC
 70
     2
  9
$DIMALTRND
 40
0.0
  9
$DIMAZIN
 70
     0
  9
$DIMDSEP
 70
    44
  9
$DIMATFIT
 70
     3
  9
$DIMFRAC
 70
     0
  9
$DIMLDRBLK
  1

  9
$DIMLUNIT
 70
     2
  9
$DIMLWD
 70
    -2
  9
$DIMLWE
 70
    -2
  9
$DIMTMOVE
 70
     0
  9
$LUNITS
 70
     2
  9
$LUPREC
 70
     3
  9
$SKETCHINC
 40
1.0
  9
$FILLETRAD
 40
10.0
  9
$AUNITS
 70
     0
  9
$AUPREC
 70
     2
  9
$MENU
  1
.
  9
$ELEVATION
 40
0.0
  9
$PELEVATION
 40
0.0
  9
$THICKNESS
 40
0.0
  9
$LIMCHECK
 70
     0
  9
$CHAMFERA
 40
0.0
  9
$CHAMFERB
 40
0.0
  9
$CHAMFERC
 40
0.0
  9
$CHAMFERD
 40
0.0
  9
$SKPOLY
 70
     0
  9
$TDCREATE
 40
2459998.344169537
  9
$TDUCREATE
 40
2459998.302502871
  9
$TDUPDATE
 40
2459998.344169988
  9
$TDUUPDATE
 40
2459998.302503322
  9
$TDINDWG
 40
0.0000000116
  9
$TDUSRTIMER
 40
0.0000000116
  9
$USRTIMER
 70
     1
  9
$ANGBASE
 50
0.0
  9
$ANGDIR
 70
     0
  9
$PDMODE
 70
     0
  9
$PDSIZE
 40
-1.0
  9
$PLINEWID
 40
0.0
  9
$SPLFRAME
 70
     0
  9
$SPLINETYPE
 70
     6
  9
$SPLINESEGS
 70
     8
  9
$HANDSEED
  5
4B8
  9
$SURFTAB1
 70
     6
  9
$SURFTAB2
 70
     6
  9
$SURFTYPE
 70
     6
  9
$SURFU
 70
     6
  9
$SURFV
 70
     6
  9
$UCSBASE
  2

  9
$UCSNAME
  2

  9
$UCSORG
 10
0.0
 20
0.0
 30
0.0
  9
$UCSXDIR
 10
1.0
 20
0.0
 30
0.0
  9
$UCSYDIR
 10
0.0
 20
1.0
 30
0.0
  9
$UCSORTHOREF
  2

  9
$UCSORTHOVIEW
 70
     0
  9
$UCSORGTOP
 10
0.0
 20
0.0
 30
0.0
  9
$UCSORGBOTTOM
 10
0.0
 20
0.0
 30
0.0
  9
$UCSORGLEFT
 10
0.0
 20
0.0
 30
0.0
  9
$UCSORGRIGHT
 10
0.0
 20
0.0
 30
0.0
  9
$UCSORGFRONT
 10
0.0
 20
0.0
 30
0.0
  9
$UCSORGBACK
 10
0.0
 20
0.0
 30
0.0
  9
$PUCSBASE
  2

  9
$PUCSNAME
  2

  9
$PUCSORG
 10
0.0
 20
0.0
 30
0.0
  9
$PUCSXDIR
 10
1.0
 20
0.0
 30
0.0
  9
$PUCSYDIR
 10
0.0
 20
1.0
 30
0.0
  9
$PUCSORTHOREF
  2

  9
$PUCSORTHOVIEW
 70
     0
  9
$PUCSORGTOP
 10
0.0
 20
0.0
 30
0.0
  9
$PUCSORGBOTTOM
 10
0.0
 20
0.0
 30
0.0
  9
$PUCSORGLEFT
 10
0.0
 20
0.0
 30
0.0
  9
$PUCSORGRIGHT
 10
0.0
 20
0.0
 30
0.0
  9
$PUCSORGFRONT
 10
0.0
 20
0.0
 30
0.0
  9
$PUCSORGBACK
 10
0.0
 20
0.0
 30
0.0
  9
$USERI1
 70
     0
  9
$USERI2
 70
     0
  9
$USERI3
 70
     0
  9
$USERI4
 70
     0
  9
$USERI5
 70
     0
  9
$USERR1
 40
0.0
  9
$USERR2
 40
0.0
  9
$USERR3
 40
0.0
  9
$USERR4
 40
0.0
  9
$USERR5
 40
0.0
  9
$WORLDVIEW
 70
     1
  9
$SHADEDGE
 70
     3
  9
$SHADEDIF
 70
    70
  9
$TILEMODE
 70
     1
  9
$MAXACTVP
 70
    64
  9
$PINSBASE
 10
0.0
 20
0.0
 30
0.0
  9
$PLIMCHECK
 70
     0
  9
$PEXTMIN
 10
1.0000000000E+20
 20
1.0000000000E+20
 30
1.0000000000E+20
  9
$PEXTMAX
 10
-1.0000000000E+20
 20
-1.0000000000E+20
 30
-1.0000000000E+20
  9
$PLIMMIN
 10
0.0
 20
0.0
  9
$PLIMMAX
 10
420.0
 20
297.0
  9
$UNITMODE
 70
     0
  9
$VISRETAIN
 70
     1
  9
$PLINEGEN
 70
     0
  9
$PSLTSCALE
 70
     1
  9
$TREEDEPTH
 70
  3020
  9
$CMLSTYLE
  2
Standard
  9
$CMLJUST
 70
     0
  9
$CMLSCALE
 40
20.0
  9
$PROXYGRAPHICS
 70
     1
  9
$MEASUREMENT
 70
     1
  9
$CELWEIGHT
370
    -1
  9
$ENDCAPS
280
     0
  9
$JOINSTYLE
280
     0
  9
$LWDISPLAY
290
     1
  9
$INSUNITS
 70
     4
  9
$HYPERLINKBASE
  1

  9
$STYLESHEET
  1

  9
$XEDIT
290
     1
  9
$CEPSNTYPE
380
     0
  9
$PSTYLEMODE
290
     1
  9
$FINGERPRINTGUID
  2
{6b8fe4ab-772f-411f-9c01-8de2871f8819}
  9
$VERSIONGUID
  2
{FAEB1C32-E019-11D5-929B-00C0DF256EC4}
  9
$EXTNAMES
290
     1
  9
$PSVPSCALE
 40
0.0
  9
$OLESTARTUP
290
     0
  0
ENDSEC
  0
SECTION
  2
CLASSES
  0
CLASS
  1
ACDBDICTIONARYWDFLT
  2
AcDbDictionaryWithDefault
  3
ObjectDBX Classes
 90
        0
280
     0
281
     0
  0
CLASS
  1
VISUALSTYLE
  2
AcDbVisualStyle
  3
ObjectDBX Classes
 90
     4095
280
     0
281
     0
  0
CLASS
  1
MATERIAL
  2
AcDbMaterial
  3
ObjectDBX Classes
 90
     1153
280
     0
281
     0
  0
CLASS
  1
SCALE
  2
AcDbScale
  3
ObjectDBX Classes
 90
     1153
280
     0
281
     0
  0
CLASS
  1
TABLESTYLE
  2
AcDbTableStyle
  3
ObjectDBX Classes
 90
     4095
280
     0
281
     0
  0
CLASS
  1
MLEADERSTYLE
  2
AcDbMLeaderStyle
  3
ACDB_MLEADERSTYLE_CLASS
 90
     4095
280
     0
281
     0
  0
CLASS
  1
SUN
  2
AcDbSun
  3
SCENEOE
 90
     1153
280
     0
281
     0
  0
CLASS
  1
ACDBPLACEHOLDER
  2
AcDbPlaceHolder
  3
ObjectDBX Classes
 90
        0
280
     0
281
     0
  0
CLASS
  1
LAYOUT
  2
AcDbLayout
  3
ObjectDBX Classes
 90
        0
280
     0
281
     0
  0
ENDSEC
  0
SECTION
  2
TABLES
  0
TABLE
  2
VPORT
  5
8
330
0
100
AcDbSymbolTable
 70
     1
  0
VPORT
  5
29
330
8
100
AcDbSymbolTableRecord
100
AcDbViewportTableRecord
  2
*Active
 70
     0
 10
0.0
 20
0.0
 11
1.0
 21
1.0
 12
10000.0
 22
5000.0
 13
0.0
 23
0.0
 14
10.0
 24
10.0
 15
10.0
 25
10.0
 16
0.0
 26
0.0
 36
1.0
 17
0.0
 27
0.0
 37
0.0
 40
10000.0
 41
2.0
 42
50.0
 43
0.0
 44
0.0
 50
0.0
 51
0.0
 71
     0
 72
  2000
 73
     1
 74
     3
 75
     0
 76
     0
 77
     0
 78
     0
281
     0
 65
     1
110
0.0
120
0.0
130
0.0
111
1.0
121
0.0
131
0.0
112
0.0
122
1.0
132
0.0
 79
     0
146
0.0
  0
ENDTAB
  0
TABLE
  2
LTYPE
  5
5
330
0
100
AcDbSymbolTable
 70
     6
  0
LTYPE
  5
14
330
5
100
AcDbSymbolTableRecord
100
AcDbLinetypeTableRecord
  2
ByBlock
 70
     0
  3

 72
    65
 73
     0
 40
0.0
  0
LTYPE
  5
15
330
5
100
AcDbSymbolTableRecord
100
AcDbLinetypeTableRecord
  2
ByLayer
 70
     0
  3

 72
    65
 73
     0
 40
0.0
  0
LTYPE
  5
16
330
5
100
AcDbSymbolTableRecord
100
AcDbLinetypeTableRecord
  2
Continuous
 70
     0
  3
Solid line
 72
    65
 73
     0
 40
0.0
  0
LTYPE
  5
6E
330
5
100
AcDbSymbolTableRecord
100
AcDbLinetypeTableRecord
  2
HIDDEN
 70
     0
  3
Hidden __ __ __ __ __ __ __ __ __ __ __ __ __ __
 72
    65
 73
     2
 40
1.905
 49
1.27
 74
     0
 49
-0.635
 74
     0
  0
LTYPE
  5
6F
330
5
100
AcDbSymbolTableRecord
100
AcDbLinetypeTableRecord
  2
PHANTOM
 70
     0
  3
Phantom ______  __  __  ______  __  __  ______
 72
    65
 73
     6
 40
12.7
 49
6.35
 74
     0
 49
-1.27
 74
     0
 49
1.27
 74
     0
 49
-1.27
 74
     0
 49
1.27
 74
     0
 49
-1.27
 74
     0
  0
LTYPE
  5
70
330
5
100
AcDbSymbolTableRecord
100
AcDbLinetypeTableRecord
  2
CENTER
 70
     0
  3
Center ____ _ ____ _ ____ _ ____ _ ____ _ ____
 72
    65
 73
     4
 40
10.16
 49
6.35
 74
     0
 49
-1.27
 74
     0
 49
1.27
 74
     0
 49
-1.27
 74
     0
  0
LTYPE
  5
71
330
5
100
AcDbSymbolTableRecord
100
AcDbLinetypeTableRecord
  2
CENTERX2
 70
     0
  3
Center (2x) ________  __  ________  __  _____
 72
    65
 73
     4
 40
20.32
 49
12.7
 74
     0
 49
-2.54
 74
     0
 49
2.54
 74
     0
 49
-2.54
 74
     0
  0
LTYPE
  5
72
330
5
100
AcDbSymbolTableRecord
100
AcDbLinetypeTableRecord
  2
DOT2
 70
     0
  3
Dot (.5x) ........................................
 72
    65
 73
     2
 40
0.635
 49
0.0
 74
     0
 49
-0.635
 74
     0
  0
ENDTAB
  0
TABLE
  2
LAYER
  5
2
330
0
100
AcDbSymbolTable
 70
    13
  0
LAYER
  5
10
330
2
100
AcDbSymbolTableRecord
100
AcDbLayerTableRecord
  2
0
 70
     0
 62
     7
  6
Continuous
370
    -3
390
F
  0
LAYER
  5
73
330
2
100
AcDbSymbolTableRecord
100
AcDbLayerTableRecord
  2
FORMAT
 70
     0
 62
     7
  6
Continuous
370
    -3
390
F
  0
LAYER
  5
74
330
2
100
AcDbSymbolTableRecord
100
AcDbLayerTableRecord
  2
OSA
 70
     0
 62
     7
  6
CENTER
370
    -3
390
F
  0
LAYER
  5
75
330
2
100
AcDbSymbolTableRecord
100
AcDbLayerTableRecord
  2
0_35
 70
     0
 62
     7
  6
Continuous
370
    35
390
F
  0
LAYER
  5
76
330
2
100
AcDbSymbolTableRecord
100
AcDbLayerTableRecord
  2
0_5
 70
     0
 62
     7
  6
Continuous
370
    50
390
F
  0
LAYER
  5
77
330
2
100
AcDbSymbolTableRecord
100
AcDbLayerTableRecord
  2
0_25
 70
     0
 62
     7
  6
Continuous
370
    25
390
F
  0
LAYER
  5
78
330
2
100
AcDbSymbolTableRecord
100
AcDbLayerTableRecord
  2
0_18
 70
     0
 62
     7
  6
Continuous
370
    -3
390
F
  0
LAYER
  5
79
330
2
100
AcDbSymbolTableRecord
100
AcDbLayerTableRecord
  2
SLD-0
 70
     0
 62
   179
  6
Continuous
370
    -3
390
F
  0
LAYER
  5
7A
330
2
100
AcDbSymbolTableRecord
100
AcDbLayerTableRecord
  2
KOTY
 70
     0
 62
     7
  6
Continuous
370
    -3
390
F
  0
LAYER
  5
7B
330
2
100
AcDbSymbolTableRecord
100
AcDbLayerTableRecord
  2
SILNA
 70
     0
 62
   179
  6
Continuous
370
    -3
390
F
  0
LAYER
  5
7C
330
2
100
AcDbSymbolTableRecord
100
AcDbLayerTableRecord
  2
0_18_1
 70
     0
 62
   179
  6
Continuous
370
    -3
390
F
  0
LAYER
  5
7D
330
2
100
AcDbSymbolTableRecord
100
AcDbLayerTableRecord
  2
0_35_1
 70
     0
 62
   179
  6
Continuous
370
    35
390
F
  0
LAYER
  5
7E
330
2
100
AcDbSymbolTableRecord
100
AcDbLayerTableRecord
  2
0_5_1
 70
     0
 62
   179
  6
Continuous
370
    50
390
F
  0
ENDTAB
  0
TABLE
  2
STYLE
  5
3
330
0
100
AcDbSymbolTable
 70
     1
  0
STYLE
  5
11
330
3
100
AcDbSymbolTableRecord
100
AcDbTextStyleTableRecord
  2
Standard
 70
     0
 40
0.0
 41
1.0
 50
0.0
 71
     0
 42
2.0
  3
txt
  4

  0
ENDTAB
  0
TABLE
  2
VIEW
  5
6
330
0
100
AcDbSymbolTable
 70
     0
  0
ENDTAB
  0
TABLE
  2
UCS
  5
7
330
0
100
AcDbSymbolTable
 70
     0
  0
ENDTAB
  0
TABLE
  2
APPID
  5
9
330
0
100
AcDbSymbolTable
 70
     1
  0
APPID
  5
12
330
9
100
AcDbSymbolTableRecord
100
AcDbRegAppTableRecord
  2
ACAD
 70
     0
  0
ENDTAB
  0
TABLE
  2
DIMSTYLE
  5
A
330
0
100
AcDbSymbolTable
 70
     1
100
AcDbDimStyleTable
  0
DIMSTYLE
105
27
330
A
100
AcDbSymbolTableRecord
100
AcDbDimStyleTableRecord
  2
ISO-25
 70
     0
 41
2.5
 42
0.625
 43
3.75
 44
1.25
 73
     0
 74
     0
 77
     1
 78
     8
140
2.5
141
2.5
143
0.0393700787
147
0.625
171
     3
172
     1
178
     0
271
     2
272
     2
274
     3
278
    44
283
     0
284
     8
340
11
  0
ENDTAB
  0
TABLE
  2
BLOCK_RECORD
  5
1
330
0
100
AcDbSymbolTable
 70
     1
  0
BLOCK_RECORD
  5
1F
330
1
100
AcDbSymbolTableRecord
100
AcDbBlockTableRecord
  2
*Model_Space
340
22
  0
BLOCK_RECORD
  5
1B
330
1
100
AcDbSymbolTableRecord
100
AcDbBlockTableRecord
  2
*Paper_Space
340
1E
  0
BLOCK_RECORD
  5
23
330
1
100
AcDbSymbolTableRecord
100
AcDbBlockTableRecord
  2
*Paper_Space0
340
26
  0
ENDTAB
  0
ENDSEC
  0
SECTION
  2
BLOCKS
  0
BLOCK
  5
20
330
1F
100
AcDbEntity
  8
0
100
AcDbBlockBegin
  2
*Model_Space
 70
     0
 10
0.0
 20
0.0
 30
0.0
  3
*Model_Space
  1

  0
ENDBLK
  5
21
330
1F
100
AcDbEntity
  8
0
100
AcDbBlockEnd
  0
BLOCK
  5
1C
330
1B
100
AcDbEntity
 67
     1
  8
0
100
AcDbBlockBegin
  2
*Paper_Space
 70
     0
 10
0.0
 20
0.0
 30
0.0
  3
*Paper_Space
  1

  0
ENDBLK
  5
1D
330
1B
100
AcDbEntity
 67
     1
  8
0
100
AcDbBlockEnd
  0
BLOCK
  5
24
330
23
100
AcDbEntity
  8
0
100
AcDbBlockBegin
  2
*Paper_Space0
 70
     0
 10
0.0
 20
0.0
 30
0.0
  3
*Paper_Space0
  1

  0
ENDBLK
  5
25
330
23
100
AcDbEntity
  8
0
100
AcDbBlockEnd
  0
ENDSEC
  0
SECTION
  2
ENTITIES
  0
LWPOLYLINE
  5
7F
330
1F
100
AcDbEntity
  8
0
  6
Continuous
 62
     7
370
    25
100
AcDbPolyline
 90
        3
 70
   128
 43
0.0
 10
6283.5278204571
 20
5309.5081398066
 10
6284.1012713441
 20
5309.1768292248
 10
6284.6644508565
 20
5308.8514562595
  0
LWPOLYLINE
  5
80
330
1F
100
AcDbEntity
  8
0
  6
Continuous
 62
     7
370
    25
100
AcDbPolyline
 90
        3
 70
   128
 43
0.0
 10
6283.5278204571
 20
5307.3914731399
 10
6284.1015021464
 20
5307.0600219927
 10
6284.6644507171
 20
5306.7347895499
  0
LWPOLYLINE
  5
81
330
1F
100
AcDbEntity
  8
0
  6
Continuous
 62
     7
370
    25
100
AcDbPolyline
 90
        3
 70
   128
 43
0.0
 10
6283.5278204571
 20
5305.2748064732
 10
6284.1017356739
 20
5304.9432147503
 10
6284.6644506464
 20
5304.6181228273
  0
LWPOLYLINE
  5
82
330
1F
100
AcDbEntity
  8
0
  6
Continuous
 62
     7
370
    25
100
AcDbPolyline
 90
        3
 70
   128
 43
0.0
 10
6315.3632673743
 20
5307.7874653468
 10
6315.9362376147
 20
5308.1184948418
 10
6316.5096883994
 20
5308.4498053444
  0
LWPOLYLINE
  5
83
330
1F
100
AcDbEntity
  8
0
  6
Continuous
 62
     7
370
    25
100
AcDbPolyline
 90
        3
 70
   128
 43
0.0
 10
6315.3632673743
 20
5305.6707986802
 10
6315.936006792
 20
5306.0016876097
 10
6316.5096883994
 20
5306.3331386778
  0
LWPOLYLINE
  5
84
330
1F
100
AcDbEntity
  8
0
  6
Continuous
 62
     7
370
    25
100
AcDbPolyline
 90
        3
 70
   128
 43
0.0
 10
6315.3632673743
 20
5303.5541320135
 10
6315.9357732442
 20
5303.8848803672
 10
6316.5096883994
 20
5304.2164720111
  0
LWPOLYLINE
  5
85
330
1F
100
AcDbEntity
  8
0
  6
Continuous
 62
     7
370
    25
100
AcDbPolyline
 90
        3
 70
   128
 43
0.0
 10
6315.3632673743
 20
5309.9041320135
 10
6315.9364657124
 20
5310.2353020636
 10
6316.5096883994
 20
5310.5664720111
  0
LINE
  5
86
330
1F
100
AcDbEntity
  8
0
  6
Continuous
 62
     7
370
    25
100
AcDbLine
 10
6284.247593819
 20
5311.2089656592
 30
0.0
 11
6284.6644510648
 21
5310.9681229559
 31
0.0
  0
LWPOLYLINE
  5
87
330
1F
100
AcDbEntity
  8
0
  6
Continuous
 62
     7
370
    25
100
AcDbPolyline
 90
        3
 70
   128
 43
0.0
 10
6284.6756068144
 20
5308.3416313619
 10
6284.1021842694
 20
5308.0103363934
 10
6283.5292137242
 20
5307.6793177342
  0
LWPOLYLINE
  5
88
330
1F
100
AcDbEntity
  8
0
  6
Continuous
 62
     7
370
    25
100
AcDbPolyline
 90
        3
 70
   128
 43
0.0
 10
6284.6756068144
 20
5306.2249646952
 10
6284.1019469154
 20
5305.8935314774
 10
6283.5292137242
 20
5305.5626510675
  0
LWPOLYLINE
  5
89
330
1F
100
AcDbEntity
  8
0
  6
Continuous
 62
     7
370
    25
100
AcDbPolyline
 90
        3
 70
   128
 43
0.0
 10
6284.6756068144
 20
5304.1082980286
 10
6284.1017122418
 20
5303.776726545
 10
6283.5292137242
 20
5303.4459844008
  0
LWPOLYLINE
  5
8A
330
1F
100
AcDbEntity
  8
0
  6
Continuous
 62
     7
370
    25
100
AcDbPolyline
 90
        3
 70
   128
 43
0.0
 10
6316.4970351075
 20
5308.7429270631
 10
6315.9238952449
 20
5309.0740835604
 10
6315.3730596877
 20
5309.3922657756
  0
LWPOLYLINE
  5
8B
330
1F
100
AcDbEntity
  8
0
  6
Continuous
 62
     7
370
    25
100
AcDbPolyline
 90
        3
 70
   128
 43
0.0
 10
6316.4970351075
 20
5306.6262603964
 10
6315.9242375085
 20
5306.9572793114
 10
6315.3730597822
 20
5307.2756014564
  0
LWPOLYLINE
  5
8C
330
1F
100
AcDbEntity
  8
0
  6
Continuous
 62
     7
370
    25
100
AcDbPolyline
 90
        3
 70
   128
 43
0.0
 10
6316.4970351075
 20
5304.5095937298
 10
6315.9245771074
 20
5304.8404750448
 10
6315.3730598305
 20
5305.1589370987
  0
LWPOLYLINE
  5
8D
330
1F
100
AcDbEntity
  8
0
  6
Continuous
 62
     7
370
    25
100
AcDbPolyline
 90
        3
 70
   128
 43
0.0
 10
6316.4970351075
 20
5302.3929270631
 10
6315.9249140413
 20
5302.7236707606
 10
6315.3730598326
 20
5303.0422727029
  0
LINE
  5
8E
330
1F
100
AcDbEntity
  8
0
  6
Continuous
 62
     7
370
    25
100
AcDbLine
 10
6315.6035240675
 20
5311.3757807613
 30
0.0
 11
6315.3730595474
 21
5311.5089300563
 31
0.0
  0
LWPOLYLINE
  5
8F
330
1F
100
AcDbEntity
  8
0
  6
Continuous
 62
     7
370
    25
100
AcDbPolyline
 90
        3
 70
   128
 43
0.0
 10
6284.6756068144
 20
5310.4582980286
 10
6284.1024243034
 20
5310.1271412932
 10
6283.5292137242
 20
5309.7959844008
  0
LINE
  5
90
330
1F
100
AcDbEntity
  8
0
  6
Continuous
 62
     7
370
    25
100
AcDbLine
 10
6315.3548249072
 20
5311.6633850216
 30
0.0
 11
6314.8187553361
 21
5312.1994545927
 31
0.0
  0
LINE
  5
91
330
1F
100
AcDbEntity
  8
0
  6
Continuous
 62
     7
370
    25
100
AcDbLine
 10
6316.44335659
 20
5310.5748533388
 30
0.0
 11
6315.7021854564
 21
5311.3160244724
 31
0.0
  0
LINE
  5
92
330
1F
100
AcDbEntity
  8
0
  6
Continuous
 62
     7
370
    25
100
AcDbLine
 10
6285.2187553361
 20
5312.1994545927
 30
0.0
 11
6284.2545788678
 21
5311.2352781244
 31
0.0
  0
LWPOLYLINE
  5
93
330
1F
100
AcDbEntity
  8
0
  6
Continuous
 62
     7
370
    25
100
AcDbPolyline
 90
        3
 70
   128
 43
0.0
 10
6284.6644510648
 20
5308.8584206339
 10
6284.6644431473
 20
5308.5936977837
 10
6284.6644508872
 20
5308.3351860231
  0
LWPOLYLINE
  5
94
330
1F
100
AcDbEntity
  8
0
  6
Continuous
 62
     7
370
    25
100
AcDbPolyline
 90
        3
 70
   128
 43
0.0
 10
6284.6644510648
 20
5306.7417539673
 10
6284.6644378398
 20
5306.4768915867
 10
6284.664450768
 20
5306.2185192659
  0
LWPOLYLINE
  5
95
330
1F
100
AcDbEntity
  8
0
  6
Continuous
 62
     7
370
    25
100
AcDbPolyline
 90
        3
 70
   128
 43
0.0
 10
6284.6644510648
 20
5304.6250873006
 10
6284.6644351426
 20
5304.3600853764
 10
6284.6644507073
 20
5304.101852512
  0
LWPOLYLINE
  5
96
330
1F
100
AcDbEntity
  8
0
  6
Continuous
 62
     7
370
    25
100
AcDbPolyline
 90
        3
 70
   128
 43
0.0
 10
6315.3730595474
 20
5309.3875882072
 10
6315.3730674819
 20
5309.6520320237
 10
6315.3730597562
 20
5309.9097896426
  0
LWPOLYLINE
  5
97
330
1F
100
AcDbEntity
  8
0
  6
Continuous
 62
     7
370
    25
100
AcDbPolyline
 90
        3
 70
   128
 43
0.0
 10
6315.3730595474
 20
5307.2709215405
 10
6315.3730728064
 20
5307.5352258268
 10
6315.3730598961
 20
5307.7931229068
  0
LWPOLYLINE
  5
98
330
1F
100
AcDbEntity
  8
0
  6
Continuous
 62
     7
370
    25
100
AcDbPolyline
 90
        3
 70
   128
 43
0.0
 10
6315.3730595474
 20
5305.1542548738
 10
6315.3730755205
 20
5305.4184196165
 10
6315.3730599672
 20
5305.676456158
  0
LWPOLYLINE
  5
99
330
1F
100
AcDbEntity
  8
0
  6
Continuous
 62
     7
370
    25
100
AcDbPolyline
 90
        3
 70
   128
 43
0.0
 10
6315.3730595474
 20
5303.0375882072
 10
6315.3730756241
 20
5303.3016133929
 10
6315.3730599697
 20
5303.5597893962
  0
LINE
  5
9A
330
1F
100
AcDbEntity
  8
0
  6
Continuous
 62
     7
370
    25
100
AcDbLine
 10
6315.3730595474
 20
5311.5042548738
 30
0.0
 11
6315.3730595474
 21
5311.6451340281
 31
0.0
  0
LINE
  5
9B
330
1F
100
AcDbEntity
  8
0
  6
Continuous
 62
     7
370
    25
100
AcDbLine
 10
6284.6644510648
 20
5310.9750873006
 30
0.0
 11
6284.6644510648
 21
5310.4518527837
 31
0.0
  0
LINE
  5
9C
330
1F
100
AcDbEntity
  8
0
  6
Continuous
 62
     7
370
    25
100
AcDbLine
 10
6316.5187553361
 20
5308.4610645521
 30
0.0
 11
6316.5187553361
 21
5308.8062257743
 31
0.0
  0
LINE
  5
9D
330
1F
100
AcDbEntity
  8
0
  6
Continuous
 62
     7
370
    25
100
AcDbLine
 10
6316.5187553361
 20
5304.2277312188
 30
0.0
 11
6316.5187553361
 21
5304.5728924409
 31
0.0
  0
LINE
  5
9E
330
1F
100
AcDbEntity
  8
0
  6
Continuous
 62
     7
370
    25
100
AcDbLine
 10
6316.5187553361
 20
5306.3443978854
 30
0.0
 11
6316.5187553361
 21
5306.6895591076
 31
0.0
  0
LINE
  5
9F
330
1F
100
AcDbEntity
  8
0
  6
Continuous
 62
     7
370
    25
100
AcDbLine
 10
6316.5187553361
 20
5302.1994545927
 30
0.0
 11
6316.5187553361
 21
5302.4562257743
 31
0.0
  0
LINE
  5
A0
330
1F
100
AcDbEntity
  8
0
  6
Continuous
 62
     7
370
    25
100
AcDbLine
 10
6283.5187553361
 20
5305.6312257743
 30
0.0
 11
6283.5187553361
 21
5305.2860645521
 31
0.0
  0
LINE
  5
A1
330
1F
100
AcDbEntity
  8
0
  6
Continuous
 62
     7
370
    25
100
AcDbLine
 10
6283.5187553361
 20
5307.7478924409
 30
0.0
 11
6283.5187553361
 21
5307.4027312188
 31
0.0
  0
LINE
  5
A2
330
1F
100
AcDbEntity
  8
0
  6
Continuous
 62
     7
370
    25
100
AcDbLine
 10
6283.5187553361
 20
5309.8645591076
 30
0.0
 11
6283.5187553361
 21
5309.5193978854
 31
0.0
  0
LINE
  5
A3
330
1F
100
AcDbEntity
  8
0
  6
Continuous
 62
     7
370
    25
100
AcDbLine
 10
6283.5187553361
 20
5303.5145591076
 30
0.0
 11
6283.5187553361
 21
5302.1994545927
 31
0.0
  0
LINE
  5
A4
330
1F
100
AcDbEntity
  8
0
  6
Continuous
 62
     7
370
    25
100
AcDbLine
 10
6317.3187553361
 20
5298.6994545927
 30
0.0
 11
6317.3187553361
 21
5302.1994545927
 31
0.0
  0
LINE
  5
A5
330
1F
100
AcDbEntity
  8
0
  6
Continuous
 62
     7
370
    25
100
AcDbLine
 10
6282.7187553361
 20
5302.1994545927
 30
0.0
 11
6282.7187553361
 21
5298.6994545927
 31
0.0
  0
LWPOLYLINE
  5
A6
330
1F
100
AcDbEntity
  8
0
  6
Continuous
 62
     7
370
    25
100
AcDbPolyline
 90
        3
 70
   128
 43
0.0
 10
6316.5093360207
 20
5117.924436848
 10
6315.9358400777
 20
5118.255775629
 10
6315.3730622016
 20
5118.5809224942
  0
LWPOLYLINE
  5
A7
330
1F
100
AcDbEntity
  8
0
  6
Continuous
 62
     7
370
    25
100
AcDbPolyline
 90
        3
 70
   128
 43
0.0
 10
6316.5093360207
 20
5120.0411035147
 10
6315.9356037797
 20
5120.3725843128
 10
6315.3730623241
 20
5120.6975891882
  0
LWPOLYLINE
  5
A8
330
1F
100
AcDbEntity
  8
0
  6
Continuous
 62
     7
370
    25
100
AcDbPolyline
 90
        3
 70
   128
 43
0.0
 10
6316.5093360207
 20
5122.1577701814
 10
6315.9353647427
 20
5122.4893929982
 10
6315.3730623762
 20
5122.8142558947
  0
LWPOLYLINE
  5
A9
330
1F
100
AcDbEntity
  8
0
  6
Continuous
 62
     7
370
    25
100
AcDbPolyline
 90
        3
 70
   128
 43
0.0
 10
6284.6746710635
 20
5119.645161865
 10
6284.1016675723
 20
5119.3141071353
 10
6283.528171743
 20
5118.9827683948
  0
LWPOLYLINE
  5
AA
330
1F
100
AcDbEntity
  8
0
  6
Continuous
 62
     7
370
    25
100
AcDbPolyline
 90
        3
 70
   128
 43
0.0
 10
6284.6746710635
 20
5121.7618285316
 10
6284.1019038351
 20
5121.430915819
 10
6283.528171743
 20
5121.0994350614
  0
LWPOLYLINE
  5
AB
330
1F
100
AcDbEntity
  8
0
  6
Continuous
 62
     7
370
    25
100
AcDbPolyline
 90
        3
 70
   128
 43
0.0
 10
6284.6746710635
 20
5123.8784951983
 10
6284.1021428369
 20
5123.5477245045
 10
6283.528171743
 20
5123.2161017281
  0
LWPOLYLINE
  5
AC
330
1F
100
AcDbEntity
  8
0
  6
Continuous
 62
     7
370
    25
100
AcDbPolyline
 90
        3
 70
   128
 43
0.0
 10
6284.6746710635
 20
5117.5284951983
 10
6284.1014340485
 20
5117.1972984533
 10
6283.528171743
 20
5116.8661017281
  0
LINE
  5
AD
330
1F
100
AcDbEntity
  8
0
  6
Continuous
 62
     7
370
    25
100
AcDbLine
 10
6315.7768441886
 20
5116.2309642771
 30
0.0
 11
6315.3730620087
 21
5116.4642558128
 31
0.0
  0
LWPOLYLINE
  5
AE
330
1F
100
AcDbEntity
  8
0
  6
Continuous
 62
     7
370
    25
100
AcDbPolyline
 90
        3
 70
   128
 43
0.0
 10
6315.3602396659
 20
5119.0895346096
 10
6315.9337050137
 20
5119.4208545896
 10
6316.5066836718
 20
5119.751892459
  0
LWPOLYLINE
  5
AF
330
1F
100
AcDbEntity
  8
0
  6
Continuous
 62
     7
370
    25
100
AcDbPolyline
 90
        3
 70
   128
 43
0.0
 10
6315.3602396659
 20
5121.2062012763
 10
6315.9339617135
 20
5121.5376623624
 10
6316.5066836718
 20
5121.8685591256
  0
LWPOLYLINE
  5
B0
330
1F
100
AcDbEntity
  8
0
  6
Continuous
 62
     7
370
    25
100
AcDbPolyline
 90
        3
 70
   128
 43
0.0
 10
6315.3602396659
 20
5123.322867943
 10
6315.9342156923
 20
5123.6544701434
 10
6316.5066836718
 20
5123.9852257923
  0
LWPOLYLINE
  5
B1
330
1F
100
AcDbEntity
  8
0
  6
Continuous
 62
     7
370
    25
100
AcDbPolyline
 90
        3
 70
   128
 43
0.0
 10
6283.530828462
 20
5118.6935583359
 10
6284.1038072325
 20
5118.3625203956
 10
6284.6644484628
 20
5118.0386095685
  0
LWPOLYLINE
  5
B2
330
1F
100
AcDbEntity
  8
0
  6
Continuous
 62
     7
370
    25
100
AcDbPolyline
 90
        3
 70
   128
 43
0.0
 10
6283.530828462
 20
5120.8102250025
 10
6284.1035505161
 20
5120.4793281684
 10
6284.6644483568
 20
5120.1552761352
  0
LWPOLYLINE
  5
B3
330
1F
100
AcDbEntity
  8
0
  6
Continuous
 62
     7
370
    25
100
AcDbPolyline
 90
        3
 70
   128
 43
0.0
 10
6283.530828462
 20
5122.9268916692
 10
6284.1032965207
 20
5122.5961359494
 10
6284.6644483115
 20
5122.2719427023
  0
LWPOLYLINE
  5
B4
330
1F
100
AcDbEntity
  8
0
  6
Continuous
 62
     7
370
    25
100
AcDbPolyline
 90
        3
 70
   128
 43
0.0
 10
6283.530828462
 20
5125.0435583359
 10
6284.1030452466
 20
5124.7129437387
 10
6284.6644483271
 20
5124.3886092696
  0
LINE
  5
B5
330
1F
100
AcDbEntity
  8
0
  6
Continuous
 62
     7
370
    25
100
AcDbLine
 10
6284.3303549447
 20
5116.1149709655
 30
0.0
 11
6284.6644486295
 21
5115.9219430022
 31
0.0
  0
LWPOLYLINE
  5
B6
330
1F
100
AcDbEntity
  8
0
  6
Continuous
 62
     7
370
    25
100
AcDbPolyline
 90
        3
 70
   128
 43
0.0
 10
6315.3602396659
 20
5116.972867943
 10
6315.9334455931
 20
5117.3040468251
 10
6316.5066836718
 20
5117.6352257923
  0
LINE
  5
B7
330
1F
100
AcDbEntity
  8
0
  6
Continuous
 62
     7
370
    25
100
AcDbLine
 10
6284.6783377464
 20
5115.7398721824
 30
0.0
 11
6285.2187553361
 21
5115.1994545927
 31
0.0
  0
LINE
  5
B8
330
1F
100
AcDbEntity
  8
0
  6
Continuous
 62
     7
370
    25
100
AcDbLine
 10
6283.5648122415
 20
5116.8533976873
 30
0.0
 11
6284.2785974848
 21
5116.139612444
 31
0.0
  0
LINE
  5
B9
330
1F
100
AcDbEntity
  8
0
  6
Continuous
 62
     7
370
    25
100
AcDbLine
 10
6314.8187553361
 20
5115.1994545927
 30
0.0
 11
6315.7918268973
 21
5116.1725261539
 31
0.0
  0
LWPOLYLINE
  5
BA
330
1F
100
AcDbEntity
  8
0
  6
Continuous
 62
     7
370
    25
100
AcDbPolyline
 90
        3
 70
   128
 43
0.0
 10
6315.3730620087
 20
5118.5738715559
 10
6315.3730692503
 20
5118.8385966044
 10
6315.3730621756
 20
5119.096942823
  0
LWPOLYLINE
  5
BB
330
1F
100
AcDbEntity
  8
0
  6
Continuous
 62
     7
370
    25
100
AcDbPolyline
 90
        3
 70
   128
 43
0.0
 10
6315.3730620087
 20
5120.6905382226
 10
6315.3730738545
 20
5120.9554049911
 10
6315.3730622819
 20
5121.2136093901
  0
LWPOLYLINE
  5
BC
330
1F
100
AcDbEntity
  8
0
  6
Continuous
 62
     7
370
    25
100
AcDbPolyline
 90
        3
 70
   128
 43
0.0
 10
6315.3730620087
 20
5122.8072048893
 10
6315.3730758211
 20
5123.0722133828
 10
6315.3730623275
 20
5123.3302759576
  0
LWPOLYLINE
  5
BD
330
1F
100
AcDbEntity
  8
0
  6
Continuous
 62
     7
370
    25
100
AcDbPolyline
 90
        3
 70
   128
 43
0.0
 10
6284.6644486295
 20
5118.0447054517
 10
6284.6644413984
 20
5117.7802638335
 10
6284.6644484369
 20
5117.5225889142
  0
LWPOLYLINE
  5
BE
330
1F
100
AcDbEntity
  8
0
  6
Continuous
 62
     7
370
    25
100
AcDbPolyline
 90
        3
 70
   128
 43
0.0
 10
6284.6644486295
 20
5120.1613721184
 10
6284.6644368047
 20
5119.8970722203
 10
6284.6644483148
 20
5119.6392556369
  0
LWPOLYLINE
  5
BF
330
1F
100
AcDbEntity
  8
0
  6
Continuous
 62
     7
370
    25
100
AcDbPolyline
 90
        3
 70
   128
 43
0.0
 10
6284.6644486295
 20
5122.278038785
 10
6284.6644348485
 20
5122.013880612
 10
6284.6644482629
 20
5121.755922372
  0
LWPOLYLINE
  5
C0
330
1F
100
AcDbEntity
  8
0
  6
Continuous
 62
     7
370
    25
100
AcDbPolyline
 90
        3
 70
   128
 43
0.0
 10
6284.6644486295
 20
5124.3947054517
 10
6284.66443553
 20
5124.1306890086
 10
6284.6644482812
 20
5123.8725891195
  0
LINE
  5
C1
330
1F
100
AcDbEntity
  8
0
  6
Continuous
 62
     7
370
    25
100
AcDbLine
 10
6284.6644486295
 20
5115.928038785
 30
0.0
 11
6284.6644486295
 21
5115.7537751573
 31
0.0
  0
LINE
  5
C2
330
1F
100
AcDbEntity
  8
0
  6
Continuous
 62
     7
370
    25
100
AcDbLine
 10
6315.3730620087
 20
5116.4572048893
 30
0.0
 11
6315.3730620087
 21
5116.9802762564
 31
0.0
  0
LINE
  5
C3
330
1F
100
AcDbEntity
  8
0
  6
Continuous
 62
     7
370
    25
100
AcDbLine
 10
6316.5187553361
 20
5121.8815954739
 30
0.0
 11
6316.5187553361
 21
5122.2289599892
 31
0.0
  0
LINE
  5
C4
330
1F
100
AcDbEntity
  8
0
  6
Continuous
 62
     7
370
    25
100
AcDbLine
 10
6316.5187553361
 20
5119.7649288072
 30
0.0
 11
6316.5187553361
 21
5120.1122933226
 31
0.0
  0
LINE
  5
C5
330
1F
100
AcDbEntity
  8
0
  6
Continuous
 62
     7
370
    25
100
AcDbLine
 10
6316.5187553361
 20
5117.6482621406
 30
0.0
 11
6316.5187553361
 21
5117.9956266559
 31
0.0
  0
LINE
  5
C6
330
1F
100
AcDbEntity
  8
0
  6
Continuous
 62
     7
370
    25
100
AcDbLine
 10
6316.5187553361
 20
5123.9982621406
 30
0.0
 11
6316.5187553361
 21
5125.1994545927
 31
0.0
  0
LINE
  5
C7
330
1F
100
AcDbEntity
  8
0
  6
Continuous
 62
     7
370
    25
100
AcDbLine
 10
6283.5187553361
 20
5123.2872933226
 30
0.0
 11
6283.5187553361
 21
5122.9399288072
 31
0.0
  0
LINE
  5
C8
330
1F
100
AcDbEntity
  8
0
  6
Continuous
 62
     7
370
    25
100
AcDbLine
 10
6283.5187553361
 20
5121.1706266559
 30
0.0
 11
6283.5187553361
 21
5120.8232621406
 31
0.0
  0
LINE
  5
C9
330
1F
100
AcDbEntity
  8
0
  6
Continuous
 62
     7
370
    25
100
AcDbLine
 10
6283.5187553361
 20
5119.0539599892
 30
0.0
 11
6283.5187553361
 21
5118.7065954739
 31
0.0
  0
LINE
  5
CA
330
1F
100
AcDbEntity
  8
0
  6
Continuous
 62
     7
370
    25
100
AcDbLine
 10
6283.5187553361
 20
5125.1994545927
 30
0.0
 11
6283.5187553361
 21
5125.0565954739
 31
0.0
  0
LINE
  5
CB
330
1F
100
AcDbEntity
  8
0
  6
Continuous
 62
     7
370
    25
100
AcDbLine
 10
6317.3187553361
 20
5125.1994545927
 30
0.0
 11
6317.3187553361
 21
5128.6994545927
 31
0.0
  0
LINE
  5
CC
330
1F
100
AcDbEntity
  8
0
  6
Continuous
 62
     7
370
    25
100
AcDbLine
 10
6282.7187553361
 20
5128.6994545927
 30
0.0
 11
6282.7187553361
 21
5125.1994545927
 31
0.0
  0
LWPOLYLINE
  5
CD
330
1F
100
AcDbEntity
  8
0
  6
Continuous
 62
     7
370
    25
100
AcDbPolyline
 90
        9
 70
   128
 43
0.0
 10
6283.9450741116
 20
5309.5949487393
 10
6283.8270826833
 20
5309.5836197444
 10
6283.7280171676
 20
5309.5723423789
 10
6283.6479933589
 20
5309.5611166429
 10
6283.5871047944
 20
5309.5499425363
 10
6283.531481006
 20
5309.5326840028
 10
6283.5204383037
 20
5309.5242413434
 10
6283.5205089735
 20
5309.5144537766
 10
6283.5299916771
 20
5309.5081356779
  0
ARC
  5
CE
330
1F
100
AcDbEntity
  8
0
  6
Continuous
 62
     7
370
    25
100
AcDbCircle
 10
6285.5242553071
 20
5315.4703867633
 30
0.0
 40
6.083961310035011
100
AcDbArc
 50
254.9557693115
 51
290.245287012
  0
LWPOLYLINE
  5
CF
330
1F
100
AcDbEntity
  8
0
  6
Continuous
 62
     7
370
    25
100
AcDbPolyline
 90
        9
 70
   128
 43
0.0
 10
6295.2091548638
 20
5309.9489287769
 10
6294.1229418907
 20
5309.9253736242
 10
6293.0652891011
 20
5309.9016873132
 10
6292.0413199199
 20
5309.877869844
 10
6291.0559946034
 20
5309.8539212165
 10
6290.2404279319
 20
5309.8334750617
 10
6289.2309592819
 20
5309.8072999824
 10
6288.4031075638
 20
5309.7846877421
 10
6287.6295485667
 20
5309.7622937794
  0
ARC
  5
D0
330
1F
100
AcDbEntity
  8
0
  6
Continuous
 62
     7
370
    25
100
AcDbCircle
 10
6298.6582998994
 20
5338.0593289523
 30
0.0
 40
28.32121465429568
100
AcDbArc
 50
263.0047752137
 51
279.3545937447
  0
LWPOLYLINE
  5
D1
330
1F
100
AcDbEntity
  8
0
  6
Continuous
 62
     7
370
    25
100
AcDbPolyline
 90
        7
 70
   128
 43
0.0
 10
6311.2828360883
 20
5310.3008258136
 10
6309.9141516447
 20
5310.2639623709
 10
6308.6555979947
 20
5310.2329497417
 10
6307.5593017198
 20
5310.2077879261
 10
6306.4191665261
 20
5310.1826261104
 10
6304.9907894808
 20
5310.1516134812
 10
6303.2617452208
 20
5310.1147500385
  0
ARC
  5
D2
330
1F
100
AcDbEntity
  8
0
  6
Continuous
 62
     7
370
    25
100
AcDbCircle
 10
6313.1549708282
 20
5318.6005159163
 30
0.0
 40
8.508216281079498
100
AcDbArc
 50
257.288708524
 51
287.0592981326
  0
LINE
  5
D3
330
1F
100
AcDbEntity
  8
0
  6
Continuous
 62
     7
370
    25
100
AcDbLine
 10
6316.0872663782
 20
5310.4994545927
 30
0.0
 11
6315.6509519902
 21
5310.4666470752
 31
0.0
  0
LWPOLYLINE
  5
D4
330
1F
100
AcDbEntity
  8
0
  6
Continuous
 62
     7
370
    25
100
AcDbPolyline
 90
        3
 70
   128
 43
0.0
 10
6316.4330299251
 20
5310.5418577303
 10
6316.4480408673
 20
5310.5349806502
 10
6316.0872663782
 20
5310.4994545927
  0
LWPOLYLINE
  5
D5
330
1F
100
AcDbEntity
  8
0
  6
Continuous
 62
     7
370
    25
100
AcDbPolyline
 90
       13
 70
   128
 43
0.0
 10
6306.2829658766
 20
5311.6451340281
 10
6303.6854545305
 20
5311.6067268886
 10
6301.1637206813
 20
5311.5706726545
 10
6298.6044943177
 20
5311.5352146399
 10
6296.006217416
 20
5311.4995830134
 10
6293.5791869073
 20
5311.4639526466
 10
6291.2607322629
 20
5311.4271443981
 10
6289.2318396268
 20
5311.3920008247
 10
6287.4486285886
 20
5311.3562020216
 10
6286.0535154265
 20
5311.3203948201
 10
6285.0371768243
 20
5311.2846845569
 10
6284.4160060495
 20
5311.2490304611
 10
6284.2698928493
 20
5311.219964143
  0
LINE
  5
D6
330
1F
100
AcDbEntity
  8
0
  6
Continuous
 62
     7
370
    25
100
AcDbLine
 10
6284.2395771978
 20
5311.2139334465
 30
0.0
 11
6284.2496594471
 21
5311.2125408258
 31
0.0
  0
LWPOLYLINE
  5
D7
330
1F
100
AcDbEntity
  8
0
  6
Continuous
 62
     7
370
    25
100
AcDbPolyline
 90
       12
 70
   128
 43
0.0
 10
6306.2829658766
 20
5311.6451340281
 10
6303.0855512888
 20
5311.5710722217
 10
6300.1666241306
 20
5311.5057007912
 10
6297.2818595826
 20
5311.4429865846
 10
6294.4804907114
 20
5311.3792921336
 10
6291.8547192483
 20
5311.3137721699
 10
6289.5466376604
 20
5311.2499669482
 10
6287.6257201611
 20
5311.1873410191
 10
6286.1274800615
 20
5311.1220041995
 10
6285.1390818976
 20
5311.0573092688
 10
6284.692970846
 20
5310.9951214412
 10
6284.7244067397
 20
5310.9749281576
  0
LWPOLYLINE
  5
D8
330
1F
100
AcDbEntity
  8
0
  6
Continuous
 62
     7
370
    25
100
AcDbPolyline
 90
       18
 70
   128
 43
0.0
 10
6315.3563634125
 20
5309.9042460047
 10
6314.9963877512
 20
5309.8404670287
 10
6314.0864763211
 20
5309.7762494086
 10
6312.6845662868
 20
5309.7138978209
 10
6310.8037829246
 20
5309.6487367191
 10
6308.6631774992
 20
5309.5872210582
 10
6306.2829658766
 20
5309.5284673615
 10
6303.0855512888
 20
5309.454405555
 10
6300.1666241306
 20
5309.3890341246
 10
6297.2818595826
 20
5309.3263199179
 10
6294.4804907114
 20
5309.2626254669
 10
6291.8547192483
 20
5309.1971055032
 10
6289.5466376604
 20
5309.1333002815
 10
6287.6257201611
 20
5309.0706743524
 10
6286.1274800615
 20
5309.0053375328
 10
6285.1390818976
 20
5308.9406426021
 10
6284.692970846
 20
5308.8784547745
 10
6284.7244067894
 20
5308.858261459
  0
LWPOLYLINE
  5
D9
330
1F
100
AcDbEntity
  8
0
  6
Continuous
 62
     7
370
    25
100
AcDbPolyline
 90
       18
 70
   128
 43
0.0
 10
6315.3563077793
 20
5307.7875694812
 10
6314.9963877512
 20
5307.7238003621
 10
6314.0864763211
 20
5307.6595827419
 10
6312.6845662868
 20
5307.5972311542
 10
6310.8037829246
 20
5307.5320700524
 10
6308.6631774992
 20
5307.4705543915
 10
6306.2829658766
 20
5307.4118006948
 10
6303.0855512888
 20
5307.3377388884
 10
6300.1666241306
 20
5307.2723674579
 10
6297.2818595826
 20
5307.2096532513
 10
6294.4804907114
 20
5307.1459588002
 10
6291.8547192483
 20
5307.0804388365
 10
6289.5466376604
 20
5307.0166336148
 10
6287.6257201611
 20
5306.9540076857
 10
6286.1274800615
 20
5306.8886708661
 10
6285.1390818976
 20
5306.8239759354
 10
6284.692970846
 20
5306.7617881079
 10
6284.724406756
 20
5306.7415948138
  0
LWPOLYLINE
  5
DA
330
1F
100
AcDbEntity
  8
0
  6
Continuous
 62
     7
370
    25
100
AcDbPolyline
 90
       18
 70
   128
 43
0.0
 10
6315.356252235
 20
5305.6708929734
 10
6314.9963877512
 20
5305.6071336954
 10
6314.0864763211
 20
5305.5429160753
 10
6312.6845662868
 20
5305.4805644875
 10
6310.8037829246
 20
5305.4154033858
 10
6308.6631774992
 20
5305.3538877248
 10
6306.2829658766
 20
5305.2951340281
 10
6303.0855512888
 20
5305.2210722217
 10
6300.1666241306
 20
5305.1557007912
 10
6297.2818595826
 20
5305.0929865846
 10
6294.4804907114
 20
5305.0292921336
 10
6291.8547192483
 20
5304.9637721699
 10
6289.5466376604
 20
5304.8999669482
 10
6287.6257201611
 20
5304.8373410191
 10
6286.1274800615
 20
5304.7720041995
 10
6285.1390818976
 20
5304.7073092688
 10
6284.692970846
 20
5304.6451214412
 10
6284.7244066408
 20
5304.6249282211
  0
LWPOLYLINE
  5
DB
330
1F
100
AcDbEntity
  8
0
  6
Continuous
 62
     7
370
    25
100
AcDbPolyline
 90
       17
 70
   128
 43
0.0
 10
6315.356196779
 20
5303.5542164813
 10
6314.9963877512
 20
5303.4904670287
 10
6314.0864763211
 20
5303.4262494086
 10
6312.6845662868
 20
5303.3638978209
 10
6310.8037829246
 20
5303.2987367191
 10
6308.6631774992
 20
5303.2372210582
 10
6306.2829658766
 20
5303.1784673615
 10
6303.0855512888
 20
5303.104405555
 10
6300.1666241306
 20
5303.0390341246
 10
6297.2818595826
 20
5302.9763199179
 10
6294.4804907114
 20
5302.9126254669
 10
6291.8547192483
 20
5302.8471055032
 10
6289.5466376604
 20
5302.7833002815
 10
6287.6257201611
 20
5302.7206743524
 10
6286.1274800615
 20
5302.6553375328
 10
6285.1390818976
 20
5302.5906426021
 10
6284.7282436363
 20
5302.5385330177
  0
LINE
  5
DC
330
1F
100
AcDbEntity
  8
0
  6
Continuous
 62
     7
370
    25
100
AcDbLine
 10
6283.5873253692
 20
5303.1999913482
 30
0.0
 11
6284.7282436363
 21
5302.5385330177
 31
0.0
  0
LINE
  5
DD
330
1F
100
AcDbEntity
  8
0
  6
Continuous
 62
     7
370
    25
100
AcDbLine
 10
6283.9450741116
 20
5303.2449487393
 30
0.0
 11
6283.5873253692
 21
5303.1999913482
 31
0.0
  0
ARC
  5
DE
330
1F
100
AcDbEntity
  8
0
  6
Continuous
 62
     7
370
    25
100
AcDbCircle
 10
6285.5242553071
 20
5309.1203867634
 30
0.0
 40
6.083961310040984
100
AcDbArc
 50
254.9557693115
 51
290.245287012
  0
LWPOLYLINE
  5
DF
330
1F
100
AcDbEntity
  8
0
  6
Continuous
 62
     7
370
    25
100
AcDbPolyline
 90
        9
 70
   128
 43
0.0
 10
6295.2091548638
 20
5303.5989287769
 10
6294.1229418907
 20
5303.5753736242
 10
6293.0652891011
 20
5303.5516873132
 10
6292.0413199199
 20
5303.527869844
 10
6291.0559946034
 20
5303.5039212165
 10
6290.2404279344
 20
5303.4834750618
 10
6289.2309592819
 20
5303.4572999824
 10
6288.4031075638
 20
5303.4346877421
 10
6287.6295485667
 20
5303.4122937794
  0
ARC
  5
E0
330
1F
100
AcDbEntity
  8
0
  6
Continuous
 62
     7
370
    25
100
AcDbCircle
 10
6298.6582998994
 20
5331.7093289522
 30
0.0
 40
28.32121465420968
100
AcDbArc
 50
263.0047752136
 51
279.3545937447
  0
LWPOLYLINE
  5
E1
330
1F
100
AcDbEntity
  8
0
  6
Continuous
 62
     7
370
    25
100
AcDbPolyline
 90
        7
 70
   128
 43
0.0
 10
6311.2828360883
 20
5303.9508258136
 10
6309.9141516483
 20
5303.913962371
 10
6308.6555979985
 20
5303.8829497418
 10
6307.5593017198
 20
5303.8577879261
 10
6306.419166522
 20
5303.8326261103
 10
6304.9907894765
 20
5303.8016134811
 10
6303.2617452208
 20
5303.7647500385
  0
ARC
  5
E2
330
1F
100
AcDbEntity
  8
0
  6
Continuous
 62
     7
370
    25
100
AcDbCircle
 10
6313.1549708282
 20
5312.2505159163
 30
0.0
 40
8.5082162810902
100
AcDbArc
 50
257.2887085241
 51
287.0592981326
  0
LINE
  5
E3
330
1F
100
AcDbEntity
  8
0
  6
Continuous
 62
     7
370
    25
100
AcDbLine
 10
6316.517037397
 20
5304.2277312188
 30
0.0
 11
6316.5170016987
 21
5304.2227871099
 31
0.0
  0
ARC
  5
E4
330
1F
100
AcDbEntity
  8
0
  6
Continuous
 62
     7
370
    25
100
AcDbCircle
 10
6315.7968986163
 20
5306.5893014202
 30
0.0
 40
2.476957796852668
100
AcDbArc
 50
266.62207735
 51
286.6719311189
  0
ARC
  5
E5
330
1F
100
AcDbEntity
  8
0
  6
Continuous
 62
     7
370
    25
100
AcDbCircle
 10
6283.8604404317
 20
5304.6063443978
 30
0.0
 40
0.7599981287139368
100
AcDbArc
 50
83.6062585851
 51
116.5722715657
  0
LINE
  5
E6
330
1F
100
AcDbEntity
  8
0
  6
Continuous
 62
     7
370
    25
100
AcDbLine
 10
6283.5205089734
 20
5305.2811204434
 30
0.0
 11
6283.5299928346
 21
5305.2748015734
 31
0.0
  0
ARC
  5
E7
330
1F
100
AcDbEntity
  8
0
  6
Continuous
 62
     7
370
    25
100
AcDbCircle
 10
6285.5242553071
 20
5311.23705343
 30
0.0
 40
6.083961310041837
100
AcDbArc
 50
254.9557693115
 51
290.245287012
  0
LWPOLYLINE
  5
E8
330
1F
100
AcDbEntity
  8
0
  6
Continuous
 62
     7
370
    25
100
AcDbPolyline
 90
        9
 70
   128
 43
0.0
 10
6295.2091548638
 20
5305.7155954436
 10
6294.1229418907
 20
5305.6920402909
 10
6293.0652891011
 20
5305.6683539799
 10
6292.0413199199
 20
5305.6445365106
 10
6291.0559946034
 20
5305.6205878831
 10
6290.2404279375
 20
5305.6001417285
 10
6289.2309592819
 20
5305.5739666491
 10
6288.4031075638
 20
5305.5513544088
 10
6287.6295485667
 20
5305.5289604461
  0
ARC
  5
E9
330
1F
100
AcDbEntity
  8
0
  6
Continuous
 62
     7
370
    25
100
AcDbCircle
 10
6298.6582998994
 20
5333.8259956191
 30
0.0
 40
28.32121465450038
100
AcDbArc
 50
263.0047752137
 51
279.3545937447
  0
LWPOLYLINE
  5
EA
330
1F
100
AcDbEntity
  8
0
  6
Continuous
 62
     7
370
    25
100
AcDbPolyline
 90
        7
 70
   128
 43
0.0
 10
6311.2828360883
 20
5306.0674924803
 10
6309.9141516483
 20
5306.0306290376
 10
6308.6555979985
 20
5305.9996164085
 10
6307.5593017198
 20
5305.9744545927
 10
6306.419166522
 20
5305.949292777
 10
6304.9907894765
 20
5305.9182801478
 10
6303.2617452208
 20
5305.8814167052
  0
ARC
  5
EB
330
1F
100
AcDbEntity
  8
0
  6
Continuous
 62
     7
370
    25
100
AcDbCircle
 10
6313.1549708282
 20
5314.367182583
 30
0.0
 40
8.508216281089329
100
AcDbArc
 50
257.2887085241
 51
287.0592981326
  0
LINE
  5
EC
330
1F
100
AcDbEntity
  8
0
  6
Continuous
 62
     7
370
    25
100
AcDbLine
 10
6316.517037397
 20
5306.3443978854
 30
0.0
 11
6316.5170016987
 21
5306.3394537766
 31
0.0
  0
ARC
  5
ED
330
1F
100
AcDbEntity
  8
0
  6
Continuous
 62
     7
370
    25
100
AcDbCircle
 10
6315.7968999608
 20
5308.7059515038
 30
0.0
 40
2.476941321825674
100
AcDbArc
 50
266.6220237011
 51
286.6720267563
  0
ARC
  5
EE
330
1F
100
AcDbEntity
  8
0
  6
Continuous
 62
     7
370
    25
100
AcDbCircle
 10
6283.8604404314
 20
5306.7230110658
 30
0.0
 40
0.7599981273748643
100
AcDbArc
 50
83.6062585524
 51
116.572271595
  0
LINE
  5
EF
330
1F
100
AcDbEntity
  8
0
  6
Continuous
 62
     7
370
    25
100
AcDbLine
 10
6283.5205089735
 20
5307.3977871099
 30
0.0
 11
6283.5299922558
 21
5307.3914686257
 31
0.0
  0
ARC
  5
F0
330
1F
100
AcDbEntity
  8
0
  6
Continuous
 62
     7
370
    25
100
AcDbCircle
 10
6285.5242553071
 20
5313.3537200967
 30
0.0
 40
6.08396131004013
100
AcDbArc
 50
254.9557693115
 51
290.245287012
  0
LWPOLYLINE
  5
F1
330
1F
100
AcDbEntity
  8
0
  6
Continuous
 62
     7
370
    25
100
AcDbPolyline
 90
        9
 70
   128
 43
0.0
 10
6295.2091548638
 20
5307.8322621103
 10
6294.1229418907
 20
5307.8087069575
 10
6293.0652891011
 20
5307.7850206465
 10
6292.0413199199
 20
5307.7612031773
 10
6291.0559946034
 20
5307.7372545498
 10
6290.2404279375
 20
5307.7168083952
 10
6289.2309592819
 20
5307.6906333158
 10
6288.4031075638
 20
5307.6680210755
 10
6287.6295485667
 20
5307.6456271128
  0
ARC
  5
F2
330
1F
100
AcDbEntity
  8
0
  6
Continuous
 62
     7
370
    25
100
AcDbCircle
 10
6298.6582998994
 20
5335.9426622856
 30
0.0
 40
28.32121465429749
100
AcDbArc
 50
263.0047752137
 51
279.3545937447
  0
LWPOLYLINE
  5
F3
330
1F
100
AcDbEntity
  8
0
  6
Continuous
 62
     7
370
    25
100
AcDbPolyline
 90
        7
 70
   128
 43
0.0
 10
6311.2828360883
 20
5308.1841591469
 10
6309.9141516483
 20
5308.1472957043
 10
6308.6555979985
 20
5308.1162830751
 10
6307.5593017198
 20
5308.0911212594
 10
6306.419166522
 20
5308.0659594437
 10
6304.9907894765
 20
5308.0349468145
 10
6303.2617452208
 20
5307.9980833718
  0
ARC
  5
F4
330
1F
100
AcDbEntity
  8
0
  6
Continuous
 62
     7
370
    25
100
AcDbCircle
 10
6313.1549708282
 20
5316.4838492496
 30
0.0
 40
8.508216281080367
100
AcDbArc
 50
257.288708524
 51
287.0592981326
  0
LINE
  5
F5
330
1F
100
AcDbEntity
  8
0
  6
Continuous
 62
     7
370
    25
100
AcDbLine
 10
6316.517037397
 20
5308.4610645521
 30
0.0
 11
6316.5170016987
 21
5308.4561204433
 31
0.0
  0
ARC
  5
F6
330
1F
100
AcDbEntity
  8
0
  6
Continuous
 62
     7
370
    25
100
AcDbCircle
 10
6315.7969013052
 20
5310.822601588
 30
0.0
 40
2.476924847397596
100
AcDbArc
 50
266.621970054
 51
286.672122394
  0
LWPOLYLINE
  5
F7
330
1F
100
AcDbEntity
  8
0
  6
Continuous
 62
     7
370
    25
100
AcDbPolyline
 90
        3
 70
   128
 43
0.0
 10
6316.4930854205
 20
5308.7429502525
 10
6316.5060296662
 20
5308.7389340086
 10
6316.5170723685
 20
5308.7304913492
  0
ARC
  5
F8
330
1F
100
AcDbEntity
  8
0
  6
Continuous
 62
     7
370
    25
100
AcDbCircle
 10
6315.9242331935
 20
5309.9157120715
 30
0.0
 40
1.329537354378385
100
AcDbArc
 50
258.1385315606
 51
296.4791774438
  0
ARC
  5
F9
330
1F
100
AcDbEntity
  8
0
  6
Continuous
 62
     7
370
    25
100
AcDbCircle
 10
6313.7771690158
 20
5300.3582919565
 30
0.0
 40
8.466232132681288
100
AcDbArc
 50
77.2131720755
 51
107.1348345811
  0
LWPOLYLINE
  5
FA
330
1F
100
AcDbEntity
  8
0
  6
Continuous
 62
     7
370
    25
100
AcDbPolyline
 90
        7
 70
   128
 43
0.0
 10
6311.2828360883
 20
5308.4487424861
 10
6309.9141516447
 20
5308.4118790433
 10
6308.6555979947
 20
5308.3808664141
 10
6307.5593017198
 20
5308.3557045985
 10
6306.4191665261
 20
5308.3305427829
 10
6304.9907894808
 20
5308.2995301537
 10
6303.2617452208
 20
5308.2626667109
  0
ARC
  5
FB
330
1F
100
AcDbEntity
  8
0
  6
Continuous
 62
     7
370
    25
100
AcDbCircle
 10
6299.8156058758
 20
5280.006304582
 30
0.0
 40
28.46573162851177
100
AcDbArc
 50
83.0465599671
 51
99.3128089913
  0
LWPOLYLINE
  5
FC
330
1F
100
AcDbEntity
  8
0
  6
Continuous
 62
     7
370
    25
100
AcDbPolyline
 90
        9
 70
   128
 43
0.0
 10
6295.2091548638
 20
5308.0968454494
 10
6294.1229418907
 20
5308.0732902966
 10
6293.0652891011
 20
5308.0496039857
 10
6292.0413199199
 20
5308.0257865164
 10
6291.0559946034
 20
5308.0018378889
 10
6290.2404279252
 20
5307.981391734
 10
6289.2309592819
 20
5307.9552166549
 10
6288.4031075638
 20
5307.9326044146
 10
6287.6295485667
 20
5307.9102104519
  0
ARC
  5
FD
330
1F
100
AcDbEntity
  8
0
  6
Continuous
 62
     7
370
    25
100
AcDbCircle
 10
6286.0503673713
 20
5302.0347724279
 30
0.0
 40
6.08396131004013
100
AcDbArc
 50
74.9557693115
 51
110.245287012
  0
ARC
  5
FE
330
1F
100
AcDbEntity
  8
0
  6
Continuous
 62
     7
370
    25
100
AcDbCircle
 10
6283.8604404315
 20
5306.9875944046
 30
0.0
 40
0.7599981276796389
100
AcDbArc
 50
83.6062585599
 51
116.5722715884
  0
LWPOLYLINE
  5
FF
330
1F
100
AcDbEntity
  8
0
  6
Continuous
 62
     7
370
    25
100
AcDbPolyline
 90
        3
 70
   128
 43
0.0
 10
6316.4930876278
 20
5306.6262829009
 10
6316.5060296662
 20
5306.622267342
 10
6316.5170723685
 20
5306.6138246826
  0
ARC
  5
100
330
1F
100
AcDbEntity
  8
0
  6
Continuous
 62
     7
370
    25
100
AcDbCircle
 10
6315.9242331936
 20
5307.7990454047
 30
0.0
 40
1.329537354261022
100
AcDbArc
 50
258.1385315589
 51
296.4791774456
  0
ARC
  5
101
330
1F
100
AcDbEntity
  8
0
  6
Continuous
 62
     7
370
    25
100
AcDbCircle
 10
6313.7771690158
 20
5298.2416252898
 30
0.0
 40
8.46623213267233
100
AcDbArc
 50
77.2131720755
 51
107.1348345811
  0
LWPOLYLINE
  5
102
330
1F
100
AcDbEntity
  8
0
  6
Continuous
 62
     7
370
    25
100
AcDbPolyline
 90
        7
 70
   128
 43
0.0
 10
6311.2828360883
 20
5306.3320758194
 10
6309.9141516518
 20
5306.2952123768
 10
6308.6555980023
 20
5306.2641997477
 10
6307.5593017198
 20
5306.2390379318
 10
6306.4191665179
 20
5306.213876116
 10
6304.9907894723
 20
5306.1828634868
 10
6303.2617452208
 20
5306.1460000443
  0
ARC
  5
103
330
1F
100
AcDbEntity
  8
0
  6
Continuous
 62
     7
370
    25
100
AcDbCircle
 10
6299.8156058758
 20
5277.889637915
 30
0.0
 40
28.46573162883889
100
AcDbArc
 50
83.0465599672
 51
99.3128089912
  0
LWPOLYLINE
  5
104
330
1F
100
AcDbEntity
  8
0
  6
Continuous
 62
     7
370
    25
100
AcDbPolyline
 90
        9
 70
   128
 43
0.0
 10
6295.2091548638
 20
5305.9801787827
 10
6294.1229418907
 20
5305.95662363
 10
6293.0652891011
 20
5305.932937319
 10
6292.0413199199
 20
5305.9091198497
 10
6291.0559946034
 20
5305.8851712223
 10
6290.2404279242
 20
5305.8647250673
 10
6289.2309592819
 20
5305.8385499882
 10
6288.4031075638
 20
5305.8159377479
 10
6287.6295485667
 20
5305.7935437852
  0
ARC
  5
105
330
1F
100
AcDbEntity
  8
0
  6
Continuous
 62
     7
370
    25
100
AcDbCircle
 10
6286.0503673713
 20
5299.9181057612
 30
0.0
 40
6.08396131004013
100
AcDbArc
 50
74.9557693115
 51
110.245287012
  0
ARC
  5
106
330
1F
100
AcDbEntity
  8
0
  6
Continuous
 62
     7
370
    25
100
AcDbCircle
 10
6283.8604404317
 20
5304.8709277371
 30
0.0
 40
0.7599981285477135
100
AcDbArc
 50
83.606258581
 51
116.5722715693
  0
LWPOLYLINE
  5
107
330
1F
100
AcDbEntity
  8
0
  6
Continuous
 62
     7
370
    25
100
AcDbPolyline
 90
        3
 70
   128
 43
0.0
 10
6316.493089835
 20
5304.5096155494
 10
6316.5060296661
 20
5304.5056006753
 10
6316.5170723685
 20
5304.4971580159
  0
ARC
  5
108
330
1F
100
AcDbEntity
  8
0
  6
Continuous
 62
     7
370
    25
100
AcDbCircle
 10
6315.9242331936
 20
5305.6823787374
 30
0.0
 40
1.329537353665998
100
AcDbArc
 50
258.13853155
 51
296.4791774542
  0
ARC
  5
109
330
1F
100
AcDbEntity
  8
0
  6
Continuous
 62
     7
370
    25
100
AcDbCircle
 10
6313.7771690157
 20
5296.1249586233
 30
0.0
 40
8.466232132551095
100
AcDbArc
 50
77.2131720753
 51
107.1348345813
  0
LWPOLYLINE
  5
10A
330
1F
100
AcDbEntity
  8
0
  6
Continuous
 62
     7
370
    25
100
AcDbPolyline
 90
        7
 70
   128
 43
0.0
 10
6311.2828360883
 20
5304.2154091527
 10
6309.9141516483
 20
5304.1785457101
 10
6308.6555979985
 20
5304.1475330809
 10
6307.5593017198
 20
5304.1223712652
 10
6306.419166522
 20
5304.0972094494
 10
6304.9907894765
 20
5304.0661968203
 10
6303.2617452208
 20
5304.0293333776
  0
ARC
  5
10B
330
1F
100
AcDbEntity
  8
0
  6
Continuous
 62
     7
370
    25
100
AcDbCircle
 10
6299.8156058758
 20
5275.7729712485
 30
0.0
 40
28.46573162867182
100
AcDbArc
 50
83.0465599671
 51
99.3128089913
  0
LWPOLYLINE
  5
10C
330
1F
100
AcDbEntity
  8
0
  6
Continuous
 62
     7
370
    25
100
AcDbPolyline
 90
        9
 70
   128
 43
0.0
 10
6295.2091548638
 20
5303.863512116
 10
6294.1229418907
 20
5303.8399569633
 10
6293.0652891011
 20
5303.8162706523
 10
6292.0413199199
 20
5303.7924531831
 10
6291.0559946034
 20
5303.7685045556
 10
6290.2404279395
 20
5303.748058401
 10
6289.2309592819
 20
5303.7218833215
 10
6288.4031075638
 20
5303.6992710812
 10
6287.6295485667
 20
5303.6768771185
  0
ARC
  5
10D
330
1F
100
AcDbEntity
  8
0
  6
Continuous
 62
     7
370
    25
100
AcDbCircle
 10
6286.0503673713
 20
5297.8014390945
 30
0.0
 40
6.083961310033303
100
AcDbArc
 50
74.9557693115
 51
110.245287012
  0
ARC
  5
10E
330
1F
100
AcDbEntity
  8
0
  6
Continuous
 62
     7
370
    25
100
AcDbCircle
 10
6283.8604404314
 20
5302.7542610716
 30
0.0
 40
0.7599981273748643
100
AcDbArc
 50
83.6062585524
 51
116.572271595
  0
LWPOLYLINE
  5
10F
330
1F
100
AcDbEntity
  8
0
  6
Continuous
 62
     7
370
    25
100
AcDbPolyline
 90
        3
 70
   128
 43
0.0
 10
6316.4930920426
 20
5302.392948198
 10
6316.5060296648
 20
5302.3889340093
 10
6316.5170723681
 20
5302.3804913498
  0
ARC
  5
110
330
1F
100
AcDbEntity
  8
0
  6
Continuous
 62
     7
370
    25
100
AcDbCircle
 10
6315.9242331948
 20
5303.5657120615
 30
0.0
 40
1.32953734489473
100
AcDbArc
 50
258.13853142
 51
296.4791775834
  0
ARC
  5
111
330
1F
100
AcDbEntity
  8
0
  6
Continuous
 62
     7
370
    25
100
AcDbCircle
 10
6313.7755630164
 20
5294.0505976972
 30
0.0
 40
8.425338098895192
100
AcDbArc
 50
77.1388472132
 51
107.2091594435
  0
ARC
  5
112
330
1F
100
AcDbEntity
  8
0
  6
Continuous
 62
     7
370
    25
100
AcDbCircle
 10
6299.8141259087
 20
5273.7281745484
 30
0.0
 40
28.39457126605372
100
AcDbArc
 50
83.0260387956
 51
99.3333301628
  0
ARC
  5
113
330
1F
100
AcDbEntity
  8
0
  6
Continuous
 62
     7
370
    25
100
AcDbCircle
 10
6286.0494231533
 20
5295.7055614932
 30
0.0
 40
6.064133140939089
100
AcDbArc
 50
74.8961697541
 51
110.3048865693
  0
LINE
  5
114
330
1F
100
AcDbEntity
  8
0
  6
Continuous
 62
     7
370
    25
100
AcDbLine
 10
6284.7282440694
 20
5302.0093663848
 30
0.0
 11
6283.9450741116
 21
5301.5553156441
 31
0.0
  0
LWPOLYLINE
  5
115
330
1F
100
AcDbEntity
  8
0
  6
Continuous
 62
     7
370
    25
100
AcDbPolyline
 90
       19
 70
   128
 43
0.0
 10
6315.3276550573
 20
5311.5040629135
 10
6315.3619757171
 20
5311.4908560878
 10
6314.9701038774
 20
5311.4253550698
 10
6314.039778045
 20
5311.3612602961
 10
6312.6182706347
 20
5311.2988370944
 10
6310.7197971931
 20
5311.2336149294
 10
6308.4349911627
 20
5311.1687212178
 10
6305.8819132117
 20
5311.1065221873
 10
6303.0855517
 20
5311.0419055644
 10
6300.1666245562
 20
5310.9765341339
 10
6297.281860003
 20
5310.9138199271
 10
6294.480491125
 20
5310.8501254767
 10
6291.8547196309
 20
5310.7846055132
 10
6289.5466379908
 20
5310.7208002912
 10
6287.6257204364
 20
5310.6581743627
 10
6286.1274802648
 20
5310.5928375435
 10
6285.1390820159
 20
5310.5281426125
 10
6284.6929708758
 20
5310.4659547852
 10
6284.7049871457
 20
5310.4582359598
  0
LWPOLYLINE
  5
116
330
1F
100
AcDbEntity
  8
0
  6
Continuous
 62
     7
370
    25
100
AcDbPolyline
 90
       19
 70
   128
 43
0.0
 10
6315.327710789
 20
5309.3873748009
 10
6315.3619757171
 20
5309.3741894212
 10
6314.9701038774
 20
5309.3086884031
 10
6314.039778045
 20
5309.2445936295
 10
6312.6182706347
 20
5309.1821704277
 10
6310.7197971931
 20
5309.1169482627
 10
6308.4349911627
 20
5309.0520545512
 10
6305.8819132117
 20
5308.9898555206
 10
6303.0855517
 20
5308.9252388977
 10
6300.1666245562
 20
5308.8598674673
 10
6297.281860003
 20
5308.7971532604
 10
6294.480491125
 20
5308.7334588101
 10
6291.8547196309
 20
5308.6679388466
 10
6289.5466379908
 20
5308.6041336245
 10
6287.6257204364
 20
5308.541507696
 10
6286.1274802648
 20
5308.4761708768
 10
6285.1390820159
 20
5308.4114759459
 10
6284.6929708758
 20
5308.3492881185
 10
6284.7049987079
 20
5308.341561866
  0
LWPOLYLINE
  5
117
330
1F
100
AcDbEntity
  8
0
  6
Continuous
 62
     7
370
    25
100
AcDbPolyline
 90
       19
 70
   128
 43
0.0
 10
6315.3277666035
 20
5307.2706866564
 10
6315.3619757171
 20
5307.2575227545
 10
6314.9701038774
 20
5307.1920217365
 10
6314.039778045
 20
5307.1279269628
 10
6312.6182706347
 20
5307.065503761
 10
6310.7197971931
 20
5307.0002815961
 10
6308.4349911627
 20
5306.9353878845
 10
6305.8819132117
 20
5306.8731888539
 10
6303.0855517
 20
5306.8085722311
 10
6300.1666245562
 20
5306.7432008006
 10
6297.281860003
 20
5306.6804865937
 10
6294.480491125
 20
5306.6167921434
 10
6291.8547196309
 20
5306.5512721799
 10
6289.5466379908
 20
5306.4874669578
 10
6287.6257204364
 20
5306.4248410293
 10
6286.1274802648
 20
5306.3595042101
 10
6285.1390820159
 20
5306.2948092792
 10
6284.6929708758
 20
5306.2326214518
 10
6284.7050102557
 20
5306.2248877815
  0
LWPOLYLINE
  5
118
330
1F
100
AcDbEntity
  8
0
  6
Continuous
 62
     7
370
    25
100
AcDbPolyline
 90
       19
 70
   128
 43
0.0
 10
6315.3278225016
 20
5305.1539984798
 10
6315.3619757171
 20
5305.1408560878
 10
6314.9701038774
 20
5305.0753550698
 10
6314.039778045
 20
5305.0112602961
 10
6312.6182706347
 20
5304.9488370944
 10
6310.7197971931
 20
5304.8836149294
 10
6308.4349911627
 20
5304.8187212178
 10
6305.8819132117
 20
5304.7565221873
 10
6303.0855517
 20
5304.6919055644
 10
6300.1666245562
 20
5304.6265341339
 10
6297.281860003
 20
5304.5638199271
 10
6294.480491125
 20
5304.5001254767
 10
6291.8547196309
 20
5304.4346055132
 10
6289.5466379908
 20
5304.3708002912
 10
6287.6257204364
 20
5304.3081743627
 10
6286.1274802648
 20
5304.2428375435
 10
6285.1390820159
 20
5304.1781426125
 10
6284.6929708758
 20
5304.1159547852
 10
6284.7050217891
 20
5304.1082137061
  0
LWPOLYLINE
  5
119
330
1F
100
AcDbEntity
  8
0
  6
Continuous
 62
     7
370
    25
100
AcDbPolyline
 90
       15
 70
   128
 43
0.0
 10
6315.327706051
 20
5303.0373766241
 10
6315.3619757171
 20
5303.0241894212
 10
6314.9701038774
 20
5302.9586884031
 10
6314.039778045
 20
5302.8945936295
 10
6312.6182706347
 20
5302.8321704277
 10
6310.7197971931
 20
5302.7669482627
 10
6308.4349911627
 20
5302.7020545512
 10
6305.8819132117
 20
5302.6398555206
 10
6303.0855517
 20
5302.5752388977
 10
6300.1666245562
 20
5302.5098674673
 10
6297.281860003
 20
5302.4471532604
 10
6294.480491125
 20
5302.3834588101
 10
6291.8547196309
 20
5302.3179388466
 10
6289.5466379908
 20
5302.2541336245
 10
6287.8694746415
 20
5302.1994545927
  0
ARC
  5
11A
330
1F
100
AcDbEntity
  8
0
  6
Continuous
 62
     7
370
    25
100
AcDbCircle
 10
6288.35907297
 20
5267.3965319081
 30
0.0
 40
34.80274746520239
100
AcDbArc
 50
91.2011043385
 51
95.9883322282
  0
LWPOLYLINE
  5
11B
330
1F
100
AcDbEntity
  8
0
  6
Continuous
 62
     7
370
    25
100
AcDbPolyline
 90
        5
 70
   128
 43
0.0
 10
6314.2864484453
 20
5310.928109607
 10
6315.1151535743
 20
5311.0448791646
 10
6315.6051532878
 20
5311.1685224842
 10
6315.7139494841
 20
5311.3036656196
 10
6315.6967513081
 20
5311.3105903242
  0
LWPOLYLINE
  5
11C
330
1F
100
AcDbEntity
  8
0
  6
Continuous
 62
     7
370
    25
100
AcDbPolyline
 90
        3
 70
   128
 43
0.0
 10
6311.7816032638
 20
5310.6998984819
 10
6312.7637239222
 20
5310.8804278714
 10
6314.2864484453
 20
5310.928109607
  0
LWPOLYLINE
  5
11D
330
1F
100
AcDbEntity
  8
0
  6
Continuous
 62
     7
370
    25
100
AcDbPolyline
 90
        3
 70
   128
 43
0.0
 10
6308.7381002151
 20
5310.4994545927
 10
6310.8644875808
 20
5310.6336680128
 10
6311.7816032638
 20
5310.6998984819
  0
LWPOLYLINE
  5
11E
330
1F
100
AcDbEntity
  8
0
  6
Continuous
 62
     7
370
    25
100
AcDbPolyline
 90
        4
 70
   128
 43
0.0
 10
6308.7381002151
 20
5310.4994545927
 10
6306.1162711437
 20
5310.4406286681
 10
6305.1432128351
 20
5310.4195696011
 10
6303.2617452207
 20
5310.3793333776
  0
ARC
  5
11F
330
1F
100
AcDbEntity
  8
0
  6
Continuous
 62
     7
370
    25
100
AcDbCircle
 10
6299.8156058758
 20
5282.1229712483
 30
0.0
 40
28.46573162889976
100
AcDbArc
 50
83.0465599672
 51
99.3128089912
  0
LWPOLYLINE
  5
120
330
1F
100
AcDbEntity
  8
0
  6
Continuous
 62
     7
370
    25
100
AcDbPolyline
 90
        9
 70
   128
 43
0.0
 10
6295.2091548638
 20
5310.213512116
 10
6294.1229418907
 20
5310.1899569633
 10
6293.0652891011
 20
5310.1662706523
 10
6292.0413199199
 20
5310.1424531831
 10
6291.0559946034
 20
5310.1185045556
 10
6290.2404279452
 20
5310.0980584012
 10
6289.2309592819
 20
5310.0718833215
 10
6288.4031075638
 20
5310.0492710812
 10
6287.6295485667
 20
5310.0268771186
  0
ARC
  5
121
330
1F
100
AcDbEntity
  8
0
  6
Continuous
 62
     7
370
    25
100
AcDbCircle
 10
6286.0503673713
 20
5304.1514390945
 30
0.0
 40
6.08396131004013
100
AcDbArc
 50
74.9557693115
 51
110.245287012
  0
ARC
  5
122
330
1F
100
AcDbEntity
  8
0
  6
Continuous
 62
     7
370
    25
100
AcDbCircle
 10
6283.8604404313
 20
5309.1042610722
 30
0.0
 40
0.7599981267693916
100
AcDbArc
 50
83.6062585375
 51
116.5722716083
  0
LINE
  5
123
330
1F
100
AcDbEntity
  8
0
  6
Continuous
 62
     7
370
    25
100
AcDbLine
 10
6316.0872663782
 20
5310.4994545927
 30
0.0
 11
6315.6509519902
 21
5310.4994545927
 31
0.0
  0
LINE
  5
124
330
1F
100
AcDbEntity
  8
0
  6
Continuous
 62
     7
370
    25
100
AcDbLine
 10
6315.6509519902
 20
5310.4994545927
 30
0.0
 11
6314.2864484453
 21
5310.928109607
 31
0.0
  0
LINE
  5
125
330
1F
100
AcDbEntity
  8
0
  6
Continuous
 62
     7
370
    25
100
AcDbLine
 10
6306.2829658766
 20
5311.6451340281
 30
0.0
 11
6315.3414825511
 21
5311.6451340281
 31
0.0
  0
LINE
  5
126
330
1F
100
AcDbEntity
  8
0
  6
Continuous
 62
     7
370
    25
100
AcDbLine
 10
6286.8546696389
 20
5312.1994545927
 30
0.0
 11
6285.2187553361
 21
5312.1994545927
 31
0.0
  0
LINE
  5
127
330
1F
100
AcDbEntity
  8
0
  6
Continuous
 62
     7
370
    25
100
AcDbLine
 10
6314.8187553361
 20
5312.1994545927
 30
0.0
 11
6286.8546696389
 21
5312.1994545927
 31
0.0
  0
LINE
  5
128
330
1F
100
AcDbEntity
  8
0
  6
Continuous
 62
     7
370
    25
100
AcDbLine
 10
6303.2617452208
 20
5302.1994545927
 30
0.0
 11
6305.8070742578
 21
5302.1994545927
 31
0.0
  0
LINE
  5
129
330
1F
100
AcDbEntity
  8
0
  6
Continuous
 62
     7
370
    25
100
AcDbLine
 10
6305.8070742578
 20
5298.6994545927
 30
0.0
 11
6305.8070742578
 21
5302.1994545927
 31
0.0
  0
LINE
  5
12A
330
1F
100
AcDbEntity
  8
0
  6
Continuous
 62
     7
370
    25
100
AcDbLine
 10
6292.6638258267
 20
5302.1994545927
 30
0.0
 11
6292.6638258267
 21
5298.6994545927
 31
0.0
  0
LINE
  5
12B
330
1F
100
AcDbEntity
  8
0
  6
Continuous
 62
     7
370
    25
100
AcDbLine
 10
6292.6638258267
 20
5302.1994545927
 30
0.0
 11
6295.2091548638
 21
5302.1994545927
 31
0.0
  0
LINE
  5
12C
330
1F
100
AcDbEntity
  8
0
  6
Continuous
 62
     7
370
    25
100
AcDbLine
 10
6295.2091548638
 20
5302.1994545927
 30
0.0
 11
6295.2091548638
 21
5301.7468454494
 31
0.0
  0
LINE
  5
12D
330
1F
100
AcDbEntity
  8
0
  6
Continuous
 62
     7
370
    25
100
AcDbLine
 10
6303.2617452207
 20
5301.9126667109
 30
0.0
 11
6303.2617452207
 21
5302.1994545927
 31
0.0
  0
LINE
  5
12E
330
1F
100
AcDbEntity
  8
0
  6
Continuous
 62
     7
370
    25
100
AcDbLine
 10
6284.7282436363
 20
5302.5385330177
 30
0.0
 11
6284.7282440694
 21
5302.0093663511
 31
0.0
  0
LINE
  5
12F
330
1F
100
AcDbEntity
  8
0
  6
Continuous
 62
     7
370
    25
100
AcDbLine
 10
6295.2091548638
 20
5305.7155954436
 30
0.0
 11
6295.2091548638
 21
5305.9801787827
 31
0.0
  0
LINE
  5
130
330
1F
100
AcDbEntity
  8
0
  6
Continuous
 62
     7
370
    25
100
AcDbLine
 10
6303.2617452208
 20
5306.1460000443
 30
0.0
 11
6303.2617452208
 21
5305.8814167052
 31
0.0
  0
LINE
  5
131
330
1F
100
AcDbEntity
  8
0
  6
Continuous
 62
     7
370
    25
100
AcDbLine
 10
6295.2091548638
 20
5303.5989287769
 30
0.0
 11
6295.2091548638
 21
5303.863512116
 31
0.0
  0
LINE
  5
132
330
1F
100
AcDbEntity
  8
0
  6
Continuous
 62
     7
370
    25
100
AcDbLine
 10
6303.2617452208
 20
5304.0293333776
 30
0.0
 11
6303.2617452208
 21
5303.7647500385
 31
0.0
  0
LINE
  5
133
330
1F
100
AcDbEntity
  8
0
  6
Continuous
 62
     7
370
    25
100
AcDbLine
 10
6295.2091548638
 20
5309.9489287769
 30
0.0
 11
6295.2091548638
 21
5310.213512116
 31
0.0
  0
LINE
  5
134
330
1F
100
AcDbEntity
  8
0
  6
Continuous
 62
     7
370
    25
100
AcDbLine
 10
6303.2617452208
 20
5310.3793333776
 30
0.0
 11
6303.2617452208
 21
5310.1147500385
 31
0.0
  0
LINE
  5
135
330
1F
100
AcDbEntity
  8
0
  6
Continuous
 62
     7
370
    25
100
AcDbLine
 10
6295.2091548638
 20
5307.8322621103
 30
0.0
 11
6295.2091548638
 21
5308.0968454494
 31
0.0
  0
LINE
  5
136
330
1F
100
AcDbEntity
  8
0
  6
Continuous
 62
     7
370
    25
100
AcDbLine
 10
6303.2617452208
 20
5308.2626667109
 30
0.0
 11
6303.2617452208
 21
5307.9980833718
 31
0.0
  0
LINE
  5
137
330
1F
100
AcDbEntity
  8
0
  6
Continuous
 62
     7
370
    25
100
AcDbLine
 10
6287.6295485667
 20
5303.6768771185
 30
0.0
 11
6287.6295485667
 21
5303.4122937794
 31
0.0
  0
LINE
  5
138
330
1F
100
AcDbEntity
  8
0
  6
Continuous
 62
     7
370
    25
100
AcDbLine
 10
6287.6295485667
 20
5307.9102104519
 30
0.0
 11
6287.6295485667
 21
5307.6456271128
 31
0.0
  0
LINE
  5
139
330
1F
100
AcDbEntity
  8
0
  6
Continuous
 62
     7
370
    25
100
AcDbLine
 10
6287.6295485667
 20
5310.0268771186
 30
0.0
 11
6287.6295485667
 21
5309.7622937794
 31
0.0
  0
LINE
  5
13A
330
1F
100
AcDbEntity
  8
0
  6
Continuous
 62
     7
370
    25
100
AcDbLine
 10
6287.6295485667
 20
5305.7935437852
 30
0.0
 11
6287.6295485667
 21
5305.5289604461
 31
0.0
  0
LINE
  5
13B
330
1F
100
AcDbEntity
  8
0
  6
Continuous
 62
     7
370
    25
100
AcDbLine
 10
6311.2828360883
 20
5308.1841591469
 30
0.0
 11
6311.2828360883
 21
5308.4487424861
 31
0.0
  0
LINE
  5
13C
330
1F
100
AcDbEntity
  8
0
  6
Continuous
 62
     7
370
    25
100
AcDbLine
 10
6311.2828360883
 20
5310.4994545927
 30
0.0
 11
6308.7381002151
 21
5310.4994545927
 31
0.0
  0
LINE
  5
13D
330
1F
100
AcDbEntity
  8
0
  6
Continuous
 62
     7
370
    25
100
AcDbLine
 10
6311.2828360883
 20
5310.3008258136
 30
0.0
 11
6311.2828360883
 21
5310.4994545927
 31
0.0
  0
LINE
  5
13E
330
1F
100
AcDbEntity
  8
0
  6
Continuous
 62
     7
370
    25
100
AcDbLine
 10
6311.2828360883
 20
5303.9508258136
 30
0.0
 11
6311.2828360883
 21
5304.2154091527
 31
0.0
  0
LINE
  5
13F
330
1F
100
AcDbEntity
  8
0
  6
Continuous
 62
     7
370
    25
100
AcDbLine
 10
6311.2828360883
 20
5306.0674924803
 30
0.0
 11
6311.2828360883
 21
5306.3320758194
 31
0.0
  0
LINE
  5
140
330
1F
100
AcDbEntity
  8
0
  6
Continuous
 62
     7
370
    25
100
AcDbLine
 10
6288.7941675776
 20
5298.6994545927
 30
0.0
 11
6288.7941675776
 21
5302.1994545927
 31
0.0
  0
LINE
  5
141
330
1F
100
AcDbEntity
  8
0
  6
Continuous
 62
     7
370
    25
100
AcDbLine
 10
6288.7941675776
 20
5302.1994545927
 30
0.0
 11
6292.6638258267
 21
5302.1994545927
 31
0.0
  0
LINE
  5
142
330
1F
100
AcDbEntity
  8
0
  6
Continuous
 62
     7
370
    25
100
AcDbLine
 10
6309.9021260621
 20
5302.1994545927
 30
0.0
 11
6309.9021260621
 21
5298.6994545927
 31
0.0
  0
LINE
  5
143
330
1F
100
AcDbEntity
  8
0
  6
Continuous
 62
     7
370
    25
100
AcDbLine
 10
6305.8070742578
 20
5302.1994545927
 30
0.0
 11
6309.9021260621
 21
5302.1994545927
 31
0.0
  0
LINE
  5
144
330
1F
100
AcDbEntity
  8
0
  6
Continuous
 62
     7
370
    25
100
AcDbLine
 10
6315.6509519902
 20
5302.2645637476
 30
0.0
 11
6315.6509519902
 21
5302.1994545927
 31
0.0
  0
LINE
  5
145
330
1F
100
AcDbEntity
  8
0
  6
Continuous
 62
     7
370
    25
100
AcDbLine
 10
6315.6509519902
 20
5302.1994545927
 30
0.0
 11
6317.0316620164
 21
5302.1994545927
 31
0.0
  0
LINE
  5
146
330
1F
100
AcDbEntity
  8
0
  6
Continuous
 62
     7
370
    25
100
AcDbLine
 10
6317.0316620164
 20
5298.6994545927
 30
0.0
 11
6317.0316620164
 21
5302.1994545927
 31
0.0
  0
LINE
  5
147
330
1F
100
AcDbEntity
  8
0
  6
Continuous
 62
     7
370
    25
100
AcDbLine
 10
6311.2828360883
 20
5302.1994545927
 30
0.0
 11
6311.2828360883
 21
5302.0987424861
 31
0.0
  0
LINE
  5
148
330
1F
100
AcDbEntity
  8
0
  6
Continuous
 62
     7
370
    25
100
AcDbLine
 10
6309.9021260621
 20
5302.1994545927
 30
0.0
 11
6311.2828360883
 21
5302.1994545927
 31
0.0
  0
LINE
  5
149
330
1F
100
AcDbEntity
  8
0
  6
Continuous
 62
     7
370
    25
100
AcDbLine
 10
6311.7816032638
 20
5310.6998984819
 30
0.0
 11
6311.2828360883
 21
5310.4994545927
 31
0.0
  0
LINE
  5
14A
330
1F
100
AcDbEntity
  8
0
  6
Continuous
 62
     7
370
    25
100
AcDbLine
 10
6282.7804551007
 20
5302.1994545927
 30
0.0
 11
6282.7804551007
 21
5298.6994545927
 31
0.0
  0
LINE
  5
14B
330
1F
100
AcDbEntity
  8
0
  6
Continuous
 62
     7
370
    25
100
AcDbLine
 10
6282.7804551007
 20
5302.1994545927
 30
0.0
 11
6283.9450741116
 21
5302.1994545927
 31
0.0
  0
LINE
  5
14C
330
1F
100
AcDbEntity
  8
0
  6
Continuous
 62
     7
370
    25
100
AcDbLine
 10
6283.9450741116
 20
5302.1994545927
 30
0.0
 11
6283.9450741116
 21
5301.3928654118
 31
0.0
  0
LINE
  5
14D
330
1F
100
AcDbEntity
  8
0
  6
Continuous
 62
     7
370
    25
100
AcDbLine
 10
6287.6295485667
 20
5302.1994545927
 30
0.0
 11
6288.7941675776
 21
5302.1994545927
 31
0.0
  0
LINE
  5
14E
330
1F
100
AcDbEntity
  8
0
  6
Continuous
 62
     7
370
    25
100
AcDbLine
 10
6287.6295485667
 20
5301.5602104519
 30
0.0
 11
6287.6295485667
 21
5302.1994545927
 31
0.0
  0
LINE
  5
14F
330
1F
100
AcDbEntity
  8
0
  6
Continuous
 62
     7
370
    25
100
AcDbLine
 10
6315.6509519902
 20
5304.3812304143
 30
0.0
 11
6315.6509519902
 21
5304.1166470752
 31
0.0
  0
LINE
  5
150
330
1F
100
AcDbEntity
  8
0
  6
Continuous
 62
     7
370
    25
100
AcDbLine
 10
6315.6509519902
 20
5310.4994545927
 30
0.0
 11
6315.6509519902
 21
5310.4666470752
 31
0.0
  0
LINE
  5
151
330
1F
100
AcDbEntity
  8
0
  6
Continuous
 62
     7
370
    25
100
AcDbLine
 10
6315.6509519902
 20
5306.497897081
 30
0.0
 11
6315.6509519902
 21
5306.2333137418
 31
0.0
  0
LINE
  5
152
330
1F
100
AcDbEntity
  8
0
  6
Continuous
 62
     7
370
    25
100
AcDbLine
 10
6315.6509519902
 20
5308.6145637476
 30
0.0
 11
6315.6509519902
 21
5308.3499804085
 31
0.0
  0
LINE
  5
153
330
1F
100
AcDbEntity
  8
0
  6
Continuous
 62
     7
370
    25
100
AcDbLine
 10
6283.9450741116
 20
5307.4782820727
 30
0.0
 11
6283.9450741116
 21
5307.7428654118
 31
0.0
  0
LINE
  5
154
330
1F
100
AcDbEntity
  8
0
  6
Continuous
 62
     7
370
    25
100
AcDbLine
 10
6283.9450741116
 20
5305.361615406
 30
0.0
 11
6283.9450741116
 21
5305.6261987451
 31
0.0
  0
LINE
  5
155
330
1F
100
AcDbEntity
  8
0
  6
Continuous
 62
     7
370
    25
100
AcDbLine
 10
6283.9450741116
 20
5309.5949487393
 30
0.0
 11
6283.9450741116
 21
5309.8595320785
 31
0.0
  0
LINE
  5
156
330
1F
100
AcDbEntity
  8
0
  6
Continuous
 62
     7
370
    25
100
AcDbLine
 10
6283.9450741116
 20
5303.2449487393
 30
0.0
 11
6283.9450741116
 21
5303.5095320785
 31
0.0
  0
LINE
  5
157
330
1F
100
AcDbEntity
  8
0
  6
Continuous
 62
     7
370
    25
100
AcDbLine
 10
6283.587326188
 20
5302.1994545927
 30
0.0
 11
6283.5873253692
 21
5303.1999915994
 31
0.0
  0
LINE
  5
158
330
1F
100
AcDbEntity
  8
0
  6
Continuous
 62
     7
370
    25
100
AcDbLine
 10
6317.0316620164
 20
5302.1994545927
 30
0.0
 11
6317.3187553361
 21
5302.1994545927
 31
0.0
  0
LINE
  5
159
330
1F
100
AcDbEntity
  8
0
  6
Continuous
 62
     7
370
    25
100
AcDbLine
 10
6282.7187553361
 20
5302.1994545927
 30
0.0
 11
6282.7804551007
 21
5302.1994545927
 31
0.0
  0
LWPOLYLINE
  5
15A
330
1F
100
AcDbEntity
  8
0
  6
Continuous
 62
     7
370
    25
100
AcDbPolyline
 90
       10
 70
   128
 43
0.0
 10
6315.6509519902
 20
5117.8039604461
 10
6315.8223254687
 20
5117.8152894411
 10
6315.9752266748
 20
5117.8265668066
 10
6316.1094768874
 20
5117.8377925426
 10
6316.2249191859
 20
5117.8489666491
 10
6316.3636353406
 20
5117.8662251826
 10
6316.4149413549
 20
5117.874667842
 10
6316.4614427687
 20
5117.8844554088
 10
6316.4976016864
 20
5117.8955878831
 10
6316.4817671175
 20
5117.9128454797
  0
ARC
  5
15B
330
1F
100
AcDbEntity
  8
0
  6
Continuous
 62
     7
370
    25
100
AcDbCircle
 10
6313.7803783801
 20
5109.5375779178
 30
0.0
 40
8.475383515466033
100
AcDbArc
 50
77.2494579311
 51
107.1384649222
  0
LWPOLYLINE
  5
15C
330
1F
100
AcDbEntity
  8
0
  6
Continuous
 62
     7
370
    25
100
AcDbPolyline
 90
        9
 70
   128
 43
0.0
 10
6303.2617452208
 20
5117.4499804085
 10
6304.3792071211
 20
5117.4735355612
 10
6305.4755463543
 20
5117.4972218722
 10
6306.5454520929
 20
5117.5210393415
 10
6307.583741557
 20
5117.544987969
 10
6308.4504672321
 20
5117.5654341237
 10
6309.5338670871
 20
5117.591609203
 10
6310.4326894822
 20
5117.6142214433
 10
6311.2828360883
 20
5117.636615406
  0
ARC
  5
15D
330
1F
100
AcDbEntity
  8
0
  6
Continuous
 62
     7
370
    25
100
AcDbCircle
 10
6299.8126001852
 20
5089.3395802332
 30
0.0
 40
28.32121465429648
100
AcDbArc
 50
83.0047752137
 51
99.3545937447
  0
LWPOLYLINE
  5
15E
330
1F
100
AcDbEntity
  8
0
  6
Continuous
 62
     7
370
    25
100
AcDbPolyline
 90
        7
 70
   128
 43
0.0
 10
6287.6295485667
 20
5117.0980833718
 10
6288.8795510396
 20
5117.1349468146
 10
6290.0484046615
 20
5117.1659594437
 10
6291.079086743
 20
5117.1911212594
 10
6292.1617419024
 20
5117.216283075
 10
6293.5319290612
 20
5117.2472957042
 10
6295.2091548638
 20
5117.2841591469
  0
ARC
  5
15F
330
1F
100
AcDbEntity
  8
0
  6
Continuous
 62
     7
370
    25
100
AcDbCircle
 10
6286.049068242
 20
5111.1990511363
 30
0.0
 40
6.107085996832938
100
AcDbArc
 50
75.0014553758
 51
110.1523062922
  0
LINE
  5
160
330
1F
100
AcDbEntity
  8
0
  6
Continuous
 62
     7
370
    25
100
AcDbLine
 10
6283.6606590287
 20
5116.8994545927
 30
0.0
 11
6283.9450741116
 21
5116.9322621103
 31
0.0
  0
LINE
  5
161
330
1F
100
AcDbEntity
  8
0
  6
Continuous
 62
     7
370
    25
100
AcDbLine
 10
6283.6026236512
 20
5116.878340798
 30
0.0
 11
6283.6606590287
 21
5116.8994545927
 31
0.0
  0
LWPOLYLINE
  5
162
330
1F
100
AcDbEntity
  8
0
  6
Continuous
 62
     7
370
    25
100
AcDbPolyline
 90
       14
 70
   128
 43
0.0
 10
6292.4136347241
 20
5115.7537751573
 10
6294.9076222674
 20
5115.7921822968
 10
6297.3745694678
 20
5115.8282365309
 10
6299.9202377823
 20
5115.8636945455
 10
6302.5479108672
 20
5115.899326172
 10
6305.0448168106
 20
5115.9349565388
 10
6307.4755692463
 20
5115.9717647874
 10
6309.650842387
 20
5116.0069083607
 10
6311.6180061218
 20
5116.0427071639
 10
6313.2199881028
 20
5116.0785143653
 10
6314.4645687849
 20
5116.1142246286
 10
6315.336279861
 20
5116.1498787243
 10
6315.7660551926
 20
5116.184975739
 10
6315.7643140585
 20
5116.2000389928
  0
ARC
  5
163
330
1F
100
AcDbEntity
  8
0
  6
Continuous
 62
     7
370
    25
100
AcDbCircle
 10
6289.4180006135
 20
5587.0162334009
 30
0.0
 40
471.2719791940522
100
AcDbArc
 50
270.3642023183
 51
273.1522371969
  0
LWPOLYLINE
  5
164
330
1F
100
AcDbEntity
  8
0
  6
Continuous
 62
     7
370
    25
100
AcDbPolyline
 90
       18
 70
   128
 43
0.0
 10
6284.7444810846
 20
5117.5285268071
 10
6284.7823498334
 20
5117.5584421567
 10
6285.4167705193
 20
5117.6226597768
 10
6286.5648470932
 20
5117.6850113646
 10
6288.2166369377
 20
5117.7501724663
 10
6290.174768902
 20
5117.8116881273
 10
6292.4136347241
 20
5117.870441824
 10
6295.4953297522
 20
5117.9445036304
 10
6298.3700776147
 20
5118.0098750609
 10
6301.2649917903
 20
5118.0725892675
 10
6304.1299675099
 20
5118.1362837185
 10
6306.8719224566
 20
5118.2018036822
 10
6309.3425287581
 20
5118.2656089039
 10
6311.4659005055
 20
5118.3282348331
 10
6313.2037387847
 20
5118.3935716526
 10
6314.4566330298
 20
5118.4582665833
 10
6315.1795706256
 20
5118.5204544109
 10
6315.3328546734
 20
5118.5739785512
  0
LWPOLYLINE
  5
165
330
1F
100
AcDbEntity
  8
0
  6
Continuous
 62
     7
370
    25
100
AcDbPolyline
 90
       18
 70
   128
 43
0.0
 10
6284.7444849382
 20
5119.645196518
 10
6284.7823498334
 20
5119.6751088234
 10
6285.4167705193
 20
5119.7393264435
 10
6286.5648470932
 20
5119.8016780313
 10
6288.2166369377
 20
5119.866839133
 10
6290.174768902
 20
5119.9283547939
 10
6292.4136347241
 20
5119.9871084906
 10
6295.4953297522
 20
5120.0611702971
 10
6298.3700776147
 20
5120.1265417276
 10
6301.2649917903
 20
5120.1892559342
 10
6304.1299675099
 20
5120.2529503852
 10
6306.8719224566
 20
5120.3184703489
 10
6309.3425287581
 20
5120.3822755706
 10
6311.4659005055
 20
5120.4449014997
 10
6313.2037387847
 20
5120.5102383193
 10
6314.4566330298
 20
5120.57493325
 10
6315.1795706256
 20
5120.6371210776
 10
6315.3328551985
 20
5120.6906454013
  0
LWPOLYLINE
  5
166
330
1F
100
AcDbEntity
  8
0
  6
Continuous
 62
     7
370
    25
100
AcDbPolyline
 90
       18
 70
   128
 43
0.0
 10
6284.7444887923
 20
5121.7618662293
 10
6284.7823498334
 20
5121.7917754901
 10
6285.4167705193
 20
5121.8559931102
 10
6286.5648470932
 20
5121.9183446979
 10
6288.2166369377
 20
5121.9835057997
 10
6290.174768902
 20
5122.0450214606
 10
6292.4136347241
 20
5122.1037751573
 10
6295.4953297522
 20
5122.1778369637
 10
6298.3700776147
 20
5122.2432083942
 10
6301.2649917903
 20
5122.3059226008
 10
6304.1299675099
 20
5122.3696170519
 10
6306.8719224566
 20
5122.4351370156
 10
6309.3425287581
 20
5122.4989422373
 10
6311.4659005055
 20
5122.5615681664
 10
6313.2037387847
 20
5122.626904986
 10
6314.4566330298
 20
5122.6915999167
 10
6315.1795706256
 20
5122.7537877442
 10
6315.3328559111
 20
5122.8073123167
  0
LWPOLYLINE
  5
167
330
1F
100
AcDbEntity
  8
0
  6
Continuous
 62
     7
370
    25
100
AcDbPolyline
 90
       17
 70
   128
 43
0.0
 10
6284.744492647
 20
5123.8785359412
 10
6284.7823498334
 20
5123.9084421567
 10
6285.4167705193
 20
5123.9726597768
 10
6286.5648470932
 20
5124.0350113646
 10
6288.2166369377
 20
5124.1001724663
 10
6290.174768902
 20
5124.1616881273
 10
6292.4136347241
 20
5124.220441824
 10
6295.4953297522
 20
5124.2945036304
 10
6298.3700776147
 20
5124.3598750609
 10
6301.2649917903
 20
5124.4225892675
 10
6304.1299675099
 20
5124.4862837185
 10
6306.8719224566
 20
5124.5518036822
 10
6309.3425287581
 20
5124.6156089039
 10
6311.4659005055
 20
5124.6782348331
 10
6313.2037387847
 20
5124.7435716526
 10
6314.4566330298
 20
5124.8082665833
 10
6315.0992183495
 20
5124.8603761677
  0
LINE
  5
168
330
1F
100
AcDbEntity
  8
0
  6
Continuous
 62
     7
370
    25
100
AcDbLine
 10
6316.224463604
 20
5124.1989178373
 30
0.0
 11
6315.0992183495
 21
5124.8603761677
 31
0.0
  0
LINE
  5
169
330
1F
100
AcDbEntity
  8
0
  6
Continuous
 62
     7
370
    25
100
AcDbLine
 10
6315.6509519902
 20
5124.1539604461
 30
0.0
 11
6316.224463604
 21
5124.1989178373
 31
0.0
  0
ARC
  5
16A
330
1F
100
AcDbEntity
  8
0
  6
Continuous
 62
     7
370
    25
100
AcDbCircle
 10
6313.7803783801
 20
5115.8875779178
 30
0.0
 40
8.475383515466033
100
AcDbArc
 50
77.2494579311
 51
107.1384649222
  0
LWPOLYLINE
  5
16B
330
1F
100
AcDbEntity
  8
0
  6
Continuous
 62
     7
370
    25
100
AcDbPolyline
 90
        9
 70
   128
 43
0.0
 10
6303.2617452208
 20
5123.7999804085
 10
6304.3792071211
 20
5123.8235355612
 10
6305.4755463543
 20
5123.8472218722
 10
6306.5454520929
 20
5123.8710393415
 10
6307.583741557
 20
5123.894987969
 10
6308.4504672294
 20
5123.9154341236
 10
6309.5338670871
 20
5123.941609203
 10
6310.4326894822
 20
5123.9642214433
 10
6311.2828360883
 20
5123.986615406
  0
ARC
  5
16C
330
1F
100
AcDbEntity
  8
0
  6
Continuous
 62
     7
370
    25
100
AcDbCircle
 10
6299.8126001852
 20
5095.6895802337
 30
0.0
 40
28.32121465379316
100
AcDbArc
 50
83.0047752135
 51
99.3545937449
  0
LWPOLYLINE
  5
16D
330
1F
100
AcDbEntity
  8
0
  6
Continuous
 62
     7
370
    25
100
AcDbPolyline
 90
        7
 70
   128
 43
0.0
 10
6287.6295485667
 20
5123.4480833718
 10
6288.8795510364
 20
5123.4849468145
 10
6290.048404658
 20
5123.5159594437
 10
6291.079086743
 20
5123.5411212594
 10
6292.1617419063
 20
5123.5662830751
 10
6293.5319290653
 20
5123.5972957043
 10
6295.2091548638
 20
5123.6341591469
  0
ARC
  5
16E
330
1F
100
AcDbEntity
  8
0
  6
Continuous
 62
     7
370
    25
100
AcDbCircle
 10
6286.049068242
 20
5117.5490511364
 30
0.0
 40
6.107085996742261
100
AcDbArc
 50
75.0014553755
 51
110.1523062924
  0
LWPOLYLINE
  5
16F
330
1F
100
AcDbEntity
  8
0
  6
Continuous
 62
     7
370
    25
100
AcDbPolyline
 90
        3
 70
   128
 43
0.0
 10
6283.5663563652
 20
5123.2160787134
 10
6283.5834543778
 20
5123.2347132973
 10
6283.9450741116
 20
5123.2822621103
  0
LWPOLYLINE
  5
170
330
1F
100
AcDbEntity
  8
0
  6
Continuous
 62
     7
370
    25
100
AcDbPolyline
 90
       10
 70
   128
 43
0.0
 10
6315.6509519902
 20
5122.0372937794
 10
6315.8223254687
 20
5122.0486227744
 10
6315.9752266748
 20
5122.0599001399
 10
6316.1094768874
 20
5122.0711258759
 10
6316.2249191859
 20
5122.0822999824
 10
6316.3636353391
 20
5122.0995585157
 10
6316.4149413538
 20
5122.1080011751
 10
6316.4614427682
 20
5122.1177887421
 10
6316.4976016864
 20
5122.1289212165
 10
6316.4817671175
 20
5122.146178813
  0
ARC
  5
171
330
1F
100
AcDbEntity
  8
0
  6
Continuous
 62
     7
370
    25
100
AcDbCircle
 10
6313.7803783801
 20
5113.7709112512
 30
0.0
 40
8.475383515466033
100
AcDbArc
 50
77.2494579311
 51
107.1384649222
  0
LWPOLYLINE
  5
172
330
1F
100
AcDbEntity
  8
0
  6
Continuous
 62
     7
370
    25
100
AcDbPolyline
 90
        9
 70
   128
 43
0.0
 10
6303.2617452208
 20
5121.6833137418
 10
6304.3792071211
 20
5121.7068688946
 10
6305.4755463543
 20
5121.7305552056
 10
6306.5454520929
 20
5121.7543726748
 10
6307.583741557
 20
5121.7783213023
 10
6308.4504672261
 20
5121.7987674569
 10
6309.5338670871
 20
5121.8249425363
 10
6310.4326894822
 20
5121.8475547767
 10
6311.2828360883
 20
5121.8699487393
  0
ARC
  5
173
330
1F
100
AcDbEntity
  8
0
  6
Continuous
 62
     7
370
    25
100
AcDbCircle
 10
6299.8126001852
 20
5093.5729135668
 30
0.0
 40
28.32121465399911
100
AcDbArc
 50
83.0047752136
 51
99.3545937448
  0
LWPOLYLINE
  5
174
330
1F
100
AcDbEntity
  8
0
  6
Continuous
 62
     7
370
    25
100
AcDbPolyline
 90
        7
 70
   128
 43
0.0
 10
6287.6295485667
 20
5121.3314167052
 10
6288.8795510364
 20
5121.3682801478
 10
6290.048404658
 20
5121.399292777
 10
6291.079086743
 20
5121.4244545927
 10
6292.1617419063
 20
5121.4496164085
 10
6293.5319290653
 20
5121.4806290376
 10
6295.2091548638
 20
5121.5174924803
  0
ARC
  5
175
330
1F
100
AcDbEntity
  8
0
  6
Continuous
 62
     7
370
    25
100
AcDbCircle
 10
6286.049068242
 20
5115.4323844696
 30
0.0
 40
6.107085996832938
100
AcDbArc
 50
75.0014553758
 51
110.1523062922
  0
LWPOLYLINE
  5
176
330
1F
100
AcDbEntity
  8
0
  6
Continuous
 62
     7
370
    25
100
AcDbPolyline
 90
        3
 70
   128
 43
0.0
 10
6283.5663501201
 20
5121.0994052403
 10
6283.5834543778
 20
5121.1180466306
 10
6283.9450741116
 20
5121.1655954436
  0
LWPOLYLINE
  5
177
330
1F
100
AcDbEntity
  8
0
  6
Continuous
 62
     7
370
    25
100
AcDbPolyline
 90
       10
 70
   128
 43
0.0
 10
6315.6509519902
 20
5119.9206271128
 10
6315.8223254687
 20
5119.9319561077
 10
6315.9752266748
 20
5119.9432334732
 10
6316.1094768874
 20
5119.9544592092
 10
6316.2249191859
 20
5119.9656333158
 10
6316.3636353408
 20
5119.9828918493
 10
6316.414941355
 20
5119.9913345087
 10
6316.4614427688
 20
5120.0011220755
 10
6316.4976016864
 20
5120.0122545498
 10
6316.4817671175
 20
5120.0295121464
  0
ARC
  5
178
330
1F
100
AcDbEntity
  8
0
  6
Continuous
 62
     7
370
    25
100
AcDbCircle
 10
6313.7803783801
 20
5111.6542445845
 30
0.0
 40
8.475383515466033
100
AcDbArc
 50
77.2494579311
 51
107.1384649222
  0
LWPOLYLINE
  5
179
330
1F
100
AcDbEntity
  8
0
  6
Continuous
 62
     7
370
    25
100
AcDbPolyline
 90
        9
 70
   128
 43
0.0
 10
6303.2617452208
 20
5119.5666470752
 10
6304.3792071211
 20
5119.5902022279
 10
6305.4755463543
 20
5119.6138885389
 10
6306.5454520929
 20
5119.6377060081
 10
6307.583741557
 20
5119.6616546356
 10
6308.4504672261
 20
5119.6821007902
 10
6309.5338670871
 20
5119.7082758697
 10
6310.4326894822
 20
5119.73088811
 10
6311.2828360883
 20
5119.7532820727
  0
ARC
  5
17A
330
1F
100
AcDbEntity
  8
0
  6
Continuous
 62
     7
370
    25
100
AcDbCircle
 10
6299.8126001852
 20
5091.4562468998
 30
0.0
 40
28.32121465429582
100
AcDbArc
 50
83.0047752137
 51
99.3545937447
  0
LWPOLYLINE
  5
17B
330
1F
100
AcDbEntity
  8
0
  6
Continuous
 62
     7
370
    25
100
AcDbPolyline
 90
        7
 70
   128
 43
0.0
 10
6287.6295485667
 20
5119.2147500385
 10
6288.8795510364
 20
5119.2516134811
 10
6290.048404658
 20
5119.2826261103
 10
6291.079086743
 20
5119.3077879261
 10
6292.1617419063
 20
5119.3329497418
 10
6293.5319290653
 20
5119.363962371
 10
6295.2091548638
 20
5119.4008258136
  0
ARC
  5
17C
330
1F
100
AcDbEntity
  8
0
  6
Continuous
 62
     7
370
    25
100
AcDbCircle
 10
6286.049068242
 20
5113.3157178029
 30
0.0
 40
6.107085996832938
100
AcDbArc
 50
75.0014553758
 51
110.1523062922
  0
LWPOLYLINE
  5
17D
330
1F
100
AcDbEntity
  8
0
  6
Continuous
 62
     7
370
    25
100
AcDbPolyline
 90
        3
 70
   128
 43
0.0
 10
6283.5663438736
 20
5118.9827317658
 10
6283.5834543778
 20
5119.0013799639
 10
6283.9450741116
 20
5119.0489287769
  0
LWPOLYLINE
  5
17E
330
1F
100
AcDbEntity
  8
0
  6
Continuous
 62
     7
370
    25
100
AcDbPolyline
 90
        3
 70
   128
 43
0.0
 10
6283.5557435547
 20
5118.7065954739
 10
6283.5834543778
 20
5118.7367966248
 10
6283.9450741116
 20
5118.7843454378
  0
ARC
  5
17F
330
1F
100
AcDbEntity
  8
0
  6
Continuous
 62
     7
370
    25
100
AcDbCircle
 10
6285.5269533383
 20
5124.6522946951
 30
0.0
 40
6.077431231572457
100
AcDbArc
 50
254.9128794577
 51
290.2408822103
  0
LWPOLYLINE
  5
180
330
1F
100
AcDbEntity
  8
0
  6
Continuous
 62
     7
370
    25
100
AcDbPolyline
 90
        7
 70
   128
 43
0.0
 10
6287.6295485667
 20
5118.9501666994
 10
6288.8795510396
 20
5118.9870301421
 10
6290.0484046615
 20
5119.0180427713
 10
6291.079086743
 20
5119.0432045869
 10
6292.1617419024
 20
5119.0683664026
 10
6293.5319290612
 20
5119.0993790318
 10
6295.2091548638
 20
5119.1362424745
  0
ARC
  5
181
330
1F
100
AcDbEntity
  8
0
  6
Continuous
 62
     7
370
    25
100
AcDbCircle
 10
6298.6552942088
 20
5147.3926046034
 30
0.0
 40
28.465731628511
100
AcDbArc
 50
263.0465599671
 51
279.3128089913
  0
LWPOLYLINE
  5
182
330
1F
100
AcDbEntity
  8
0
  6
Continuous
 62
     7
370
    25
100
AcDbPolyline
 90
        9
 70
   128
 43
0.0
 10
6303.2617452208
 20
5119.3020637361
 10
6304.3792071211
 20
5119.3256188888
 10
6305.4755463543
 20
5119.3493051998
 10
6306.5454520929
 20
5119.373122669
 10
6307.583741557
 20
5119.3970712965
 10
6308.4504672392
 20
5119.4175174514
 10
6309.5338670871
 20
5119.4436925306
 10
6310.4326894822
 20
5119.4663047709
 10
6311.2828360883
 20
5119.4886987336
  0
ARC
  5
183
330
1F
100
AcDbEntity
  8
0
  6
Continuous
 62
     7
370
    25
100
AcDbCircle
 10
6313.1534096983
 20
5127.7550812618
 30
0.0
 40
8.475383515465497
100
AcDbArc
 50
257.2494579311
 51
287.1384649222
  0
LWPOLYLINE
  5
184
330
1F
100
AcDbEntity
  8
0
  6
Continuous
 62
     7
370
    25
100
AcDbPolyline
 90
       10
 70
   128
 43
0.0
 10
6315.6509519902
 20
5119.6560437737
 10
6315.8223254687
 20
5119.6673727686
 10
6315.9752266748
 20
5119.6786501341
 10
6316.1094768874
 20
5119.6898758701
 10
6316.2249191859
 20
5119.7010499766
 10
6316.3636353404
 20
5119.7183085101
 10
6316.4149413548
 20
5119.7267511695
 10
6316.4614427687
 20
5119.7365387364
 10
6316.4976016864
 20
5119.7476712107
 10
6316.4817671175
 20
5119.7649288072
  0
LWPOLYLINE
  5
185
330
1F
100
AcDbEntity
  8
0
  6
Continuous
 62
     7
370
    25
100
AcDbPolyline
 90
        3
 70
   128
 43
0.0
 10
6283.5557435547
 20
5120.8232621406
 10
6283.5834543778
 20
5120.8534632915
 10
6283.9450741116
 20
5120.9010121045
  0
ARC
  5
186
330
1F
100
AcDbEntity
  8
0
  6
Continuous
 62
     7
370
    25
100
AcDbCircle
 10
6285.5269533383
 20
5126.7689613618
 30
0.0
 40
6.077431231572457
100
AcDbArc
 50
254.9128794577
 51
290.2408822103
  0
LWPOLYLINE
  5
187
330
1F
100
AcDbEntity
  8
0
  6
Continuous
 62
     7
370
    25
100
AcDbPolyline
 90
        7
 70
   128
 43
0.0
 10
6287.6295485667
 20
5121.0668333661
 10
6288.8795510331
 20
5121.1036968086
 10
6290.0484046545
 20
5121.1347094378
 10
6291.079086743
 20
5121.1598712536
 10
6292.1617419102
 20
5121.1850330694
 10
6293.5319290694
 20
5121.2160456986
 10
6295.2091548638
 20
5121.2529091412
  0
ARC
  5
188
330
1F
100
AcDbEntity
  8
0
  6
Continuous
 62
     7
370
    25
100
AcDbCircle
 10
6298.6552942088
 20
5149.5092712701
 30
0.0
 40
28.46573162850332
100
AcDbArc
 50
263.046559967
 51
279.3128089913
  0
LWPOLYLINE
  5
189
330
1F
100
AcDbEntity
  8
0
  6
Continuous
 62
     7
370
    25
100
AcDbPolyline
 90
        9
 70
   128
 43
0.0
 10
6303.2617452208
 20
5121.4187304027
 10
6304.3792071211
 20
5121.4422855555
 10
6305.4755463543
 20
5121.4659718664
 10
6306.5454520929
 20
5121.4897893357
 10
6307.583741557
 20
5121.5137379632
 10
6308.4504672403
 20
5121.5341841181
 10
6309.5338670871
 20
5121.5603591972
 10
6310.4326894822
 20
5121.5829714375
 10
6311.2828360883
 20
5121.6053654002
  0
ARC
  5
18A
330
1F
100
AcDbEntity
  8
0
  6
Continuous
 62
     7
370
    25
100
AcDbCircle
 10
6313.1534096983
 20
5129.8717479285
 30
0.0
 40
8.47538351546456
100
AcDbArc
 50
257.2494579311
 51
287.1384649222
  0
LWPOLYLINE
  5
18B
330
1F
100
AcDbEntity
  8
0
  6
Continuous
 62
     7
370
    25
100
AcDbPolyline
 90
       10
 70
   128
 43
0.0
 10
6315.6509519902
 20
5121.7727104403
 10
6315.8223254687
 20
5121.7840394353
 10
6315.9752266748
 20
5121.7953168008
 10
6316.1094768874
 20
5121.8065425368
 10
6316.2249191859
 20
5121.8177166433
 10
6316.3636353393
 20
5121.8349751766
 10
6316.414941354
 20
5121.8434178361
 10
6316.4614427683
 20
5121.853205403
 10
6316.4976016864
 20
5121.8643378774
 10
6316.4817671175
 20
5121.8815954739
  0
LWPOLYLINE
  5
18C
330
1F
100
AcDbEntity
  8
0
  6
Continuous
 62
     7
370
    25
100
AcDbPolyline
 90
        3
 70
   128
 43
0.0
 10
6283.5557435547
 20
5122.9399288072
 10
6283.5834543778
 20
5122.9701299581
 10
6283.9450741116
 20
5123.0176787711
  0
ARC
  5
18D
330
1F
100
AcDbEntity
  8
0
  6
Continuous
 62
     7
370
    25
100
AcDbCircle
 10
6285.5269533383
 20
5128.8856280284
 30
0.0
 40
6.077431231486718
100
AcDbArc
 50
254.9128794574
 51
290.2408822105
  0
LWPOLYLINE
  5
18E
330
1F
100
AcDbEntity
  8
0
  6
Continuous
 62
     7
370
    25
100
AcDbPolyline
 90
        7
 70
   128
 43
0.0
 10
6287.6295485667
 20
5123.1835000327
 10
6288.8795510364
 20
5123.2203634754
 10
6290.048404658
 20
5123.2513761045
 10
6291.079086743
 20
5123.2765379203
 10
6292.1617419063
 20
5123.301699736
 10
6293.5319290653
 20
5123.3327123652
 10
6295.2091548638
 20
5123.3695758078
  0
ARC
  5
18F
330
1F
100
AcDbEntity
  8
0
  6
Continuous
 62
     7
370
    25
100
AcDbCircle
 10
6298.6552942088
 20
5151.6259379369
 30
0.0
 40
28.46573162861872
100
AcDbArc
 50
263.0465599671
 51
279.3128089913
  0
LWPOLYLINE
  5
190
330
1F
100
AcDbEntity
  8
0
  6
Continuous
 62
     7
370
    25
100
AcDbPolyline
 90
        9
 70
   128
 43
0.0
 10
6303.2617452208
 20
5123.5353970694
 10
6304.3792071211
 20
5123.5589522221
 10
6305.4755463543
 20
5123.5826385331
 10
6306.5454520929
 20
5123.6064560024
 10
6307.583741557
 20
5123.6304046299
 10
6308.450467224
 20
5123.6508507844
 10
6309.5338670871
 20
5123.6770258639
 10
6310.4326894822
 20
5123.6996381042
 10
6311.2828360883
 20
5123.7220320669
  0
ARC
  5
191
330
1F
100
AcDbEntity
  8
0
  6
Continuous
 62
     7
370
    25
100
AcDbCircle
 10
6313.1534096983
 20
5131.9884145951
 30
0.0
 40
8.475383515455688
100
AcDbArc
 50
257.2494579311
 51
287.1384649222
  0
LWPOLYLINE
  5
192
330
1F
100
AcDbEntity
  8
0
  6
Continuous
 62
     7
370
    25
100
AcDbPolyline
 90
       10
 70
   128
 43
0.0
 10
6315.6509519902
 20
5123.889377107
 10
6315.8223254687
 20
5123.900706102
 10
6315.9752266748
 20
5123.9119834674
 10
6316.1094768874
 20
5123.9232092035
 10
6316.2249191859
 20
5123.93438331
 10
6316.3636353408
 20
5123.9516418435
 10
6316.414941355
 20
5123.9600845029
 10
6316.4614427688
 20
5123.9698720697
 10
6316.4976016864
 20
5123.981004544
 10
6316.4817671175
 20
5123.9982621406
  0
LWPOLYLINE
  5
193
330
1F
100
AcDbEntity
  8
0
  6
Continuous
 62
     7
370
    25
100
AcDbPolyline
 90
        3
 70
   128
 43
0.0
 10
6283.5557435547
 20
5125.0565954739
 10
6283.5834543778
 20
5125.0867966248
 10
6283.9450741116
 20
5125.1343454378
  0
ARC
  5
194
330
1F
100
AcDbEntity
  8
0
  6
Continuous
 62
     7
370
    25
100
AcDbCircle
 10
6285.5284783846
 20
5130.9684088467
 30
0.0
 40
6.045119101430062
100
AcDbArc
 50
254.8153264613
 51
290.3384352067
  0
ARC
  5
195
330
1F
100
AcDbEntity
  8
0
  6
Continuous
 62
     7
370
    25
100
AcDbCircle
 10
6298.6567741758
 20
5153.6707346371
 30
0.0
 40
28.39457126605333
100
AcDbArc
 50
263.0260387956
 51
279.3333301628
  0
ARC
  5
196
330
1F
100
AcDbEntity
  8
0
  6
Continuous
 62
     7
370
    25
100
AcDbCircle
 10
6313.154331622
 20
5134.0810167926
 30
0.0
 40
8.45211822680413
100
AcDbArc
 50
257.2073586054
 51
287.1805642479
  0
LINE
  5
197
330
1F
100
AcDbEntity
  8
0
  6
Continuous
 62
     7
370
    25
100
AcDbLine
 10
6315.0992174554
 20
5125.3895428007
 30
0.0
 11
6315.6509519902
 21
5125.7138722104
 31
0.0
  0
LWPOLYLINE
  5
198
330
1F
100
AcDbEntity
  8
0
  6
Continuous
 62
     7
370
    25
100
AcDbPolyline
 90
       18
 70
   128
 43
0.0
 10
6284.7241449467
 20
5115.928047181
 10
6284.7973174378
 20
5115.9735541156
 10
6285.4529089871
 20
5116.0376488893
 10
6286.6214403765
 20
5116.1000720911
 10
6288.2921765029
 20
5116.165294256
 10
6290.3869499116
 20
5116.2301879676
 10
6292.7959033859
 20
5116.2923869982
 10
6295.4953293512
 20
5116.357003621
 10
6298.3700771916
 20
5116.4223750515
 10
6301.2649913645
 20
5116.4850892584
 10
6304.1299670828
 20
5116.5487837087
 10
6306.8719220524
 20
5116.6143036722
 10
6309.3425283991
 20
5116.6781088943
 10
6311.4659001948
 20
5116.7407348228
 10
6313.2037385401
 20
5116.806071642
 10
6314.4566328666
 20
5116.8707665729
 10
6315.1795705483
 20
5116.9329544003
 10
6315.2944396297
 20
5116.9730646777
  0
LWPOLYLINE
  5
199
330
1F
100
AcDbEntity
  8
0
  6
Continuous
 62
     7
370
    25
100
AcDbPolyline
 90
       18
 70
   128
 43
0.0
 10
6284.7241763046
 20
5118.0447333495
 10
6284.7973174378
 20
5118.0902207823
 10
6285.4529089871
 20
5118.154315556
 10
6286.6214403765
 20
5118.2167387577
 10
6288.2921765029
 20
5118.2819609227
 10
6290.3869499116
 20
5118.3468546343
 10
6292.7959033859
 20
5118.4090536648
 10
6295.4953293512
 20
5118.4736702877
 10
6298.3700771916
 20
5118.5390417182
 10
6301.2649913645
 20
5118.601755925
 10
6304.1299670828
 20
5118.6654503754
 10
6306.8719220524
 20
5118.7309703389
 10
6309.3425283991
 20
5118.7947755609
 10
6311.4659001948
 20
5118.8574014894
 10
6313.2037385401
 20
5118.9227383087
 10
6314.4566328666
 20
5118.9874332396
 10
6315.1795705483
 20
5119.0496210669
 10
6315.2944495989
 20
5119.0897348255
  0
LWPOLYLINE
  5
19A
330
1F
100
AcDbEntity
  8
0
  6
Continuous
 62
     7
370
    25
100
AcDbPolyline
 90
       18
 70
   128
 43
0.0
 10
6284.7242076177
 20
5120.1614194902
 10
6284.7973174378
 20
5120.206887449
 10
6285.4529089871
 20
5120.2709822226
 10
6286.6214403765
 20
5120.3334054244
 10
6288.2921765029
 20
5120.3986275894
 10
6290.3869499116
 20
5120.4635213009
 10
6292.7959033859
 20
5120.5257203315
 10
6295.4953293512
 20
5120.5903369544
 10
6298.3700771916
 20
5120.6557083848
 10
6301.2649913645
 20
5120.7184225917
 10
6304.1299670828
 20
5120.782117042
 10
6306.8719220524
 20
5120.8476370055
 10
6309.3425283991
 20
5120.9114422276
 10
6311.4659001948
 20
5120.9740681561
 10
6313.2037385401
 20
5121.0394049753
 10
6314.4566328666
 20
5121.1040999063
 10
6315.1795705483
 20
5121.1662877336
 10
6315.2944595737
 20
5121.2064049751
  0
LWPOLYLINE
  5
19B
330
1F
100
AcDbEntity
  8
0
  6
Continuous
 62
     7
370
    25
100
AcDbPolyline
 90
       18
 70
   128
 43
0.0
 10
6284.7242388868
 20
5122.2781056036
 10
6284.7973174378
 20
5122.3235541157
 10
6285.4529089871
 20
5122.3876488893
 10
6286.6214403765
 20
5122.4500720911
 10
6288.2921765029
 20
5122.515294256
 10
6290.3869499116
 20
5122.5801879676
 10
6292.7959033859
 20
5122.6423869982
 10
6295.4953293512
 20
5122.707003621
 10
6298.3700771916
 20
5122.7723750515
 10
6301.2649913645
 20
5122.8350892584
 10
6304.1299670828
 20
5122.8987837087
 10
6306.8719220524
 20
5122.9643036722
 10
6309.3425283991
 20
5123.0281088943
 10
6311.4659001948
 20
5123.0907348228
 10
6313.2037385401
 20
5123.156071642
 10
6314.4566328666
 20
5123.2207665729
 10
6315.1795705483
 20
5123.2829544003
 10
6315.2944695541
 20
5123.3230751268
  0
LWPOLYLINE
  5
19C
330
1F
100
AcDbEntity
  8
0
  6
Continuous
 62
     7
370
    25
100
AcDbPolyline
 90
       14
 70
   128
 43
0.0
 10
6284.7242701126
 20
5124.39479169
 10
6284.7973174378
 20
5124.4402207823
 10
6285.4529089871
 20
5124.504315556
 10
6286.6214403765
 20
5124.5667387577
 10
6288.2921765029
 20
5124.6319609227
 10
6290.3869499116
 20
5124.6968546343
 10
6292.7959033859
 20
5124.7590536648
 10
6295.4953293512
 20
5124.8236702877
 10
6298.3700771916
 20
5124.8890417182
 10
6301.2649913645
 20
5124.951755925
 10
6304.1299670828
 20
5125.0154503754
 10
6306.8719220524
 20
5125.0809703389
 10
6309.3425283991
 20
5125.1447755609
 10
6311.1964556249
 20
5125.1994545927
  0
ARC
  5
19D
330
1F
100
AcDbEntity
  8
0
  6
Continuous
 62
     7
370
    25
100
AcDbCircle
 10
6309.5945793338
 20
5198.4821815028
 30
0.0
 40
73.29962400929207
100
AcDbArc
 50
271.3197685857
 51
274.3068402833
  0
LWPOLYLINE
  5
19E
330
1F
100
AcDbEntity
  8
0
  6
Continuous
 62
     7
370
    25
100
AcDbPolyline
 90
        4
 70
   128
 43
0.0
 10
6285.0960230718
 20
5116.4707995785
 10
6284.4898904908
 20
5116.3540300209
 10
6284.236005084
 20
5116.2303867013
 10
6284.3060356656
 20
5116.1670506248
  0
LWPOLYLINE
  5
19F
330
1F
100
AcDbEntity
  8
0
  6
Continuous
 62
     7
370
    25
100
AcDbPolyline
 90
        3
 70
   128
 43
0.0
 10
6287.208842029
 20
5116.6990107036
 10
6286.380430293
 20
5116.518481314
 10
6285.0960230718
 20
5116.4707995785
  0
LWPOLYLINE
  5
1A0
330
1F
100
AcDbEntity
  8
0
  6
Continuous
 62
     7
370
    25
100
AcDbPolyline
 90
        3
 70
   128
 43
0.0
 10
6289.9712872751
 20
5116.8994545927
 10
6288.0264291581
 20
5116.7652411726
 10
6287.208842029
 20
5116.6990107036
  0
LWPOLYLINE
  5
1A1
330
1F
100
AcDbEntity
  8
0
  6
Continuous
 62
     7
370
    25
100
AcDbPolyline
 90
        4
 70
   128
 43
0.0
 10
6289.9712872751
 20
5116.8994545927
 10
6292.4510631734
 20
5116.9582805173
 10
6293.3850267903
 20
5116.9793395843
 10
6295.2091548639
 20
5117.0195758078
  0
ARC
  5
1A2
330
1F
100
AcDbEntity
  8
0
  6
Continuous
 62
     7
370
    25
100
AcDbCircle
 10
6298.6552942088
 20
5145.2759379368
 30
0.0
 40
28.46573162851461
100
AcDbArc
 50
263.0465599671
 51
279.3128089913
  0
LWPOLYLINE
  5
1A3
330
1F
100
AcDbEntity
  8
0
  6
Continuous
 62
     7
370
    25
100
AcDbPolyline
 90
        9
 70
   128
 43
0.0
 10
6303.2617452208
 20
5117.1853970694
 10
6304.3792071211
 20
5117.2089522221
 10
6305.4755463543
 20
5117.2326385331
 10
6306.5454520929
 20
5117.2564560024
 10
6307.583741557
 20
5117.2804046299
 10
6308.4504672179
 20
5117.3008507842
 10
6309.5338670871
 20
5117.3270258639
 10
6310.4326894822
 20
5117.3496381042
 10
6311.2828360883
 20
5117.3720320669
  0
ARC
  5
1A4
330
1F
100
AcDbEntity
  8
0
  6
Continuous
 62
     7
370
    25
100
AcDbCircle
 10
6313.1534096983
 20
5125.6384145951
 30
0.0
 40
8.475383515464628
100
AcDbArc
 50
257.2494579311
 51
287.1384649222
  0
LWPOLYLINE
  5
1A5
330
1F
100
AcDbEntity
  8
0
  6
Continuous
 62
     7
370
    25
100
AcDbPolyline
 90
       10
 70
   128
 43
0.0
 10
6315.6509519902
 20
5117.539377107
 10
6315.8223254687
 20
5117.550706102
 10
6315.9752266748
 20
5117.5619834674
 10
6316.1094768874
 20
5117.5732092035
 10
6316.2249191859
 20
5117.58438331
 10
6316.3636353416
 20
5117.6016418436
 10
6316.4149413556
 20
5117.610084503
 10
6316.4614427691
 20
5117.6198720698
 10
6316.4976016864
 20
5117.631004544
 10
6316.4817671175
 20
5117.6482621406
  0
LINE
  5
1A6
330
1F
100
AcDbEntity
  8
0
  6
Continuous
 62
     7
370
    25
100
AcDbLine
 10
6283.6606590287
 20
5116.8994545927
 30
0.0
 11
6283.9450741116
 21
5116.8994545927
 31
0.0
  0
LINE
  5
1A7
330
1F
100
AcDbEntity
  8
0
  6
Continuous
 62
     7
370
    25
100
AcDbLine
 10
6283.9450741116
 20
5116.8994545927
 30
0.0
 11
6285.0960230718
 21
5116.4707995785
 31
0.0
  0
LINE
  5
1A8
330
1F
100
AcDbEntity
  8
0
  6
Continuous
 62
     7
370
    25
100
AcDbLine
 10
6284.6922407212
 20
5115.7537751573
 30
0.0
 11
6292.4136347241
 21
5115.7537751573
 31
0.0
  0
LINE
  5
1A9
330
1F
100
AcDbEntity
  8
0
  6
Continuous
 62
     7
370
    25
100
AcDbLine
 10
6312.4582836365
 20
5115.1994545927
 30
0.0
 11
6314.8187553361
 21
5115.1994545927
 31
0.0
  0
LINE
  5
1AA
330
1F
100
AcDbEntity
  8
0
  6
Continuous
 62
     7
370
    25
100
AcDbLine
 10
6285.2187553361
 20
5115.1994545927
 30
0.0
 11
6312.4582836365
 21
5115.1994545927
 31
0.0
  0
LINE
  5
1AB
330
1F
100
AcDbEntity
  8
0
  6
Continuous
 62
     7
370
    25
100
AcDbLine
 10
6295.2091548638
 20
5125.1994545927
 30
0.0
 11
6292.6638258267
 21
5125.1994545927
 31
0.0
  0
LINE
  5
1AC
330
1F
100
AcDbEntity
  8
0
  6
Continuous
 62
     7
370
    25
100
AcDbLine
 10
6292.6638258267
 20
5128.6994545927
 30
0.0
 11
6292.6638258267
 21
5125.1994545927
 31
0.0
  0
LINE
  5
1AD
330
1F
100
AcDbEntity
  8
0
  6
Continuous
 62
     7
370
    25
100
AcDbLine
 10
6305.8070742578
 20
5125.1994545927
 30
0.0
 11
6305.8070742578
 21
5128.6994545927
 31
0.0
  0
LINE
  5
1AE
330
1F
100
AcDbEntity
  8
0
  6
Continuous
 62
     7
370
    25
100
AcDbLine
 10
6305.8070742578
 20
5125.1994545927
 30
0.0
 11
6303.2617452208
 21
5125.1994545927
 31
0.0
  0
LINE
  5
1AF
330
1F
100
AcDbEntity
  8
0
  6
Continuous
 62
     7
370
    25
100
AcDbLine
 10
6303.2617452208
 20
5125.1994545927
 30
0.0
 11
6303.2617452208
 21
5125.6520637361
 31
0.0
  0
LINE
  5
1B0
330
1F
100
AcDbEntity
  8
0
  6
Continuous
 62
     7
370
    25
100
AcDbLine
 10
6295.2091548638
 20
5125.4862424745
 30
0.0
 11
6295.2091548638
 21
5125.1994545927
 31
0.0
  0
LINE
  5
1B1
330
1F
100
AcDbEntity
  8
0
  6
Continuous
 62
     7
370
    25
100
AcDbLine
 10
6315.0992183495
 20
5124.8603761677
 30
0.0
 11
6315.0992174554
 21
5125.3895428343
 31
0.0
  0
LINE
  5
1B2
330
1F
100
AcDbEntity
  8
0
  6
Continuous
 62
     7
370
    25
100
AcDbLine
 10
6303.2617452208
 20
5123.7999804085
 30
0.0
 11
6303.2617452208
 21
5123.5353970694
 31
0.0
  0
LINE
  5
1B3
330
1F
100
AcDbEntity
  8
0
  6
Continuous
 62
     7
370
    25
100
AcDbLine
 10
6295.2091548638
 20
5123.3695758078
 30
0.0
 11
6295.2091548638
 21
5123.6341591469
 31
0.0
  0
LINE
  5
1B4
330
1F
100
AcDbEntity
  8
0
  6
Continuous
 62
     7
370
    25
100
AcDbLine
 10
6303.2617452208
 20
5121.6833137418
 30
0.0
 11
6303.2617452208
 21
5121.4187304027
 31
0.0
  0
LINE
  5
1B5
330
1F
100
AcDbEntity
  8
0
  6
Continuous
 62
     7
370
    25
100
AcDbLine
 10
6295.2091548638
 20
5121.2529091412
 30
0.0
 11
6295.2091548638
 21
5121.5174924803
 31
0.0
  0
LINE
  5
1B6
330
1F
100
AcDbEntity
  8
0
  6
Continuous
 62
     7
370
    25
100
AcDbLine
 10
6303.2617452208
 20
5117.4499804085
 30
0.0
 11
6303.2617452208
 21
5117.1853970694
 31
0.0
  0
LINE
  5
1B7
330
1F
100
AcDbEntity
  8
0
  6
Continuous
 62
     7
370
    25
100
AcDbLine
 10
6295.2091548638
 20
5117.0195758078
 30
0.0
 11
6295.2091548638
 21
5117.2841591469
 31
0.0
  0
LINE
  5
1B8
330
1F
100
AcDbEntity
  8
0
  6
Continuous
 62
     7
370
    25
100
AcDbLine
 10
6303.2617452208
 20
5119.5666470752
 30
0.0
 11
6303.2617452208
 21
5119.3020637361
 31
0.0
  0
LINE
  5
1B9
330
1F
100
AcDbEntity
  8
0
  6
Continuous
 62
     7
370
    25
100
AcDbLine
 10
6295.2091548638
 20
5119.1362424745
 30
0.0
 11
6295.2091548638
 21
5119.4008258136
 31
0.0
  0
LINE
  5
1BA
330
1F
100
AcDbEntity
  8
0
  6
Continuous
 62
     7
370
    25
100
AcDbLine
 10
6311.2828360883
 20
5123.7220320669
 30
0.0
 11
6311.2828360883
 21
5123.986615406
 31
0.0
  0
LINE
  5
1BB
330
1F
100
AcDbEntity
  8
0
  6
Continuous
 62
     7
370
    25
100
AcDbLine
 10
6311.2828360883
 20
5119.4886987336
 30
0.0
 11
6311.2828360883
 21
5119.7532820727
 31
0.0
  0
LINE
  5
1BC
330
1F
100
AcDbEntity
  8
0
  6
Continuous
 62
     7
370
    25
100
AcDbLine
 10
6311.2828360883
 20
5117.3720320669
 30
0.0
 11
6311.2828360883
 21
5117.636615406
 31
0.0
  0
LINE
  5
1BD
330
1F
100
AcDbEntity
  8
0
  6
Continuous
 62
     7
370
    25
100
AcDbLine
 10
6311.2828360883
 20
5121.6053654002
 30
0.0
 11
6311.2828360883
 21
5121.8699487393
 31
0.0
  0
LINE
  5
1BE
330
1F
100
AcDbEntity
  8
0
  6
Continuous
 62
     7
370
    25
100
AcDbLine
 10
6309.9021260621
 20
5128.6994545927
 30
0.0
 11
6309.9021260621
 21
5125.1994545927
 31
0.0
  0
LINE
  5
1BF
330
1F
100
AcDbEntity
  8
0
  6
Continuous
 62
     7
370
    25
100
AcDbLine
 10
6309.9021260621
 20
5125.1994545927
 30
0.0
 11
6305.8070742578
 21
5125.1994545927
 31
0.0
  0
LINE
  5
1C0
330
1F
100
AcDbEntity
  8
0
  6
Continuous
 62
     7
370
    25
100
AcDbLine
 10
6287.6295485667
 20
5119.2147500385
 30
0.0
 11
6287.6295485667
 21
5118.9501666994
 31
0.0
  0
LINE
  5
1C1
330
1F
100
AcDbEntity
  8
0
  6
Continuous
 62
     7
370
    25
100
AcDbLine
 10
6287.6295485667
 20
5116.8994545927
 30
0.0
 11
6289.9712872751
 21
5116.8994545927
 31
0.0
  0
LINE
  5
1C2
330
1F
100
AcDbEntity
  8
0
  6
Continuous
 62
     7
370
    25
100
AcDbLine
 10
6287.6295485667
 20
5117.0980833718
 30
0.0
 11
6287.6295485667
 21
5116.8994545927
 31
0.0
  0
LINE
  5
1C3
330
1F
100
AcDbEntity
  8
0
  6
Continuous
 62
     7
370
    25
100
AcDbLine
 10
6287.6295485667
 20
5123.4480833718
 30
0.0
 11
6287.6295485667
 21
5123.1835000327
 31
0.0
  0
LINE
  5
1C4
330
1F
100
AcDbEntity
  8
0
  6
Continuous
 62
     7
370
    25
100
AcDbLine
 10
6287.6295485667
 20
5121.3314167052
 30
0.0
 11
6287.6295485667
 21
5121.0668333661
 31
0.0
  0
LINE
  5
1C5
330
1F
100
AcDbEntity
  8
0
  6
Continuous
 62
     7
370
    25
100
AcDbLine
 10
6288.7941675776
 20
5125.1994545927
 30
0.0
 11
6288.7941675776
 21
5128.6994545927
 31
0.0
  0
LINE
  5
1C6
330
1F
100
AcDbEntity
  8
0
  6
Continuous
 62
     7
370
    25
100
AcDbLine
 10
6292.6638258267
 20
5125.1994545927
 30
0.0
 11
6288.7941675776
 21
5125.1994545927
 31
0.0
  0
LINE
  5
1C7
330
1F
100
AcDbEntity
  8
0
  6
Continuous
 62
     7
370
    25
100
AcDbLine
 10
6317.0316620164
 20
5125.1994545927
 30
0.0
 11
6317.0316620164
 21
5128.6994545927
 31
0.0
  0
LINE
  5
1C8
330
1F
100
AcDbEntity
  8
0
  6
Continuous
 62
     7
370
    25
100
AcDbLine
 10
6317.0316620164
 20
5125.1994545927
 30
0.0
 11
6315.6509519902
 21
5125.1994545927
 31
0.0
  0
LINE
  5
1C9
330
1F
100
AcDbEntity
  8
0
  6
Continuous
 62
     7
370
    25
100
AcDbLine
 10
6315.6509519902
 20
5125.1994545927
 30
0.0
 11
6315.6509519902
 21
5126.0060437737
 31
0.0
  0
LINE
  5
1CA
330
1F
100
AcDbEntity
  8
0
  6
Continuous
 62
     7
370
    25
100
AcDbLine
 10
6311.2828360883
 20
5125.1994545927
 30
0.0
 11
6309.9021260621
 21
5125.1994545927
 31
0.0
  0
LINE
  5
1CB
330
1F
100
AcDbEntity
  8
0
  6
Continuous
 62
     7
370
    25
100
AcDbLine
 10
6311.2828360883
 20
5125.8386987336
 30
0.0
 11
6311.2828360883
 21
5125.1994545927
 31
0.0
  0
LINE
  5
1CC
330
1F
100
AcDbEntity
  8
0
  6
Continuous
 62
     7
370
    25
100
AcDbLine
 10
6283.9450741116
 20
5125.1343454378
 30
0.0
 11
6283.9450741116
 21
5125.1994545927
 31
0.0
  0
LINE
  5
1CD
330
1F
100
AcDbEntity
  8
0
  6
Continuous
 62
     7
370
    25
100
AcDbLine
 10
6283.9450741116
 20
5125.1994545927
 30
0.0
 11
6282.7804551007
 21
5125.1994545927
 31
0.0
  0
LINE
  5
1CE
330
1F
100
AcDbEntity
  8
0
  6
Continuous
 62
     7
370
    25
100
AcDbLine
 10
6282.7804551007
 20
5128.6994545927
 30
0.0
 11
6282.7804551007
 21
5125.1994545927
 31
0.0
  0
LINE
  5
1CF
330
1F
100
AcDbEntity
  8
0
  6
Continuous
 62
     7
370
    25
100
AcDbLine
 10
6287.6295485667
 20
5125.1994545927
 30
0.0
 11
6287.6295485667
 21
5125.3001666994
 31
0.0
  0
LINE
  5
1D0
330
1F
100
AcDbEntity
  8
0
  6
Continuous
 62
     7
370
    25
100
AcDbLine
 10
6288.7941675776
 20
5125.1994545927
 30
0.0
 11
6287.6295485667
 21
5125.1994545927
 31
0.0
  0
LINE
  5
1D1
330
1F
100
AcDbEntity
  8
0
  6
Continuous
 62
     7
370
    25
100
AcDbLine
 10
6287.208842029
 20
5116.6990107036
 30
0.0
 11
6287.6295485667
 21
5116.8994545927
 31
0.0
  0
LINE
  5
1D2
330
1F
100
AcDbEntity
  8
0
  6
Continuous
 62
     7
370
    25
100
AcDbLine
 10
6315.6509519902
 20
5119.9206271128
 30
0.0
 11
6315.6509519902
 21
5119.6560437737
 31
0.0
  0
LINE
  5
1D3
330
1F
100
AcDbEntity
  8
0
  6
Continuous
 62
     7
370
    25
100
AcDbLine
 10
6315.6509519902
 20
5122.0372937794
 30
0.0
 11
6315.6509519902
 21
5121.7727104403
 31
0.0
  0
LINE
  5
1D4
330
1F
100
AcDbEntity
  8
0
  6
Continuous
 62
     7
370
    25
100
AcDbLine
 10
6315.6509519902
 20
5117.8039604461
 30
0.0
 11
6315.6509519902
 21
5117.539377107
 31
0.0
  0
LINE
  5
1D5
330
1F
100
AcDbEntity
  8
0
  6
Continuous
 62
     7
370
    25
100
AcDbLine
 10
6315.6509519902
 20
5124.1539604461
 30
0.0
 11
6315.6509519902
 21
5123.889377107
 31
0.0
  0
LINE
  5
1D6
330
1F
100
AcDbEntity
  8
0
  6
Continuous
 62
     7
370
    25
100
AcDbLine
 10
6283.9450741116
 20
5123.0176787711
 30
0.0
 11
6283.9450741116
 21
5123.2822621103
 31
0.0
  0
LINE
  5
1D7
330
1F
100
AcDbEntity
  8
0
  6
Continuous
 62
     7
370
    25
100
AcDbLine
 10
6283.9450741116
 20
5116.8994545927
 30
0.0
 11
6283.9450741116
 21
5116.9322621103
 31
0.0
  0
LINE
  5
1D8
330
1F
100
AcDbEntity
  8
0
  6
Continuous
 62
     7
370
    25
100
AcDbLine
 10
6283.9450741116
 20
5120.9010121045
 30
0.0
 11
6283.9450741116
 21
5121.1655954436
 31
0.0
  0
LINE
  5
1D9
330
1F
100
AcDbEntity
  8
0
  6
Continuous
 62
     7
370
    25
100
AcDbLine
 10
6283.9450741116
 20
5118.7843454378
 30
0.0
 11
6283.9450741116
 21
5119.0489287769
 31
0.0
  0
LINE
  5
1DA
330
1F
100
AcDbEntity
  8
0
  6
Continuous
 62
     7
370
    25
100
AcDbLine
 10
6316.2244619135
 20
5125.1994545927
 30
0.0
 11
6316.224463604
 21
5124.198917586
 31
0.0
  0
LINE
  5
1DB
330
1F
100
AcDbEntity
  8
0
  6
Continuous
 62
     7
370
    25
100
AcDbLine
 10
6317.3187553361
 20
5125.1994545927
 30
0.0
 11
6317.0316620164
 21
5125.1994545927
 31
0.0
  0
LINE
  5
1DC
330
1F
100
AcDbEntity
  8
0
  6
Continuous
 62
     7
370
    25
100
AcDbLine
 10
6282.7804551007
 20
5125.1994545927
 30
0.0
 11
6282.7187553361
 21
5125.1994545927
 31
0.0
  0
CIRCLE
  5
1DD
330
1F
100
AcDbEntity
  8
0
  6
Continuous
 62
     7
370
    25
100
AcDbCircle
 10
6212.5187553361
 20
5275.1994545927
 30
0.0
 40
0.7500000000001009
  0
CIRCLE
  5
1DE
330
1F
100
AcDbEntity
  8
0
  6
Continuous
 62
     7
370
    25
100
AcDbCircle
 10
6212.5187553361
 20
5275.1994545927
 30
0.0
 40
4.499999999999703
  0
ARC
  5
1DF
330
1F
100
AcDbEntity
  8
0
  6
Continuous
 62
     7
370
    25
100
AcDbCircle
 10
6211.3018604788
 20
5273.6122662276
 30
0.0
 40
0.6110625643870367
100
AcDbArc
 50
152.9281607619
 51
312.11718641
  0
LINE
  5
1E0
330
1F
100
AcDbEntity
  8
0
  6
Continuous
 62
     7
370
    25
100
AcDbLine
 10
6211.8878479609
 20
5273.3182813361
 30
0.0
 11
6211.7116690691
 21
5273.1589954731
 31
0.0
  0
ARC
  5
1E1
330
1F
100
AcDbEntity
  8
0
  6
Continuous
 62
     7
370
    25
100
AcDbCircle
 10
6212.2231725367
 20
5272.9473939827
 30
0.0
 40
0.5000000000055214
100
AcDbArc
 50
32.9281607625
 51
132.1171864093
  0
LINE
  5
1E2
330
1F
100
AcDbEntity
  8
0
  6
Continuous
 62
     7
370
    25
100
AcDbLine
 10
6212.7719562815
 20
5273.0198328497
 30
0.0
 11
6212.6428489337
 21
5273.2191875106
 31
0.0
  0
ARC
  5
1E3
330
1F
100
AcDbEntity
  8
0
  6
Continuous
 62
     7
370
    25
100
AcDbCircle
 10
6213.2848533522
 20
5273.35199855
 30
0.0
 40
0.611062564387034
100
AcDbArc
 50
212.9281607619
 51
12.11718641
  0
LINE
  5
1E4
330
1F
100
AcDbEntity
  8
0
  6
Continuous
 62
     7
370
    25
100
AcDbLine
 10
6213.8324454777
 20
5273.7124861501
 30
0.0
 11
6213.8823016356
 21
5273.4802678226
 31
0.0
  0
ARC
  5
1E5
330
1F
100
AcDbEntity
  8
0
  6
Continuous
 62
     7
370
    25
100
AcDbCircle
 10
6214.3213056356
 20
5273.8174420745
 30
0.0
 40
0.4999999999994806
100
AcDbArc
 50
92.9281607617
 51
192.1171864101
  0
LINE
  5
1E6
330
1F
100
AcDbEntity
  8
0
  6
Continuous
 62
     7
370
    25
100
AcDbLine
 10
6214.5329636089
 20
5274.3289221722
 30
0.0
 11
6214.2957637343
 21
5274.3167892596
 31
0.0
  0
ARC
  5
1E7
330
1F
100
AcDbEntity
  8
0
  6
Continuous
 62
     7
370
    25
100
AcDbCircle
 10
6214.5017482095
 20
5274.9391869151
 30
0.0
 40
0.6110625643867075
100
AcDbArc
 50
272.9281607619
 51
72.11718641
  0
LINE
  5
1E8
330
1F
100
AcDbEntity
  8
0
  6
Continuous
 62
     7
370
    25
100
AcDbLine
 10
6214.4633528529
 20
5275.5936594067
 30
0.0
 11
6214.6893879026
 21
5275.5207269423
 31
0.0
  0
ARC
  5
1E9
330
1F
100
AcDbEntity
  8
0
  6
Continuous
 62
     7
370
    25
100
AcDbCircle
 10
6214.616888435
 20
5276.0695026845
 30
0.0
 40
0.4999999999959359
100
AcDbArc
 50
152.9281607612
 51
252.1171864105
  0
LINE
  5
1EA
330
1F
100
AcDbEntity
  8
0
  6
Continuous
 62
     7
370
    25
100
AcDbLine
 10
6214.2797626635
 20
5276.5085439152
 30
0.0
 11
6214.1716701367
 21
5276.2970563417
 31
0.0
  0
ARC
  5
1EB
330
1F
100
AcDbEntity
  8
0
  6
Continuous
 62
     7
370
    25
100
AcDbCircle
 10
6213.7356501934
 20
5276.7866429578
 30
0.0
 40
0.6110625643882425
100
AcDbArc
 50
332.928160762
 51
132.1171864099
  0
LINE
  5
1EC
330
1F
100
AcDbEntity
  8
0
  6
Continuous
 62
     7
370
    25
100
AcDbLine
 10
6213.1496627113
 20
5277.0806278494
 30
0.0
 11
6213.3258416031
 21
5277.2399137124
 31
0.0
  0
ARC
  5
1ED
330
1F
100
AcDbEntity
  8
0
  6
Continuous
 62
     7
370
    25
100
AcDbCircle
 10
6212.8143381355
 20
5277.4515152028
 30
0.0
 40
0.5000000000003084
100
AcDbArc
 50
212.9281607617
 51
312.11718641
  0
LINE
  5
1EE
330
1F
100
AcDbEntity
  8
0
  6
Continuous
 62
     7
370
    25
100
AcDbLine
 10
6212.2655543907
 20
5277.3790763357
 30
0.0
 11
6212.3946617385
 21
5277.1797216749
 31
0.0
  0
ARC
  5
1EF
330
1F
100
AcDbEntity
  8
0
  6
Continuous
 62
     7
370
    25
100
AcDbCircle
 10
6211.75265732
 20
5277.0469106354
 30
0.0
 40
0.6110625643869699
100
AcDbArc
 50
32.9281607618
 51
192.1171864101
  0
LINE
  5
1F0
330
1F
100
AcDbEntity
  8
0
  6
Continuous
 62
     7
370
    25
100
AcDbLine
 10
6211.2050651945
 20
5276.6864230354
 30
0.0
 11
6211.1552090366
 21
5276.9186413628
 31
0.0
  0
ARC
  5
1F1
330
1F
100
AcDbEntity
  8
0
  6
Continuous
 62
     7
370
    25
100
AcDbCircle
 10
6210.7162050366
 20
5276.581467111
 30
0.0
 40
0.5000000000021236
100
AcDbArc
 50
272.9281607622
 51
12.11718641
  0
LINE
  5
1F2
330
1F
100
AcDbEntity
  8
0
  6
Continuous
 62
     7
370
    25
100
AcDbLine
 10
6210.5045470633
 20
5276.0699870132
 30
0.0
 11
6210.7417469379
 21
5276.0821199259
 31
0.0
  0
ARC
  5
1F3
330
1F
100
AcDbEntity
  8
0
  6
Continuous
 62
     7
370
    25
100
AcDbCircle
 10
6210.5357624627
 20
5275.4597222703
 30
0.0
 40
0.6110625643872138
100
AcDbArc
 50
92.9281607619
 51
252.11718641
  0
LINE
  5
1F4
330
1F
100
AcDbEntity
  8
0
  6
Continuous
 62
     7
370
    25
100
AcDbLine
 10
6210.5741578193
 20
5274.8052497787
 30
0.0
 11
6210.3481227696
 21
5274.8781822432
 31
0.0
  0
ARC
  5
1F5
330
1F
100
AcDbEntity
  8
0
  6
Continuous
 62
     7
370
    25
100
AcDbCircle
 10
6210.4206222372
 20
5274.3294065009
 30
0.0
 40
0.500000000000363
100
AcDbArc
 50
332.9281607618
 51
72.11718641
  0
LINE
  5
1F6
330
1F
100
AcDbEntity
  8
0
  6
Continuous
 62
     7
370
    25
100
AcDbLine
 10
6210.7577480087
 20
5273.8903652702
 30
0.0
 11
6210.8658405355
 21
5274.1018528437
 31
0.0
  0
CIRCLE
  5
1F7
330
1F
100
AcDbEntity
  8
0
  6
Continuous
 62
     7
370
    25
100
AcDbCircle
 10
6212.5187553361
 20
5152.1994545927
 30
0.0
 40
0.7499999999997525
  0
CIRCLE
  5
1F8
330
1F
100
AcDbEntity
  8
0
  6
Continuous
 62
     7
370
    25
100
AcDbCircle
 10
6212.5187553361
 20
5152.1994545927
 30
0.0
 40
4.499999999999703
  0
ARC
  5
1F9
330
1F
100
AcDbEntity
  8
0
  6
Continuous
 62
     7
370
    25
100
AcDbCircle
 10
6211.3018604788
 20
5150.6122662276
 30
0.0
 40
0.6110625643870367
100
AcDbArc
 50
152.9281607619
 51
312.11718641
  0
LINE
  5
1FA
330
1F
100
AcDbEntity
  8
0
  6
Continuous
 62
     7
370
    25
100
AcDbLine
 10
6211.8878479609
 20
5150.3182813361
 30
0.0
 11
6211.7116690691
 21
5150.1589954731
 31
0.0
  0
ARC
  5
1FB
330
1F
100
AcDbEntity
  8
0
  6
Continuous
 62
     7
370
    25
100
AcDbCircle
 10
6212.2231725367
 20
5149.9473939827
 30
0.0
 40
0.5000000000010671
100
AcDbArc
 50
32.9281607618
 51
132.11718641
  0
LINE
  5
1FC
330
1F
100
AcDbEntity
  8
0
  6
Continuous
 62
     7
370
    25
100
AcDbLine
 10
6212.7719562815
 20
5150.0198328497
 30
0.0
 11
6212.6428489337
 21
5150.2191875106
 31
0.0
  0
ARC
  5
1FD
330
1F
100
AcDbEntity
  8
0
  6
Continuous
 62
     7
370
    25
100
AcDbCircle
 10
6213.2848533522
 20
5150.35199855
 30
0.0
 40
0.611062564386779
100
AcDbArc
 50
212.9281607619
 51
12.1171864101
  0
LINE
  5
1FE
330
1F
100
AcDbEntity
  8
0
  6
Continuous
 62
     7
370
    25
100
AcDbLine
 10
6213.8324454777
 20
5150.7124861501
 30
0.0
 11
6213.8823016356
 21
5150.4802678226
 31
0.0
  0
ARC
  5
1FF
330
1F
100
AcDbEntity
  8
0
  6
Continuous
 62
     7
370
    25
100
AcDbCircle
 10
6214.3213056356
 20
5150.8174420745
 30
0.0
 40
0.5000000000012343
100
AcDbArc
 50
92.928160762
 51
192.1171864101
  0
LINE
  5
200
330
1F
100
AcDbEntity
  8
0
  6
Continuous
 62
     7
370
    25
100
AcDbLine
 10
6214.5329636089
 20
5151.3289221722
 30
0.0
 11
6214.2957637343
 21
5151.3167892596
 31
0.0
  0
ARC
  5
201
330
1F
100
AcDbEntity
  8
0
  6
Continuous
 62
     7
370
    25
100
AcDbCircle
 10
6214.5017482095
 20
5151.9391869151
 30
0.0
 40
0.611062564387573
100
AcDbArc
 50
272.9281607619
 51
72.11718641
  0
LINE
  5
202
330
1F
100
AcDbEntity
  8
0
  6
Continuous
 62
     7
370
    25
100
AcDbLine
 10
6214.4633528529
 20
5152.5936594067
 30
0.0
 11
6214.6893879026
 21
5152.5207269423
 31
0.0
  0
ARC
  5
203
330
1F
100
AcDbEntity
  8
0
  6
Continuous
 62
     7
370
    25
100
AcDbCircle
 10
6214.616888435
 20
5153.0695026845
 30
0.0
 40
0.5000000000020729
100
AcDbArc
 50
152.9281607621
 51
252.1171864099
  0
LINE
  5
204
330
1F
100
AcDbEntity
  8
0
  6
Continuous
 62
     7
370
    25
100
AcDbLine
 10
6214.2797626635
 20
5153.5085439152
 30
0.0
 11
6214.1716701367
 21
5153.2970563417
 31
0.0
  0
ARC
  5
205
330
1F
100
AcDbEntity
  8
0
  6
Continuous
 62
     7
370
    25
100
AcDbCircle
 10
6213.7356501934
 20
5153.7866429578
 30
0.0
 40
0.6110625643868071
100
AcDbArc
 50
332.9281607617
 51
132.1171864102
  0
LINE
  5
206
330
1F
100
AcDbEntity
  8
0
  6
Continuous
 62
     7
370
    25
100
AcDbLine
 10
6213.1496627113
 20
5154.0806278494
 30
0.0
 11
6213.3258416031
 21
5154.2399137124
 31
0.0
  0
ARC
  5
207
330
1F
100
AcDbEntity
  8
0
  6
Continuous
 62
     7
370
    25
100
AcDbCircle
 10
6212.8143381355
 20
5154.4515152028
 30
0.0
 40
0.5000000000038304
100
AcDbArc
 50
212.9281607623
 51
312.1171864096
  0
LINE
  5
208
330
1F
100
AcDbEntity
  8
0
  6
Continuous
 62
     7
370
    25
100
AcDbLine
 10
6212.2655543907
 20
5154.3790763357
 30
0.0
 11
6212.3946617385
 21
5154.1797216749
 31
0.0
  0
ARC
  5
209
330
1F
100
AcDbEntity
  8
0
  6
Continuous
 62
     7
370
    25
100
AcDbCircle
 10
6211.75265732
 20
5154.0469106354
 30
0.0
 40
0.6110625643869699
100
AcDbArc
 50
32.9281607619
 51
192.1171864101
  0
LINE
  5
20A
330
1F
100
AcDbEntity
  8
0
  6
Continuous
 62
     7
370
    25
100
AcDbLine
 10
6211.2050651945
 20
5153.6864230354
 30
0.0
 11
6211.1552090366
 21
5153.9186413628
 31
0.0
  0
ARC
  5
20B
330
1F
100
AcDbEntity
  8
0
  6
Continuous
 62
     7
370
    25
100
AcDbCircle
 10
6210.7162050366
 20
5153.581467111
 30
0.0
 40
0.4999999999995735
100
AcDbArc
 50
272.9281607619
 51
12.1171864101
  0
LINE
  5
20C
330
1F
100
AcDbEntity
  8
0
  6
Continuous
 62
     7
370
    25
100
AcDbLine
 10
6210.5045470633
 20
5153.0699870132
 30
0.0
 11
6210.7417469379
 21
5153.0821199259
 31
0.0
  0
ARC
  5
20D
330
1F
100
AcDbEntity
  8
0
  6
Continuous
 62
     7
370
    25
100
AcDbCircle
 10
6210.5357624627
 20
5152.4597222703
 30
0.0
 40
0.6110625643867075
100
AcDbArc
 50
92.9281607619
 51
252.11718641
  0
LINE
  5
20E
330
1F
100
AcDbEntity
  8
0
  6
Continuous
 62
     7
370
    25
100
AcDbLine
 10
6210.5741578193
 20
5151.8052497787
 30
0.0
 11
6210.3481227696
 21
5151.8781822432
 31
0.0
  0
ARC
  5
20F
330
1F
100
AcDbEntity
  8
0
  6
Continuous
 62
     7
370
    25
100
AcDbCircle
 10
6210.4206222372
 20
5151.3294065009
 30
0.0
 40
0.500000000000363
100
AcDbArc
 50
332.9281607618
 51
72.11718641
  0
LINE
  5
210
330
1F
100
AcDbEntity
  8
0
  6
Continuous
 62
     7
370
    25
100
AcDbLine
 10
6210.7577480087
 20
5150.8903652702
 30
0.0
 11
6210.8658405355
 21
5151.1018528437
 31
0.0
  0
CIRCLE
  5
211
330
1F
100
AcDbEntity
  8
0
  6
Continuous
 62
     7
370
    25
100
AcDbCircle
 10
6335.5187553361
 20
5275.1994545927
 30
0.0
 40
0.750000000000941
  0
CIRCLE
  5
212
330
1F
100
AcDbEntity
  8
0
  6
Continuous
 62
     7
370
    25
100
AcDbCircle
 10
6335.5187553361
 20
5275.1994545927
 30
0.0
 40
4.499999999999703
  0
ARC
  5
213
330
1F
100
AcDbEntity
  8
0
  6
Continuous
 62
     7
370
    25
100
AcDbCircle
 10
6334.3018604788
 20
5273.6122662276
 30
0.0
 40
0.6110625643870367
100
AcDbArc
 50
152.9281607619
 51
312.11718641
  0
LINE
  5
214
330
1F
100
AcDbEntity
  8
0
  6
Continuous
 62
     7
370
    25
100
AcDbLine
 10
6334.8878479609
 20
5273.3182813361
 30
0.0
 11
6334.7116690691
 21
5273.1589954731
 31
0.0
  0
ARC
  5
215
330
1F
100
AcDbEntity
  8
0
  6
Continuous
 62
     7
370
    25
100
AcDbCircle
 10
6335.2231725367
 20
5272.9473939827
 30
0.0
 40
0.5000000000055214
100
AcDbArc
 50
32.9281607625
 51
132.1171864093
  0
LINE
  5
216
330
1F
100
AcDbEntity
  8
0
  6
Continuous
 62
     7
370
    25
100
AcDbLine
 10
6335.7719562815
 20
5273.0198328497
 30
0.0
 11
6335.6428489337
 21
5273.2191875106
 31
0.0
  0
ARC
  5
217
330
1F
100
AcDbEntity
  8
0
  6
Continuous
 62
     7
370
    25
100
AcDbCircle
 10
6336.2848533522
 20
5273.35199855
 30
0.0
 40
0.6110625643865396
100
AcDbArc
 50
212.9281607618
 51
12.1171864101
  0
LINE
  5
218
330
1F
100
AcDbEntity
  8
0
  6
Continuous
 62
     7
370
    25
100
AcDbLine
 10
6336.8324454777
 20
5273.7124861501
 30
0.0
 11
6336.8823016356
 21
5273.4802678226
 31
0.0
  0
ARC
  5
219
330
1F
100
AcDbEntity
  8
0
  6
Continuous
 62
     7
370
    25
100
AcDbCircle
 10
6337.3213056356
 20
5273.8174420745
 30
0.0
 40
0.4999999999994806
100
AcDbArc
 50
92.9281607617
 51
192.1171864101
  0
LINE
  5
21A
330
1F
100
AcDbEntity
  8
0
  6
Continuous
 62
     7
370
    25
100
AcDbLine
 10
6337.5329636089
 20
5274.3289221722
 30
0.0
 11
6337.2957637343
 21
5274.3167892596
 31
0.0
  0
ARC
  5
21B
330
1F
100
AcDbEntity
  8
0
  6
Continuous
 62
     7
370
    25
100
AcDbCircle
 10
6337.5017482095
 20
5274.9391869151
 30
0.0
 40
0.6110625643867075
100
AcDbArc
 50
272.9281607619
 51
72.11718641
  0
LINE
  5
21C
330
1F
100
AcDbEntity
  8
0
  6
Continuous
 62
     7
370
    25
100
AcDbLine
 10
6337.4633528529
 20
5275.5936594067
 30
0.0
 11
6337.6893879026
 21
5275.5207269423
 31
0.0
  0
ARC
  5
21D
330
1F
100
AcDbEntity
  8
0
  6
Continuous
 62
     7
370
    25
100
AcDbCircle
 10
6337.616888435
 20
5276.0695026845
 30
0.0
 40
0.4999999999946731
100
AcDbArc
 50
152.9281607611
 51
252.1171864108
  0
LINE
  5
21E
330
1F
100
AcDbEntity
  8
0
  6
Continuous
 62
     7
370
    25
100
AcDbLine
 10
6337.2797626635
 20
5276.5085439152
 30
0.0
 11
6337.1716701367
 21
5276.2970563417
 31
0.0
  0
ARC
  5
21F
330
1F
100
AcDbEntity
  8
0
  6
Continuous
 62
     7
370
    25
100
AcDbCircle
 10
6336.7356501934
 20
5276.7866429578
 30
0.0
 40
0.6110625643874326
100
AcDbArc
 50
332.928160762
 51
132.1171864099
  0
LINE
  5
220
330
1F
100
AcDbEntity
  8
0
  6
Continuous
 62
     7
370
    25
100
AcDbLine
 10
6336.1496627113
 20
5277.0806278494
 30
0.0
 11
6336.3258416031
 21
5277.2399137124
 31
0.0
  0
ARC
  5
221
330
1F
100
AcDbEntity
  8
0
  6
Continuous
 62
     7
370
    25
100
AcDbCircle
 10
6335.8143381355
 20
5277.4515152028
 30
0.0
 40
0.5000000000003084
100
AcDbArc
 50
212.9281607617
 51
312.11718641
  0
LINE
  5
222
330
1F
100
AcDbEntity
  8
0
  6
Continuous
 62
     7
370
    25
100
AcDbLine
 10
6335.2655543907
 20
5277.3790763357
 30
0.0
 11
6335.3946617385
 21
5277.1797216749
 31
0.0
  0
ARC
  5
223
330
1F
100
AcDbEntity
  8
0
  6
Continuous
 62
     7
370
    25
100
AcDbCircle
 10
6334.75265732
 20
5277.0469106354
 30
0.0
 40
0.611062564386779
100
AcDbArc
 50
32.9281607619
 51
192.1171864101
  0
LINE
  5
224
330
1F
100
AcDbEntity
  8
0
  6
Continuous
 62
     7
370
    25
100
AcDbLine
 10
6334.2050651945
 20
5276.6864230354
 30
0.0
 11
6334.1552090366
 21
5276.9186413628
 31
0.0
  0
ARC
  5
225
330
1F
100
AcDbEntity
  8
0
  6
Continuous
 62
     7
370
    25
100
AcDbCircle
 10
6333.7162050366
 20
5276.581467111
 30
0.0
 40
0.5000000000019327
100
AcDbArc
 50
272.9281607621
 51
12.1171864099
  0
LINE
  5
226
330
1F
100
AcDbEntity
  8
0
  6
Continuous
 62
     7
370
    25
100
AcDbLine
 10
6333.5045470633
 20
5276.0699870132
 30
0.0
 11
6333.7417469379
 21
5276.0821199259
 31
0.0
  0
ARC
  5
227
330
1F
100
AcDbEntity
  8
0
  6
Continuous
 62
     7
370
    25
100
AcDbCircle
 10
6333.5357624627
 20
5275.4597222703
 30
0.0
 40
0.611062564387573
100
AcDbArc
 50
92.9281607619
 51
252.11718641
  0
LINE
  5
228
330
1F
100
AcDbEntity
  8
0
  6
Continuous
 62
     7
370
    25
100
AcDbLine
 10
6333.5741578193
 20
5274.8052497787
 30
0.0
 11
6333.3481227696
 21
5274.8781822432
 31
0.0
  0
ARC
  5
229
330
1F
100
AcDbEntity
  8
0
  6
Continuous
 62
     7
370
    25
100
AcDbCircle
 10
6333.4206222372
 20
5274.3294065009
 30
0.0
 40
0.4999999999983591
100
AcDbArc
 50
332.9281607616
 51
72.1171864102
  0
LINE
  5
22A
330
1F
100
AcDbEntity
  8
0
  6
Continuous
 62
     7
370
    25
100
AcDbLine
 10
6333.7577480087
 20
5273.8903652702
 30
0.0
 11
6333.8658405355
 21
5274.1018528437
 31
0.0
  0
CIRCLE
  5
22B
330
1F
100
AcDbEntity
  8
0
  6
Continuous
 62
     7
370
    25
100
AcDbCircle
 10
6335.5187553361
 20
5152.1994545927
 30
0.0
 40
0.7499999999997748
  0
CIRCLE
  5
22C
330
1F
100
AcDbEntity
  8
0
  6
Continuous
 62
     7
370
    25
100
AcDbCircle
 10
6335.5187553361
 20
5152.1994545927
 30
0.0
 40
4.500000000000062
  0
ARC
  5
22D
330
1F
100
AcDbEntity
  8
0
  6
Continuous
 62
     7
370
    25
100
AcDbCircle
 10
6333.5528658594
 20
5151.831652247
 30
0.0
 40
0.6110625643867555
100
AcDbArc
 50
111.0025623041
 51
270.1915879523
  0
LINE
  5
22E
330
1F
100
AcDbEntity
  8
0
  6
Continuous
 62
     7
370
    25
100
AcDbLine
 10
6333.7924177983
 20
5151.2213872929
 30
0.0
 11
6333.5549091514
 21
5151.2205930988
 31
0.0
  0
ARC
  5
22F
330
1F
100
AcDbEntity
  8
0
  6
Continuous
 62
     7
370
    25
100
AcDbCircle
 10
6333.7940897154
 20
5150.7213900882
 30
0.0
 40
0.5000000000019733
100
AcDbArc
 50
351.0025623045
 51
90.1915879522
  0
LINE
  5
230
330
1F
100
AcDbEntity
  8
0
  6
Continuous
 62
     7
370
    25
100
AcDbLine
 10
6334.2507931282
 20
5150.4086074466
 30
0.0
 11
6334.2879373832
 21
5150.6431949408
 31
0.0
  0
ARC
  5
231
330
1F
100
AcDbEntity
  8
0
  6
Continuous
 62
     7
370
    25
100
AcDbCircle
 10
6334.8543367727
 20
5150.313043192
 30
0.0
 40
0.611062564387307
100
AcDbArc
 50
171.0025623041
 51
330.1915879524
  0
LINE
  5
232
330
1F
100
AcDbEntity
  8
0
  6
Continuous
 62
     7
370
    25
100
AcDbLine
 10
6335.5026176955
 20
5150.2153687795
 30
0.0
 11
6335.3845511642
 21
5150.0092831607
 31
0.0
  0
ARC
  5
233
330
1F
100
AcDbEntity
  8
0
  6
Continuous
 62
     7
370
    25
100
AcDbCircle
 10
6335.9364639351
 20
5149.9668180999
 30
0.0
 40
0.4999999999984576
100
AcDbArc
 50
51.002562304
 51
150.1915879526
  0
LINE
  5
234
330
1F
100
AcDbEntity
  8
0
  6
Continuous
 62
     7
370
    25
100
AcDbLine
 10
6336.435693355
 20
5150.2059435366
 30
0.0
 11
6336.2511067531
 21
5150.3554051521
 31
0.0
  0
ARC
  5
235
330
1F
100
AcDbEntity
  8
0
  6
Continuous
 62
     7
370
    25
100
AcDbCircle
 10
6336.8202262494
 20
5150.6808455377
 30
0.0
 40
0.6110625643858609
100
AcDbArc
 50
231.002562304
 51
30.1915879524
  0
LINE
  5
236
330
1F
100
AcDbEntity
  8
0
  6
Continuous
 62
     7
370
    25
100
AcDbLine
 10
6337.2289552333
 20
5151.1934360794
 30
0.0
 11
6337.3483973489
 21
5150.9881446546
 31
0.0
  0
ARC
  5
237
330
1F
100
AcDbEntity
  8
0
  6
Continuous
 62
     7
370
    25
100
AcDbCircle
 10
6337.6611295558
 20
5151.4448826045
 30
0.0
 40
0.5000000000090689
100
AcDbArc
 50
111.0025623051
 51
210.1915879512
  0
LINE
  5
238
330
1F
100
AcDbEntity
  8
0
  6
Continuous
 62
     7
370
    25
100
AcDbLine
 10
6337.7036555629
 20
5151.9967906827
 30
0.0
 11
6337.481924706
 21
5151.911664804
 31
0.0
  0
ARC
  5
239
330
1F
100
AcDbEntity
  8
0
  6
Continuous
 62
     7
370
    25
100
AcDbCircle
 10
6337.4846448128
 20
5152.5672569384
 30
0.0
 40
0.6110625643867555
100
AcDbArc
 50
291.0025623041
 51
90.1915879523
  0
LINE
  5
23A
330
1F
100
AcDbEntity
  8
0
  6
Continuous
 62
     7
370
    25
100
AcDbLine
 10
6337.2450928739
 20
5153.1775218926
 30
0.0
 11
6337.4826015208
 21
5153.1783160866
 31
0.0
  0
ARC
  5
23B
330
1F
100
AcDbEntity
  8
0
  6
Continuous
 62
     7
370
    25
100
AcDbCircle
 10
6337.2434209568
 20
5153.6775190973
 30
0.0
 40
0.4999999999947586
100
AcDbArc
 50
171.0025623034
 51
270.1915879528
  0
LINE
  5
23C
330
1F
100
AcDbEntity
  8
0
  6
Continuous
 62
     7
370
    25
100
AcDbLine
 10
6336.786717544
 20
5153.9903017388
 30
0.0
 11
6336.749573289
 21
5153.7557142447
 31
0.0
  0
ARC
  5
23D
330
1F
100
AcDbEntity
  8
0
  6
Continuous
 62
     7
370
    25
100
AcDbCircle
 10
6336.1831738995
 20
5154.0858659934
 30
0.0
 40
0.6110625643868549
100
AcDbArc
 50
351.002562304
 51
150.1915879525
  0
LINE
  5
23E
330
1F
100
AcDbEntity
  8
0
  6
Continuous
 62
     7
370
    25
100
AcDbLine
 10
6335.5348929767
 20
5154.1835404059
 30
0.0
 11
6335.652959508
 21
5154.3896260247
 31
0.0
  0
ARC
  5
23F
330
1F
100
AcDbEntity
  8
0
  6
Continuous
 62
     7
370
    25
100
AcDbCircle
 10
6335.1010467371
 20
5154.4320910855
 30
0.0
 40
0.5000000000025209
100
AcDbArc
 50
231.0025623044
 51
330.1915879523
  0
LINE
  5
240
330
1F
100
AcDbEntity
  8
0
  6
Continuous
 62
     7
370
    25
100
AcDbLine
 10
6334.6018173172
 20
5154.1929656488
 30
0.0
 11
6334.7864039191
 21
5154.0435040334
 31
0.0
  0
ARC
  5
241
330
1F
100
AcDbEntity
  8
0
  6
Continuous
 62
     7
370
    25
100
AcDbCircle
 10
6334.2172844228
 20
5153.7180636477
 30
0.0
 40
0.6110625643859954
100
AcDbArc
 50
51.0025623041
 51
210.1915879524
  0
LINE
  5
242
330
1F
100
AcDbEntity
  8
0
  6
Continuous
 62
     7
370
    25
100
AcDbLine
 10
6333.8085554389
 20
5153.2054731061
 30
0.0
 11
6333.6891133233
 21
5153.4107645308
 31
0.0
  0
ARC
  5
243
330
1F
100
AcDbEntity
  8
0
  6
Continuous
 62
     7
370
    25
100
AcDbCircle
 10
6333.3763811164
 20
5152.954026581
 30
0.0
 40
0.4999999999994108
100
AcDbArc
 50
291.002562304
 51
30.1915879525
  0
LINE
  5
244
330
1F
100
AcDbEntity
  8
0
  6
Continuous
 62
     7
370
    25
100
AcDbLine
 10
6333.3338551093
 20
5152.4021185027
 30
0.0
 11
6333.5555859662
 21
5152.4872443814
 31
0.0
  0
CIRCLE
  5
245
330
1F
100
AcDbEntity
  8
0
  6
Continuous
 62
     7
370
    25
100
AcDbCircle
 10
6274.0187553361
 20
5198.6994545927
 30
0.0
 40
12.5
  0
LINE
  5
246
330
1F
100
AcDbEntity
  8
0
  6
Continuous
 62
     7
370
    25
100
AcDbLine
 10
6273.6288291007
 20
5203.8958484057
 30
0.0
 11
6273.6288291007
 21
5207.4415680502
 31
0.0
  0
ARC
  5
247
330
1F
100
AcDbEntity
  8
0
  6
Continuous
 62
     7
370
    25
100
AcDbCircle
 10
6272.0117862055
 20
5207.4415680502
 30
0.0
 40
1.617042895244595
100
AcDbArc
 50
0.0
 51
180.0
  0
LINE
  5
248
330
1F
100
AcDbEntity
  8
0
  6
Continuous
 62
     7
370
    25
100
AcDbLine
 10
6270.3947433102
 20
5207.4415680502
 30
0.0
 11
6270.3947433102
 21
5199.9031164646
 31
0.0
  0
ARC
  5
249
330
1F
100
AcDbEntity
  8
0
  6
Continuous
 62
     7
370
    25
100
AcDbCircle
 10
6268.549693047
 20
5198.1154876625
 30
0.0
 40
2.569012885871197
100
AcDbArc
 50
44.0944057145
 51
105.4941474424
  0
LINE
  5
24A
330
1F
100
AcDbEntity
  8
0
  6
Continuous
 62
     7
370
    25
100
AcDbLine
 10
6267.8634070904
 20
5200.5911368285
 30
0.0
 11
6267.8634070904
 21
5195.1700222631
 31
0.0
  0
ARC
  5
24B
330
1F
100
AcDbEntity
  8
0
  6
Continuous
 62
     7
370
    25
100
AcDbCircle
 10
6274.1859374181
 20
5195.1700222631
 30
0.0
 40
6.322530327733148
100
AcDbArc
 50
180.0
 51
270.0
  0
LINE
  5
24C
330
1F
100
AcDbEntity
  8
0
  6
Continuous
 62
     7
370
    25
100
AcDbLine
 10
6274.1859374181
 20
5188.8474919354
 30
0.0
 11
6276.5531618251
 21
5188.8474919354
 31
0.0
  0
ARC
  5
24D
330
1F
100
AcDbEntity
  8
0
  6
Continuous
 62
     7
370
    25
100
AcDbCircle
 10
6276.5531618251
 20
5193.403092486
 30
0.0
 40
4.555600550637791
100
AcDbArc
 50
270.0
 51
0.0
  0
LINE
  5
24E
330
1F
100
AcDbEntity
  8
0
  6
Continuous
 62
     7
370
    25
100
AcDbLine
 10
6281.1087623757
 20
5193.403092486
 30
0.0
 11
6281.1087623757
 21
5201.2398630143
 31
0.0
  0
ARC
  5
24F
330
1F
100
AcDbEntity
  8
0
  6
Continuous
 62
     7
370
    25
100
AcDbCircle
 10
6279.7551511295
 20
5201.2398630143
 30
0.0
 40
1.353611246209766
100
AcDbArc
 50
0.0
 51
90.0
  0
LINE
  5
250
330
1F
100
AcDbEntity
  8
0
  6
Continuous
 62
     7
370
    25
100
AcDbLine
 10
6279.7551511295
 20
5202.5934742605
 30
0.0
 11
6279.2609256648
 21
5202.5934742605
 31
0.0
  0
ARC
  5
251
330
1F
100
AcDbEntity
  8
0
  6
Continuous
 62
     7
370
    25
100
AcDbCircle
 10
6279.2609256648
 20
5201.2398630143
 30
0.0
 40
1.353611246209766
100
AcDbArc
 50
90.0
 51
118.7365577357
  0
ARC
  5
252
330
1F
100
AcDbEntity
  8
0
  6
Continuous
 62
     7
370
    25
100
AcDbCircle
 10
6277.2776657951
 20
5202.1884429377
 30
0.0
 40
1.353611246208338
100
AcDbArc
 50
10.1404867648
 51
90.0000000001
  0
LINE
  5
253
330
1F
100
AcDbEntity
  8
0
  6
Continuous
 62
     7
370
    25
100
AcDbLine
 10
6277.2776657951
 20
5203.542054184
 30
0.0
 11
6276.698348513
 21
5203.542054184
 31
0.0
  0
ARC
  5
254
330
1F
100
AcDbEntity
  8
0
  6
Continuous
 62
     7
370
    25
100
AcDbCircle
 10
6276.698348513
 20
5202.1884429377
 30
0.0
 40
1.353611246207947
100
AcDbArc
 50
90.0
 51
124.7440022271
  0
ARC
  5
255
330
1F
100
AcDbEntity
  8
0
  6
Continuous
 62
     7
370
    25
100
AcDbCircle
 10
6274.7150886433
 20
5202.6975971729
 30
0.0
 40
1.353611246207947
100
AcDbArc
 50
26.4592691592
 51
90.0
  0
LINE
  5
256
330
1F
100
AcDbEntity
  8
0
  6
Continuous
 62
     7
370
    25
100
AcDbLine
 10
6274.7150886433
 20
5204.0512084191
 30
0.0
 11
6274.2584777242
 21
5204.0512084191
 31
0.0
  0
ARC
  5
257
330
1F
100
AcDbEntity
  8
0
  6
Continuous
 62
     7
370
    25
100
AcDbCircle
 10
6274.2584777242
 20
5202.6975971729
 30
0.0
 40
1.353611246208857
100
AcDbArc
 50
90.0
 51
117.7207121261
  0
ARC
  5
258
330
1F
100
AcDbEntity
  8
0
  6
Continuous
 62
     7
370
    25
100
AcDbCircle
 10
6273.2668477894
 20
5199.7707277761
 30
0.0
 40
0.6676186886570576
100
AcDbArc
 50
180.0
 51
0.0
  0
LINE
  5
259
330
1F
100
AcDbEntity
  8
0
  6
Continuous
 62
     7
370
    25
100
AcDbLine
 10
6273.934466478
 20
5202.7117593107
 30
0.0
 11
6273.934466478
 21
5199.7707277761
 31
0.0
  0
ARC
  5
25A
330
1F
100
AcDbEntity
  8
0
  6
Continuous
 62
     7
370
    25
100
AcDbCircle
 10
6274.1745765943
 20
5202.7117593107
 30
0.0
 40
0.2401101162877239
100
AcDbArc
 50
90.0
 51
180.0
  0
LINE
  5
25B
330
1F
100
AcDbEntity
  8
0
  6
Continuous
 62
     7
370
    25
100
AcDbLine
 10
6274.7989897732
 20
5202.951869427
 30
0.0
 11
6274.1745765943
 21
5202.951869427
 31
0.0
  0
ARC
  5
25C
330
1F
100
AcDbEntity
  8
0
  6
Continuous
 62
     7
370
    25
100
AcDbCircle
 10
6274.7989897732
 20
5202.7117593107
 30
0.0
 40
0.2401101162877239
100
AcDbArc
 50
0.0
 51
90.0
  0
LINE
  5
25D
330
1F
100
AcDbEntity
  8
0
  6
Continuous
 62
     7
370
    25
100
AcDbLine
 10
6275.0390998895
 20
5199.7707277761
 30
0.0
 11
6275.0390998895
 21
5202.7117593107
 31
0.0
  0
ARC
  5
25E
330
1F
100
AcDbEntity
  8
0
  6
Continuous
 62
     7
370
    25
100
AcDbCircle
 10
6275.7067185782
 20
5199.7707277761
 30
0.0
 40
0.6676186886570576
100
AcDbArc
 50
180.0
 51
0.0
  0
LINE
  5
25F
330
1F
100
AcDbEntity
  8
0
  6
Continuous
 62
     7
370
    25
100
AcDbLine
 10
6276.3743372668
 20
5202.2026050755
 30
0.0
 11
6276.3743372668
 21
5199.7707277761
 31
0.0
  0
ARC
  5
260
330
1F
100
AcDbEntity
  8
0
  6
Continuous
 62
     7
370
    25
100
AcDbCircle
 10
6276.6144473831
 20
5202.2026050755
 30
0.0
 40
0.2401101162877239
100
AcDbArc
 50
90.0
 51
180.0
  0
LINE
  5
261
330
1F
100
AcDbEntity
  8
0
  6
Continuous
 62
     7
370
    25
100
AcDbLine
 10
6277.361566925
 20
5202.4427151918
 30
0.0
 11
6276.6144473831
 21
5202.4427151918
 31
0.0
  0
ARC
  5
262
330
1F
100
AcDbEntity
  8
0
  6
Continuous
 62
     7
370
    25
100
AcDbCircle
 10
6277.361566925
 20
5202.2026050755
 30
0.0
 40
0.2401101162877239
100
AcDbArc
 50
0.0
 51
90.0
  0
LINE
  5
263
330
1F
100
AcDbEntity
  8
0
  6
Continuous
 62
     7
370
    25
100
AcDbLine
 10
6277.6016770413
 20
5199.7707277761
 30
0.0
 11
6277.6016770413
 21
5202.2026050755
 31
0.0
  0
ARC
  5
264
330
1F
100
AcDbEntity
  8
0
  6
Continuous
 62
     7
370
    25
100
AcDbCircle
 10
6278.2692957299
 20
5199.7707277761
 30
0.0
 40
0.6676186886570576
100
AcDbArc
 50
180.0
 51
0.0
  0
LINE
  5
265
330
1F
100
AcDbEntity
  8
0
  6
Continuous
 62
     7
370
    25
100
AcDbLine
 10
6278.9369144186
 20
5201.2862547668
 30
0.0
 11
6278.9369144186
 21
5199.7707277761
 31
0.0
  0
ARC
  5
266
330
1F
100
AcDbEntity
  8
0
  6
Continuous
 62
     7
370
    25
100
AcDbCircle
 10
6279.1770245349
 20
5201.2862547668
 30
0.0
 40
0.2401101162877239
100
AcDbArc
 50
90.0
 51
180.0
  0
LINE
  5
267
330
1F
100
AcDbEntity
  8
0
  6
Continuous
 62
     7
370
    25
100
AcDbLine
 10
6279.8390522594
 20
5201.5263648831
 30
0.0
 11
6279.1770245349
 21
5201.5263648831
 31
0.0
  0
ARC
  5
268
330
1F
100
AcDbEntity
  8
0
  6
Continuous
 62
     7
370
    25
100
AcDbCircle
 10
6279.8390522594
 20
5201.2862547668
 30
0.0
 40
0.2401101162877239
100
AcDbArc
 50
0.0
 51
90.0
  0
LINE
  5
269
330
1F
100
AcDbEntity
  8
0
  6
Continuous
 62
     7
370
    25
100
AcDbLine
 10
6280.0791623757
 20
5193.403092486
 30
0.0
 11
6280.0791623757
 21
5201.2862547668
 31
0.0
  0
ARC
  5
26A
330
1F
100
AcDbEntity
  8
0
  6
Continuous
 62
     7
370
    25
100
AcDbCircle
 10
6276.5531618251
 20
5193.403092486
 30
0.0
 40
3.526000550637946
100
AcDbArc
 50
270.0
 51
0.0
  0
LINE
  5
26B
330
1F
100
AcDbEntity
  8
0
  6
Continuous
 62
     7
370
    25
100
AcDbLine
 10
6274.1859374181
 20
5189.8770919354
 30
0.0
 11
6276.5531618251
 21
5189.8770919354
 31
0.0
  0
ARC
  5
26C
330
1F
100
AcDbEntity
  8
0
  6
Continuous
 62
     7
370
    25
100
AcDbCircle
 10
6274.1859374181
 20
5195.1700222631
 30
0.0
 40
5.292930327733302
100
AcDbArc
 50
180.0
 51
270.0
  0
LINE
  5
26D
330
1F
100
AcDbEntity
  8
0
  6
Continuous
 62
     7
370
    25
100
AcDbLine
 10
6268.8930070904
 20
5199.6161300252
 30
0.0
 11
6268.8930070904
 21
5195.1700222631
 31
0.0
  0
ARC
  5
26E
330
1F
100
AcDbEntity
  8
0
  6
Continuous
 62
     7
370
    25
100
AcDbCircle
 10
6268.549693047
 20
5198.1154876625
 30
0.0
 40
1.53941288587157
100
AcDbArc
 50
0.0
 51
77.1137478469
  0
LINE
  5
26F
330
1F
100
AcDbEntity
  8
0
  6
Continuous
 62
     7
370
    25
100
AcDbLine
 10
6270.0891059329
 20
5196.1610667804
 30
0.0
 11
6270.0891059329
 21
5198.1154876625
 31
0.0
  0
ARC
  5
270
330
1F
100
AcDbEntity
  8
0
  6
Continuous
 62
     7
370
    25
100
AcDbCircle
 10
6270.7567246216
 20
5196.1610667804
 30
0.0
 40
0.6676186886570576
100
AcDbArc
 50
180.0
 51
0.0
  0
LINE
  5
271
330
1F
100
AcDbEntity
  8
0
  6
Continuous
 62
     7
370
    25
100
AcDbLine
 10
6271.4243433102
 20
5207.4415680502
 30
0.0
 11
6271.4243433102
 21
5196.1610667804
 31
0.0
  0
ARC
  5
272
330
1F
100
AcDbEntity
  8
0
  6
Continuous
 62
     7
370
    25
100
AcDbCircle
 10
6272.0117862055
 20
5207.4415680502
 30
0.0
 40
0.5874428952447488
100
AcDbArc
 50
0.0
 51
180.0
  0
LINE
  5
273
330
1F
100
AcDbEntity
  8
0
  6
Continuous
 62
     7
370
    25
100
AcDbLine
 10
6272.5992291007
 20
5199.7707277761
 30
0.0
 11
6272.5992291007
 21
5207.4415680502
 31
0.0
  0
CIRCLE
  5
274
330
1F
100
AcDbEntity
  8
0
  6
Continuous
 62
     7
370
    25
100
AcDbCircle
 10
6274.0187553361
 20
5198.6994545927
 30
0.0
 40
14.0
  0
ARC
  5
275
330
1F
100
AcDbEntity
  8
0
  6
Continuous
 62
     7
370
    25
100
AcDbCircle
 10
6196.0187553361
 20
5296.6994545927
 30
0.0
 40
1.000000000000909
100
AcDbArc
 50
90.0
 51
180.0
  0
LINE
  5
276
330
1F
100
AcDbEntity
  8
0
  6
Continuous
 62
     7
370
    25
100
AcDbLine
 10
6195.0187553361
 20
5296.6994545927
 30
0.0
 11
6194.0187553361
 21
5296.6994545927
 31
0.0
  0
ARC
  5
277
330
1F
100
AcDbEntity
  8
0
  6
Continuous
 62
     7
370
    25
100
AcDbCircle
 10
6196.0187553361
 20
5296.6994545927
 30
0.0
 40
2.0
100
AcDbArc
 50
90.0
 51
180.0
  0
LINE
  5
278
330
1F
100
AcDbEntity
  8
0
  6
Continuous
 62
     7
370
    25
100
AcDbLine
 10
6196.0187553361
 20
5297.6994545927
 30
0.0
 11
6196.0187553361
 21
5298.6994545927
 31
0.0
  0
LINE
  5
279
330
1F
100
AcDbEntity
  8
0
  6
Continuous
 62
     7
370
    25
100
AcDbLine
 10
6352.0187553361
 20
5297.6994545927
 30
0.0
 11
6196.0187553361
 21
5297.6994545927
 31
0.0
  0
LINE
  5
27A
330
1F
100
AcDbEntity
  8
0
  6
Continuous
 62
     7
370
    25
100
AcDbLine
 10
6196.0187553361
 20
5298.6994545927
 30
0.0
 11
6352.0187553361
 21
5298.6994545927
 31
0.0
  0
LINE
  5
27B
330
1F
100
AcDbEntity
  8
0
  6
Continuous
 62
     7
370
    25
100
AcDbLine
 10
6352.0187553361
 20
5297.6994545927
 30
0.0
 11
6352.0187553361
 21
5298.6994545927
 31
0.0
  0
CIRCLE
  5
27C
330
1F
100
AcDbEntity
  8
0
  6
Continuous
 62
     7
370
    25
100
AcDbCircle
 10
6335.5187553361
 20
5152.1994545927
 30
0.0
 40
5.000000000000909
  0
CIRCLE
  5
27D
330
1F
100
AcDbEntity
  8
0
  6
Continuous
 62
     7
370
    25
100
AcDbCircle
 10
6212.5187553361
 20
5275.1994545927
 30
0.0
 40
5.0
  0
CIRCLE
  5
27E
330
1F
100
AcDbEntity
  8
0
  6
Continuous
 62
     7
370
    25
100
AcDbCircle
 10
6212.5187553361
 20
5152.1994545927
 30
0.0
 40
5.0
  0
CIRCLE
  5
27F
330
1F
100
AcDbEntity
  8
0
  6
Continuous
 62
     7
370
    25
100
AcDbCircle
 10
6335.5187553361
 20
5275.1994545927
 30
0.0
 40
5.0
  0
ARC
  5
280
330
1F
100
AcDbEntity
  8
0
  6
Continuous
 62
     7
370
    25
100
AcDbCircle
 10
6352.0187553361
 20
5296.6994545927
 30
0.0
 40
1.0
100
AcDbArc
 50
0.0
 51
90.0
  0
LINE
  5
281
330
1F
100
AcDbEntity
  8
0
  6
Continuous
 62
     7
370
    25
100
AcDbLine
 10
6353.0187553361
 20
5130.6994545927
 30
0.0
 11
6353.0187553361
 21
5296.6994545927
 31
0.0
  0
ARC
  5
282
330
1F
100
AcDbEntity
  8
0
  6
Continuous
 62
     7
370
    25
100
AcDbCircle
 10
6352.0187553361
 20
5130.6994545927
 30
0.0
 40
1.000000000000909
100
AcDbArc
 50
270.0
 51
0.0
  0
LINE
  5
283
330
1F
100
AcDbEntity
  8
0
  6
Continuous
 62
     7
370
    25
100
AcDbLine
 10
6196.0187553361
 20
5129.6994545927
 30
0.0
 11
6352.0187553361
 21
5129.6994545927
 31
0.0
  0
ARC
  5
284
330
1F
100
AcDbEntity
  8
0
  6
Continuous
 62
     7
370
    25
100
AcDbCircle
 10
6196.0187553361
 20
5130.6994545927
 30
0.0
 40
1.0
100
AcDbArc
 50
180.0
 51
270.0
  0
LINE
  5
285
330
1F
100
AcDbEntity
  8
0
  6
Continuous
 62
     7
370
    25
100
AcDbLine
 10
6195.0187553361
 20
5296.6994545927
 30
0.0
 11
6195.0187553361
 21
5130.6994545927
 31
0.0
  0
LINE
  5
286
330
1F
100
AcDbEntity
  8
0
  6
Continuous
 62
     7
370
    25
100
AcDbLine
 10
6195.0187553361
 20
5130.6994545927
 30
0.0
 11
6194.0187553361
 21
5130.6994545927
 31
0.0
  0
LINE
  5
287
330
1F
100
AcDbEntity
  8
0
  6
Continuous
 62
     7
370
    25
100
AcDbLine
 10
6194.0187553361
 20
5130.6994545927
 30
0.0
 11
6194.0187553361
 21
5296.6994545927
 31
0.0
  0
ARC
  5
288
330
1F
100
AcDbEntity
  8
0
  6
Continuous
 62
     7
370
    25
100
AcDbCircle
 10
6352.0187553361
 20
5296.6994545927
 30
0.0
 40
2.0
100
AcDbArc
 50
0.0
 51
90.0
  0
LINE
  5
289
330
1F
100
AcDbEntity
  8
0
  6
Continuous
 62
     7
370
    25
100
AcDbLine
 10
6354.0187553361
 20
5296.6994545927
 30
0.0
 11
6353.0187553361
 21
5296.6994545927
 31
0.0
  0
LINE
  5
28A
330
1F
100
AcDbEntity
  8
0
  6
Continuous
 62
     7
370
    25
100
AcDbLine
 10
6354.0187553361
 20
5296.6994545927
 30
0.0
 11
6354.0187553361
 21
5130.6994545927
 31
0.0
  0
LINE
  5
28B
330
1F
100
AcDbEntity
  8
0
  6
Continuous
 62
     7
370
    25
100
AcDbLine
 10
6354.0187553361
 20
5130.6994545927
 30
0.0
 11
6353.0187553361
 21
5130.6994545927
 31
0.0
  0
LINE
  5
28C
330
1F
100
AcDbEntity
  8
0
  6
Continuous
 62
     7
370
    25
100
AcDbLine
 10
6352.0187553361
 20
5128.6994545927
 30
0.0
 11
6196.0187553361
 21
5128.6994545927
 31
0.0
  0
LINE
  5
28D
330
1F
100
AcDbEntity
  8
0
  6
Continuous
 62
     7
370
    25
100
AcDbLine
 10
6196.0187553361
 20
5128.6994545927
 30
0.0
 11
6196.0187553361
 21
5129.6994545927
 31
0.0
  0
LINE
  5
28E
330
1F
100
AcDbEntity
  8
0
  6
Continuous
 62
     7
370
    25
100
AcDbLine
 10
6352.0187553361
 20
5128.6994545927
 30
0.0
 11
6352.0187553361
 21
5129.6994545927
 31
0.0
  0
ARC
  5
28F
330
1F
100
AcDbEntity
  8
0
  6
Continuous
 62
     7
370
    25
100
AcDbCircle
 10
6196.0187553361
 20
5130.6994545927
 30
0.0
 40
2.0
100
AcDbArc
 50
180.0
 51
270.0
  0
ARC
  5
290
330
1F
100
AcDbEntity
  8
0
  6
Continuous
 62
     7
370
    25
100
AcDbCircle
 10
6352.0187553361
 20
5130.6994545927
 30
0.0
 40
2.0
100
AcDbArc
 50
270.0
 51
0.0
  0
LINE
  5
291
330
1F
100
AcDbEntity
  8
0
  6
Continuous
 62
     7
370
    25
100
AcDbLine
 10
6487.8327805259
 20
5290.1994545927
 30
0.0
 11
6487.8327805259
 21
5291.0994545927
 31
0.0
  0
LINE
  5
292
330
1F
100
AcDbEntity
  8
0
  6
Continuous
 62
     7
370
    25
100
AcDbLine
 10
6474.6327805259
 20
5291.0994545927
 30
0.0
 11
6474.6327805259
 21
5290.1994545927
 31
0.0
  0
ARC
  5
293
330
1F
100
AcDbEntity
  8
0
  6
Continuous
 62
     7
370
    25
100
AcDbCircle
 10
6487.0327805259
 20
5291.0994545927
 30
0.0
 40
0.8000000000001819
100
AcDbArc
 50
0.0
 51
90.0
  0
ARC
  5
294
330
1F
100
AcDbEntity
  8
0
  6
Continuous
 62
     7
370
    25
100
AcDbCircle
 10
6475.4327805259
 20
5291.0994545927
 30
0.0
 40
0.8000000000001819
100
AcDbArc
 50
90.0
 51
180.0
  0
LINE
  5
295
330
1F
100
AcDbEntity
  8
0
  6
Continuous
 62
     7
370
    25
100
AcDbLine
 10
6485.9827805259
 20
5289.1894545927
 30
0.0
 11
6485.9827805259
 21
5289.1994545927
 31
0.0
  0
LINE
  5
296
330
1F
100
AcDbEntity
  8
0
  6
Continuous
 62
     7
370
    25
100
AcDbLine
 10
6476.4827805259
 20
5289.1994545927
 30
0.0
 11
6476.4827805259
 21
5289.1894545927
 31
0.0
  0
LWPOLYLINE
  5
297
330
1F
100
AcDbEntity
  8
0
  6
Continuous
 62
     7
370
    25
100
AcDbPolyline
 90
        3
 70
   128
 43
0.0
 10
6465.229887026
 20
5308.6957555689
 10
6465.316777825
 20
5308.6455572632
 10
6465.8784741768
 20
5308.3210344209
  0
LWPOLYLINE
  5
298
330
1F
100
AcDbEntity
  8
0
  6
Continuous
 62
     7
370
    25
100
AcDbPolyline
 90
        3
 70
   128
 43
0.0
 10
6465.2301706731
 20
5306.5789286801
 10
6465.3170239924
 20
5306.5287526774
 10
6465.8784744565
 20
5306.2043676772
  0
LWPOLYLINE
  5
299
330
1F
100
AcDbEntity
  8
0
  6
Continuous
 62
     7
370
    25
100
AcDbPolyline
 90
        3
 70
   128
 43
0.0
 10
6465.2304730184
 20
5304.4620923164
 10
6465.3172728346
 20
5304.4119481087
 10
6465.8784747945
 20
5304.0877009305
  0
LWPOLYLINE
  5
29A
330
1F
100
AcDbEntity
  8
0
  6
Continuous
 62
     7
370
    25
100
AcDbPolyline
 90
        3
 70
   128
 43
0.0
 10
6496.5758478801
 20
5309.372874341
 10
6497.1487876342
 20
5309.7038930797
 10
6497.2356794868
 20
5309.7540919984
  0
LWPOLYLINE
  5
29B
330
1F
100
AcDbEntity
  8
0
  6
Continuous
 62
     7
370
    25
100
AcDbPolyline
 90
        3
 70
   128
 43
0.0
 10
6496.5758478801
 20
5307.2562076743
 10
6497.148541515
 20
5307.5870884937
 10
6497.2353958507
 20
5307.6372650921
  0
LWPOLYLINE
  5
29C
330
1F
100
AcDbEntity
  8
0
  6
Continuous
 62
     7
370
    25
100
AcDbPolyline
 90
        3
 70
   128
 43
0.0
 10
6496.5758478801
 20
5305.1395410076
 10
6497.1482927209
 20
5305.4702839246
 10
6497.2350935162
 20
5305.5204287107
  0
LWPOLYLINE
  5
29D
330
1F
100
AcDbEntity
  8
0
  6
Continuous
 62
     7
370
    25
100
AcDbPolyline
 90
        3
 70
   128
 43
0.0
 10
6496.5758478801
 20
5303.022874341
 10
6497.1480412523
 20
5303.3534793726
 10
6497.2347725884
 20
5303.4035829162
  0
LWPOLYLINE
  5
29E
330
1F
100
AcDbEntity
  8
0
  6
Continuous
 62
     7
370
    25
100
AcDbPolyline
 90
        3
 70
   128
 43
0.0
 10
6465.2256211956
 20
5310.814884379
 10
6465.3165343328
 20
5310.7623618659
 10
6465.8784739554
 20
5310.4377011617
  0
LWPOLYLINE
  5
29F
330
1F
100
AcDbEntity
  8
0
  6
Continuous
 62
     7
370
    25
100
AcDbPolyline
 90
        3
 70
   128
 43
0.0
 10
6465.8882555728
 20
5307.8103851494
 10
6465.3148299174
 20
5307.4790737198
 10
6465.1862002886
 20
5307.4047624471
  0
LWPOLYLINE
  5
2A0
330
1F
100
AcDbEntity
  8
0
  6
Continuous
 62
     7
370
    25
100
AcDbPolyline
 90
        3
 70
   128
 43
0.0
 10
6465.8882555728
 20
5305.6937184828
 10
6465.3146075426
 20
5305.3622666962
 10
6465.1865883217
 20
5305.2883107223
  0
LWPOLYLINE
  5
2A1
330
1F
100
AcDbEntity
  8
0
  6
Continuous
 62
     7
370
    25
100
AcDbPolyline
 90
        3
 70
   128
 43
0.0
 10
6465.8882555728
 20
5303.5770518161
 10
6465.3143878904
 20
5303.2454596836
 10
6465.1867568553
 20
5303.1717309616
  0
LWPOLYLINE
  5
2A2
330
1F
100
AcDbEntity
  8
0
  6
Continuous
 62
     7
370
    25
100
AcDbPolyline
 90
        3
 70
   128
 43
0.0
 10
6497.2793637228
 20
5308.4630941414
 10
6497.1507296986
 20
5308.5374079539
 10
6496.587086888
 20
5308.8630670779
  0
LWPOLYLINE
  5
2A3
330
1F
100
AcDbEntity
  8
0
  6
Continuous
 62
     7
370
    25
100
AcDbPolyline
 90
        3
 70
   128
 43
0.0
 10
6497.2789756939
 20
5306.346642422
 10
6497.1509520908
 20
5306.4206009302
 10
6496.5870865625
 20
5306.746400397
  0
LWPOLYLINE
  5
2A4
330
1F
100
AcDbEntity
  8
0
  6
Continuous
 62
     7
370
    25
100
AcDbPolyline
 90
        3
 70
   128
 43
0.0
 10
6497.2785597506
 20
5304.2302055906
 10
6497.1511717605
 20
5304.3037939176
 10
6496.5870861685
 20
5304.6297337292
  0
LWPOLYLINE
  5
2A5
330
1F
100
AcDbEntity
  8
0
  6
Continuous
 62
     7
370
    25
100
AcDbPolyline
 90
        3
 70
   128
 43
0.0
 10
6497.2785648897
 20
5302.1135242799
 10
6497.1513887077
 20
5302.1869869161
 10
6496.5870857058
 20
5302.5130670747
  0
LWPOLYLINE
  5
2A6
330
1F
100
AcDbEntity
  8
0
  6
Continuous
 62
     7
370
    25
100
AcDbPolyline
 90
        3
 70
   128
 43
0.0
 10
6497.2797235593
 20
5310.5795609154
 10
6497.1505045836
 20
5310.6542149886
 10
6496.587087145
 20
5310.9797337719
  0
LWPOLYLINE
  5
2A7
330
1F
100
AcDbEntity
  8
0
  6
Continuous
 62
     7
370
    25
100
AcDbPolyline
 90
        3
 70
   128
 43
0.0
 10
6465.8882555728
 20
5309.9270518161
 10
6465.3150550149
 20
5309.5958807545
 10
6465.1858404468
 20
5309.5212292259
  0
LINE
  5
2A8
330
1F
100
AcDbEntity
  8
0
  6
Continuous
 62
     7
370
    25
100
AcDbLine
 10
6496.6511724503
 20
5311.5810626683
 30
0.0
 11
6496.0327805259
 21
5312.1994545927
 31
0.0
  0
LINE
  5
2A9
330
1F
100
AcDbEntity
  8
0
  6
Continuous
 62
     7
370
    25
100
AcDbLine
 10
6466.4327805259
 20
5312.1994545927
 30
0.0
 11
6465.2037890709
 21
5310.9704631377
 31
0.0
  0
LWPOLYLINE
  5
2AA
330
1F
100
AcDbEntity
  8
0
  6
Continuous
 62
     7
370
    25
100
AcDbPolyline
 90
        3
 70
   128
 43
0.0
 10
6465.8784739554
 20
5308.3269859523
 10
6465.8784838015
 20
5308.0622633379
 10
6465.8784742129
 20
5307.804733717
  0
LWPOLYLINE
  5
2AB
330
1F
100
AcDbEntity
  8
0
  6
Continuous
 62
     7
370
    25
100
AcDbPolyline
 90
        3
 70
   128
 43
0.0
 10
6465.8784739554
 20
5306.2103192856
 10
6465.8784962543
 20
5305.9454574043
 10
6465.8784745388
 20
5305.6880670362
  0
LWPOLYLINE
  5
2AC
330
1F
100
AcDbEntity
  8
0
  6
Continuous
 62
     7
370
    25
100
AcDbPolyline
 90
        3
 70
   128
 43
0.0
 10
6465.8784739554
 20
5304.0936526189
 10
6465.8785113137
 20
5303.8286514848
 10
6465.8784749333
 20
5303.5714003685
  0
LWPOLYLINE
  5
2AD
330
1F
100
AcDbEntity
  8
0
  6
Continuous
 62
     7
370
    25
100
AcDbPolyline
 90
        3
 70
   128
 43
0.0
 10
6496.587087145
 20
5308.8561534134
 10
6496.5870773139
 20
5309.1205974657
 10
6496.587086924
 20
5309.3793677534
  0
LWPOLYLINE
  5
2AE
330
1F
100
AcDbEntity
  8
0
  6
Continuous
 62
     7
370
    25
100
AcDbPolyline
 90
        3
 70
   128
 43
0.0
 10
6496.587087145
 20
5306.7394867468
 10
6496.5870648759
 20
5307.003791532
 10
6496.5870866446
 20
5307.2627010092
  0
LWPOLYLINE
  5
2AF
330
1F
100
AcDbEntity
  8
0
  6
Continuous
 62
     7
370
    25
100
AcDbPolyline
 90
        3
 70
   128
 43
0.0
 10
6496.587087145
 20
5304.6228200801
 10
6496.5870498314
 20
5304.8869856124
 10
6496.5870863069
 20
5305.1460342622
  0
LWPOLYLINE
  5
2B0
330
1F
100
AcDbEntity
  8
0
  6
Continuous
 62
     7
370
    25
100
AcDbPolyline
 90
        3
 70
   128
 43
0.0
 10
6496.587087145
 20
5302.5061534134
 10
6496.5870321807
 20
5302.7701797069
 10
6496.5870859111
 20
5303.0293675123
  0
LINE
  5
2B1
330
1F
100
AcDbEntity
  8
0
  6
Continuous
 62
     7
370
    25
100
AcDbLine
 10
6496.587087145
 20
5310.9728200801
 30
0.0
 11
6496.587087145
 21
5311.5019867468
 31
0.0
  0
LINE
  5
2B2
330
1F
100
AcDbEntity
  8
0
  6
Continuous
 62
     7
370
    25
100
AcDbLine
 10
6465.8784739554
 20
5310.4436526189
 30
0.0
 11
6465.8784739554
 21
5309.9214004109
 31
0.0
  0
ARC
  5
2B3
330
1F
100
AcDbEntity
  8
0
  6
Continuous
 62
     7
370
    25
100
AcDbCircle
 10
6476.7667406686
 20
5306.5386027782
 30
0.0
 40
19.99999999999996
100
AcDbArc
 50
234.6911707601
 51
234.7813683994
  0
ARC
  5
2B4
330
1F
100
AcDbEntity
  8
0
  6
Continuous
 62
     7
370
    25
100
AcDbCircle
 10
6485.6988203832
 20
5306.5386027782
 30
0.0
 40
19.99999999999996
100
AcDbArc
 50
305.2186316006
 51
305.3117794149
  0
LWPOLYLINE
  5
2B5
330
1F
100
AcDbEntity
  8
0
  6
Continuous
 62
     7
370
    25
100
AcDbPolyline
 90
        3
 70
   128
 43
0.0
 10
6497.2815309117
 20
5117.6508606737
 10
6497.14952003
 20
5117.7271236238
 10
6496.5870962427
 20
5118.0520542852
  0
LWPOLYLINE
  5
2B6
330
1F
100
AcDbEntity
  8
0
  6
Continuous
 62
     7
370
    25
100
AcDbPolyline
 90
        3
 70
   128
 43
0.0
 10
6497.2818244708
 20
5119.7673555837
 10
6497.1492849304
 20
5119.8439232899
 10
6496.5870960494
 20
5120.1687210115
  0
LWPOLYLINE
  5
2B7
330
1F
100
AcDbEntity
  8
0
  6
Continuous
 62
     7
370
    25
100
AcDbPolyline
 90
        3
 70
   128
 43
0.0
 10
6497.2820894402
 20
5121.8838658386
 10
6497.1490472236
 20
5121.9607229316
 10
6496.5870957999
 20
5122.2853877421
  0
LWPOLYLINE
  5
2B8
330
1F
100
AcDbEntity
  8
0
  6
Continuous
 62
     7
370
    25
100
AcDbPolyline
 90
        3
 70
   128
 43
0.0
 10
6497.2823256199
 20
5124.0003915572
 10
6497.1488069101
 20
5124.0775225488
 10
6496.5870954942
 20
5124.4020544769
  0
LWPOLYLINE
  5
2B9
330
1F
100
AcDbEntity
  8
0
  6
Continuous
 62
     7
370
    25
100
AcDbPolyline
 90
        3
 70
   128
 43
0.0
 10
6465.8890054544
 20
5119.1164772934
 10
6465.3160417949
 20
5118.785457397
 10
6465.1840286946
 20
5118.7091931666
  0
LWPOLYLINE
  5
2BA
330
1F
100
AcDbEntity
  8
0
  6
Continuous
 62
     7
370
    25
100
AcDbPolyline
 90
        3
 70
   128
 43
0.0
 10
6465.8890054544
 20
5121.23314396
 10
6465.3162769032
 20
5120.902257063
 10
6465.1837351394
 20
5120.8256880749
  0
LWPOLYLINE
  5
2BB
330
1F
100
AcDbEntity
  8
0
  6
Continuous
 62
     7
370
    25
100
AcDbPolyline
 90
        3
 70
   128
 43
0.0
 10
6465.8890054544
 20
5123.3498106267
 10
6465.3165146186
 20
5123.0190567046
 10
6465.1834701744
 20
5122.9421983285
  0
LWPOLYLINE
  5
2BC
330
1F
100
AcDbEntity
  8
0
  6
Continuous
 62
     7
370
    25
100
AcDbPolyline
 90
        3
 70
   128
 43
0.0
 10
6465.8890054544
 20
5116.9998106267
 10
6465.3158092945
 20
5116.6686577066
 10
6465.1688645681
 20
5116.5837671149
  0
LINE
  5
2BD
330
1F
100
AcDbEntity
  8
0
  6
Continuous
 62
     7
370
    25
100
AcDbLine
 10
6496.6637121661
 20
5115.8911242844
 30
0.0
 11
6496.5870963795
 21
5115.9353875632
 31
0.0
  0
LWPOLYLINE
  5
2BE
330
1F
100
AcDbEntity
  8
0
  6
Continuous
 62
     7
370
    25
100
AcDbPolyline
 90
        3
 70
   128
 43
0.0
 10
6496.5762858968
 20
5118.5626138587
 10
6497.1497167313
 20
5118.8939118884
 10
6497.2365695627
 20
5118.9440881632
  0
LWPOLYLINE
  5
2BF
330
1F
100
AcDbEntity
  8
0
  6
Continuous
 62
     7
370
    25
100
AcDbPolyline
 90
        3
 70
   128
 43
0.0
 10
6496.5762858968
 20
5120.6792805253
 10
6497.1499491482
 20
5121.0107153915
 10
6497.2367953165
 20
5121.0608874278
  0
LWPOLYLINE
  5
2C0
330
1F
100
AcDbEntity
  8
0
  6
Continuous
 62
     7
370
    25
100
AcDbPolyline
 90
        3
 70
   128
 43
0.0
 10
6496.5762858968
 20
5122.795947192
 10
6497.1501788832
 20
5123.1275188755
 10
6497.2370022552
 20
5123.1776771209
  0
LWPOLYLINE
  5
2C1
330
1F
100
AcDbEntity
  8
0
  6
Continuous
 62
     7
370
    25
100
AcDbPolyline
 90
        3
 70
   128
 43
0.0
 10
6496.5762858968
 20
5124.9126138587
 10
6497.1504059368
 20
5125.2443223406
 10
6497.2377776111
 20
5125.2947964833
  0
LWPOLYLINE
  5
2C2
330
1F
100
AcDbEntity
  8
0
  6
Continuous
 62
     7
370
    25
100
AcDbPolyline
 90
        3
 70
   128
 43
0.0
 10
6465.2289916178
 20
5120.0024214215
 10
6465.3158444212
 20
5119.9522451628
 10
6465.8784648397
 20
5119.6271928206
  0
LWPOLYLINE
  5
2C3
330
1F
100
AcDbEntity
  8
0
  6
Continuous
 62
     7
370
    25
100
AcDbPolyline
 90
        3
 70
   128
 43
0.0
 10
6465.2287658637
 20
5122.1192206858
 10
6465.3156120032
 20
5122.0690486658
 10
6465.8784650548
 20
5121.7438594112
  0
LWPOLYLINE
  5
2C4
330
1F
100
AcDbEntity
  8
0
  6
Continuous
 62
     7
370
    25
100
AcDbPolyline
 90
        3
 70
   128
 43
0.0
 10
6465.2279675999
 20
5124.2363519894
 10
6465.315382267
 20
5124.1858521499
 10
6465.878465333
 20
5123.8605259941
  0
LWPOLYLINE
  5
2C5
330
1F
100
AcDbEntity
  8
0
  6
Continuous
 62
     7
370
    25
100
AcDbPolyline
 90
        3
 70
   128
 43
0.0
 10
6465.2292360966
 20
5117.8856126379
 10
6465.3160795214
 20
5117.8354416408
 10
6465.8784646875
 20
5117.5105262225
  0
LWPOLYLINE
  5
2C6
330
1F
100
AcDbEntity
  8
0
  6
Continuous
 62
     7
370
    25
100
AcDbPolyline
 90
        3
 70
   128
 43
0.0
 10
6496.5762858968
 20
5116.445947192
 10
6497.1494816324
 20
5116.7771083664
 10
6497.2363250841
 20
5116.8272793792
  0
LINE
  5
2C7
330
1F
100
AcDbEntity
  8
0
  6
Continuous
 62
     7
370
    25
100
AcDbLine
 10
6465.1921213065
 20
5116.4401138121
 30
0.0
 11
6466.4327805259
 21
5115.1994545927
 31
0.0
  0
LINE
  5
2C8
330
1F
100
AcDbEntity
  8
0
  6
Continuous
 62
     7
370
    25
100
AcDbLine
 10
6496.0327805259
 20
5115.1994545927
 30
0.0
 11
6496.6943193503
 21
5115.8609934171
 31
0.0
  0
LWPOLYLINE
  5
2C9
330
1F
100
AcDbEntity
  8
0
  6
Continuous
 62
     7
370
    25
100
AcDbPolyline
 90
        3
 70
   128
 43
0.0
 10
6496.5870963795
 20
5118.0461937302
 10
6496.5870901969
 20
5118.3109120733
 10
6496.5870962276
 20
5118.5688594964
  0
LWPOLYLINE
  5
2CA
330
1F
100
AcDbEntity
  8
0
  6
Continuous
 62
     7
370
    25
100
AcDbPolyline
 90
        3
 70
   128
 43
0.0
 10
6496.5870963795
 20
5120.1628603969
 10
6496.5870814608
 20
5120.4277137279
 10
6496.5870960126
 20
5120.6855260871
  0
LWPOLYLINE
  5
2CB
330
1F
100
AcDbEntity
  8
0
  6
Continuous
 62
     7
370
    25
100
AcDbPolyline
 90
        3
 70
   128
 43
0.0
 10
6496.5870963795
 20
5122.2795270635
 10
6496.5870701714
 20
5122.5445153607
 10
6496.5870957346
 20
5122.8021926702
  0
LWPOLYLINE
  5
2CC
330
1F
100
AcDbEntity
  8
0
  6
Continuous
 62
     7
370
    25
100
AcDbPolyline
 90
        3
 70
   128
 43
0.0
 10
6496.5870963795
 20
5124.3961937302
 10
6496.5870563294
 20
5124.6613169717
 10
6496.5870953934
 20
5124.9188592455
  0
LWPOLYLINE
  5
2CD
330
1F
100
AcDbEntity
  8
0
  6
Continuous
 62
     7
370
    25
100
AcDbPolyline
 90
        3
 70
   128
 43
0.0
 10
6465.8784646875
 20
5119.6336941489
 10
6465.878470878
 20
5119.3692458252
 10
6465.8784648245
 20
5119.1103876258
  0
LWPOLYLINE
  5
2CE
330
1F
100
AcDbEntity
  8
0
  6
Continuous
 62
     7
370
    25
100
AcDbPolyline
 90
        3
 70
   128
 43
0.0
 10
6465.8784646875
 20
5121.7503608155
 10
6465.8784796221
 20
5121.4860474798
 10
6465.8784650179
 20
5121.2270543521
  0
LWPOLYLINE
  5
2CF
330
1F
100
AcDbEntity
  8
0
  6
Continuous
 62
     7
370
    25
100
AcDbPolyline
 90
        3
 70
   128
 43
0.0
 10
6465.8784646875
 20
5123.8670274822
 10
6465.8784909193
 20
5123.6028491125
 10
6465.8784652676
 20
5123.3437210827
  0
LINE
  5
2D0
330
1F
100
AcDbEntity
  8
0
  6
Continuous
 62
     7
370
    25
100
AcDbLine
 10
6465.8784646875
 20
5117.5170274822
 30
0.0
 11
6465.8784646875
 21
5116.9937209039
 31
0.0
  0
LINE
  5
2D1
330
1F
100
AcDbEntity
  8
0
  6
Continuous
 62
     7
370
    25
100
AcDbLine
 10
6496.5870963795
 20
5115.9295270635
 30
0.0
 11
6496.5870963795
 21
5116.4521928982
 31
0.0
  0
ARC
  5
2D2
330
1F
100
AcDbEntity
  8
0
  6
Continuous
 62
     7
370
    25
100
AcDbCircle
 10
6485.6988203832
 20
5120.8603064072
 30
0.0
 40
19.99999999999996
100
AcDbArc
 50
54.6491847875
 51
54.7813683994
  0
LINE
  5
2D3
330
1F
100
AcDbEntity
  8
0
  6
Continuous
 62
     7
370
    25
100
AcDbLine
 10
6549.2327805259
 20
5184.6994545927
 30
0.0
 11
6549.7327805259
 21
5184.6994545927
 31
0.0
  0
LINE
  5
2D4
330
1F
100
AcDbEntity
  8
0
  6
Continuous
 62
     7
370
    25
100
AcDbLine
 10
6549.7327805259
 20
5212.6994545927
 30
0.0
 11
6549.2327805259
 21
5212.6994545927
 31
0.0
  0
LINE
  5
2D5
330
1F
100
AcDbEntity
  8
0
  6
Continuous
 62
     7
370
    25
100
AcDbLine
 10
6549.7327805259
 20
5184.6994545927
 30
0.0
 11
6551.2327805259
 21
5186.1994545927
 31
0.0
  0
LINE
  5
2D6
330
1F
100
AcDbEntity
  8
0
  6
Continuous
 62
     7
370
    25
100
AcDbLine
 10
6551.2327805259
 20
5211.1994545927
 30
0.0
 11
6549.7327805259
 21
5212.6994545927
 31
0.0
  0
LINE
  5
2D7
330
1F
100
AcDbEntity
  8
0
  6
Continuous
 62
     7
370
    25
100
AcDbLine
 10
6475.4502322714
 20
5291.8994545927
 30
0.0
 11
6475.4327805259
 21
5291.8994545927
 31
0.0
  0
LINE
  5
2D8
330
1F
100
AcDbEntity
  8
0
  6
Continuous
 62
     7
370
    25
100
AcDbLine
 10
6487.0327805259
 20
5291.8994545927
 30
0.0
 11
6475.4502322714
 21
5291.8994545927
 31
0.0
  0
LINE
  5
2D9
330
1F
100
AcDbEntity
  8
0
  6
Continuous
 62
     7
370
    25
100
AcDbLine
 10
6482.137532623
 20
5289.1894545927
 30
0.0
 11
6482.137532623
 21
5289.1994545927
 31
0.0
  0
LINE
  5
2DA
330
1F
100
AcDbEntity
  8
0
  6
Continuous
 62
     7
370
    25
100
AcDbLine
 10
6482.2157563797
 20
5289.1994545927
 30
0.0
 11
6482.2157563797
 21
5289.1894545927
 31
0.0
  0
LINE
  5
2DB
330
1F
100
AcDbEntity
  8
0
  6
Continuous
 62
     7
370
    25
100
AcDbLine
 10
6479.6632571105
 20
5289.1894545927
 30
0.0
 11
6479.6632571105
 21
5289.1994545927
 31
0.0
  0
LINE
  5
2DC
330
1F
100
AcDbEntity
  8
0
  6
Continuous
 62
     7
370
    25
100
AcDbLine
 10
6479.7484229379
 20
5289.1994545927
 30
0.0
 11
6479.7484229379
 21
5289.1894545927
 31
0.0
  0
LINE
  5
2DD
330
1F
100
AcDbEntity
  8
0
  6
Continuous
 62
     7
370
    25
100
AcDbLine
 10
6483.7796428433
 20
5289.1894545927
 30
0.0
 11
6483.7796428433
 21
5289.1994545927
 31
0.0
  0
LINE
  5
2DE
330
1F
100
AcDbEntity
  8
0
  6
Continuous
 62
     7
370
    25
100
AcDbLine
 10
6478.6859182085
 20
5289.1894545927
 30
0.0
 11
6478.6859182085
 21
5289.1994545927
 31
0.0
  0
LINE
  5
2DF
330
1F
100
AcDbEntity
  8
0
  6
Continuous
 62
     7
370
    25
100
AcDbLine
 10
6484.3687673552
 20
5289.1994545927
 30
0.0
 11
6484.3687673552
 21
5289.1894545927
 31
0.0
  0
LINE
  5
2E0
330
1F
100
AcDbEntity
  8
0
  6
Continuous
 62
     7
370
    25
100
AcDbLine
 10
6481.0193670857
 20
5289.1894545927
 30
0.0
 11
6481.0193670857
 21
5289.1994545927
 31
0.0
  0
LINE
  5
2E1
330
1F
100
AcDbEntity
  8
0
  6
Continuous
 62
     7
370
    25
100
AcDbLine
 10
6483.4372899278
 20
5289.1894545927
 30
0.0
 11
6483.4372899278
 21
5289.1994545927
 31
0.0
  0
LINE
  5
2E2
330
1F
100
AcDbEntity
  8
0
  6
Continuous
 62
     7
370
    25
100
AcDbLine
 10
6481.5244177228
 20
5289.1994545927
 30
0.0
 11
6481.5244177228
 21
5289.1894545927
 31
0.0
  0
LINE
  5
2E3
330
1F
100
AcDbEntity
  8
0
  6
Continuous
 62
     7
370
    25
100
AcDbLine
 10
6483.8566407628
 20
5289.1994545927
 30
0.0
 11
6483.8566407628
 21
5289.1894545927
 31
0.0
  0
LINE
  5
2E4
330
1F
100
AcDbEntity
  8
0
  6
Continuous
 62
     7
370
    25
100
AcDbLine
 10
6479.1134369513
 20
5289.1994545927
 30
0.0
 11
6479.1134369513
 21
5289.1894545927
 31
0.0
  0
LINE
  5
2E5
330
1F
100
AcDbEntity
  8
0
  6
Continuous
 62
     7
370
    25
100
AcDbLine
 10
6484.2917694357
 20
5289.1894545927
 30
0.0
 11
6484.2917694357
 21
5289.1994545927
 31
0.0
  0
LINE
  5
2E6
330
1F
100
AcDbEntity
  8
0
  6
Continuous
 62
     7
370
    25
100
AcDbLine
 10
6479.028271124
 20
5289.1894545927
 30
0.0
 11
6479.028271124
 21
5289.1994545927
 31
0.0
  0
LINE
  5
2E7
330
1F
100
AcDbEntity
  8
0
  6
Continuous
 62
     7
370
    25
100
AcDbLine
 10
6481.4461939661
 20
5289.1894545927
 30
0.0
 11
6481.4461939661
 21
5289.1994545927
 31
0.0
  0
ARC
  5
2E8
330
1F
100
AcDbEntity
  8
0
  6
Continuous
 62
     7
370
    25
100
AcDbCircle
 10
6470.7534855919
 20
5228.5692055959
 30
0.0
 40
80.68871215981045
100
AcDbArc
 50
91.1203523279
 51
94.0500493585
  0
ARC
  5
2E9
330
1F
100
AcDbEntity
  8
0
  6
Continuous
 62
     7
370
    25
100
AcDbCircle
 10
6472.0765410039
 20
5329.2461920223
 30
0.0
 40
20.21292217528816
100
AcDbArc
 50
261.7490731666
 51
281.0544703704
  0
LWPOLYLINE
  5
2EA
330
1F
100
AcDbEntity
  8
0
  6
Continuous
 62
     7
370
    25
100
AcDbPolyline
 90
       11
 70
   128
 43
0.0
 10
6484.9592764529
 20
5309.5949487393
 10
6484.4076406339
 20
5309.5836197444
 10
6483.8522938252
 20
5309.5723423789
 10
6483.2938851534
 20
5309.5611166429
 10
6482.7330673241
 20
5309.5499425363
 10
6481.8806888259
 20
5309.5326840028
 10
6481.4684393865
 20
5309.5242413434
 10
6480.9922250054
 20
5309.5144537766
 10
6480.4524538665
 20
5309.5033213023
 10
6478.1727209566
 20
5309.4558625549
 10
6475.9522097454
 20
5309.4083137419
  0
ARC
  5
2EB
330
1F
100
AcDbEntity
  8
0
  6
Continuous
 62
     7
370
    25
100
AcDbCircle
 10
6488.0260581212
 20
5331.9089293209
 30
0.0
 40
22.52374034646233
100
AcDbArc
 50
262.1744280741
 51
280.4992000018
  0
ARC
  5
2EC
330
1F
100
AcDbEntity
  8
0
  6
Continuous
 62
     7
370
    25
100
AcDbCircle
 10
6489.3918060134
 20
5445.5008794692
 30
0.0
 40
135.7662086187846
100
AcDbArc
 50
271.1558035192
 51
273.2193438516
  0
LWPOLYLINE
  5
2ED
330
1F
100
AcDbEntity
  8
0
  6
Continuous
 62
     7
370
    25
100
AcDbPolyline
 90
        5
 70
   128
 43
0.0
 10
6497.4109453355
 20
5310.1147500385
 10
6497.2771331176
 20
5309.7997313198
 10
6497.1506284211
 20
5309.74525745
 10
6497.0233242729
 20
5309.9317477046
 10
6497.0162447621
 20
5309.9489287769
  0
LWPOLYLINE
  5
2EE
330
1F
100
AcDbEntity
  8
0
  6
Continuous
 62
     7
370
    25
100
AcDbPolyline
 90
        3
 70
   128
 43
0.0
 10
6465.163362628
 20
5310.89742038
 10
6465.1993140238
 20
5310.8438791679
 10
6465.2424289501
 20
5310.8439780536
  0
LWPOLYLINE
  5
2EF
330
1F
100
AcDbEntity
  8
0
  6
Continuous
 62
     7
370
    25
100
AcDbPolyline
 90
       21
 70
   128
 43
0.0
 10
6496.6249221353
 20
5311.5548123533
 10
6496.6322150314
 20
5311.5352146399
 10
6496.2042720486
 20
5311.4995830134
 10
6495.3708065256
 20
5311.4639526466
 10
6494.1088776305
 20
5311.4271443981
 10
6492.5126325906
 20
5311.3920008247
 10
6490.5442393029
 20
5311.3562020216
 10
6488.36054242
 20
5311.3203948201
 10
6485.9768613192
 20
5311.2846845569
 10
6483.3845414381
 20
5311.2490304611
 10
6480.7853264619
 20
5311.2139334465
 10
6478.1191127254
 20
5311.1771543651
 10
6475.5864073637
 20
5311.1414522286
 10
6473.1371116556
 20
5311.105803435
 10
6470.97187142
 20
5311.0704003859
 10
6469.0815885705
 20
5311.034591206
 10
6467.5176884607
 20
5310.9993490143
 10
6466.2937060286
 20
5310.9639802549
 10
6465.5499863287
 20
5310.9312117795
 10
6465.163362628
 20
5310.89742038
 10
6465.163362628
 20
5310.89742038
  0
LWPOLYLINE
  5
2F0
330
1F
100
AcDbEntity
  8
0
  6
Continuous
 62
     7
370
    25
100
AcDbPolyline
 90
       18
 70
   128
 43
0.0
 10
6496.5720849935
 20
5311.5020420034
 10
6496.3412073677
 20
5311.4429865846
 10
6495.5534922731
 20
5311.3792921336
 10
6494.2367674052
 20
5311.3137721699
 10
6492.4617569435
 20
5311.2499669482
 10
6490.2974282936
 20
5311.1873410191
 10
6487.7740060414
 20
5311.1220041995
 10
6485.0209830498
 20
5311.0573092688
 10
6482.1684566256
 20
5310.9951214412
 10
6479.2431694118
 20
5310.930296372
 10
6476.3838837941
 20
5310.8650296571
 10
6473.7382958793
 20
5310.8025404022
 10
6471.3410408262
 20
5310.7385471634
 10
6469.2858123589
 20
5310.6730360977
 10
6467.6821110953
 20
5310.6095458883
 10
6466.5668094496
 20
5310.5466557492
 10
6465.9696790108
 20
5310.4812318606
 10
6465.9463541023
 20
5310.4438580444
  0
LWPOLYLINE
  5
2F1
330
1F
100
AcDbEntity
  8
0
  6
Continuous
 62
     7
370
    25
100
AcDbPolyline
 90
       18
 70
   128
 43
0.0
 10
6496.5243806462
 20
5309.3731732006
 10
6496.3412073677
 20
5309.3263199179
 10
6495.5534922731
 20
5309.2626254669
 10
6494.2367674052
 20
5309.1971055032
 10
6492.4617569435
 20
5309.1333002815
 10
6490.2974282936
 20
5309.0706743524
 10
6487.7740060414
 20
5309.0053375328
 10
6485.0209830498
 20
5308.9406426021
 10
6482.1684566256
 20
5308.8784547745
 10
6479.2431694118
 20
5308.8136297053
 10
6476.3838837941
 20
5308.7483629904
 10
6473.7382958793
 20
5308.6858737355
 10
6471.3410408262
 20
5308.6218804968
 10
6469.2858123589
 20
5308.5563694311
 10
6467.6821110953
 20
5308.4928792216
 10
6466.5668094496
 20
5308.4299890825
 10
6465.9696790108
 20
5308.3645651939
 10
6465.9463433842
 20
5308.327174204
  0
LWPOLYLINE
  5
2F2
330
1F
100
AcDbEntity
  8
0
  6
Continuous
 62
     7
370
    25
100
AcDbPolyline
 90
       18
 70
   128
 43
0.0
 10
6496.5243612572
 20
5307.2565015745
 10
6496.3412073677
 20
5307.2096532513
 10
6495.5534922731
 20
5307.1459588002
 10
6494.2367674052
 20
5307.0804388365
 10
6492.4617569435
 20
5307.0166336148
 10
6490.2974282936
 20
5306.9540076857
 10
6487.7740060414
 20
5306.8886708661
 10
6485.0209830498
 20
5306.8239759354
 10
6482.1684566256
 20
5306.7617881079
 10
6479.2431694118
 20
5306.6969630387
 10
6476.3838837941
 20
5306.6316963237
 10
6473.7382958793
 20
5306.5692070688
 10
6471.3410408262
 20
5306.5052138301
 10
6469.2858123589
 20
5306.4397027644
 10
6467.6821110953
 20
5306.3762125549
 10
6466.5668094496
 20
5306.3133224158
 10
6465.9696790108
 20
5306.2478985272
 10
6465.946332658
 20
5306.2104903506
  0
LWPOLYLINE
  5
2F3
330
1F
100
AcDbEntity
  8
0
  6
Continuous
 62
     7
370
    25
100
AcDbPolyline
 90
       18
 70
   128
 43
0.0
 10
6496.5243418874
 20
5305.1398299533
 10
6496.3412073677
 20
5305.0929865846
 10
6495.5534922731
 20
5305.0292921336
 10
6494.2367674052
 20
5304.9637721699
 10
6492.4617569435
 20
5304.8999669482
 10
6490.2974282936
 20
5304.8373410191
 10
6487.7740060414
 20
5304.7720041995
 10
6485.0209830498
 20
5304.7073092688
 10
6482.1684566256
 20
5304.6451214412
 10
6479.2431694118
 20
5304.580296372
 10
6476.3838837941
 20
5304.5150296571
 10
6473.7382958793
 20
5304.4525404022
 10
6471.3410408262
 20
5304.3885471634
 10
6469.2858123589
 20
5304.3230360977
 10
6467.6821110953
 20
5304.2595458883
 10
6466.5668094496
 20
5304.1966557492
 10
6465.9696790108
 20
5304.1312318606
 10
6465.9463219234
 20
5304.0938064837
  0
ARC
  5
2F4
330
1F
100
AcDbEntity
  8
0
  6
Continuous
 62
     7
370
    25
100
AcDbCircle
 10
6482.0701230159
 20
5518.008088616
 30
0.0
 40
215.4702859581573
100
AcDbArc
 50
270.1491806526
 51
273.8464097769
  0
LINE
  5
2F5
330
1F
100
AcDbEntity
  8
0
  6
Continuous
 62
     7
370
    25
100
AcDbLine
 10
6484.9592764529
 20
5303.2449487393
 30
0.0
 11
6482.7354811756
 21
5303.1999913482
 31
0.0
  0
ARC
  5
2F6
330
1F
100
AcDbEntity
  8
0
  6
Continuous
 62
     7
370
    25
100
AcDbCircle
 10
6488.0260581212
 20
5325.5589293209
 30
0.0
 40
22.52374034644534
100
AcDbArc
 50
262.1744280741
 51
280.4992000018
  0
ARC
  5
2F7
330
1F
100
AcDbEntity
  8
0
  6
Continuous
 62
     7
370
    25
100
AcDbCircle
 10
6489.3918060135
 20
5439.1508794671
 30
0.0
 40
135.7662086167139
100
AcDbArc
 50
271.1558035192
 51
273.2193438516
  0
LWPOLYLINE
  5
2F8
330
1F
100
AcDbEntity
  8
0
  6
Continuous
 62
     7
370
    25
100
AcDbPolyline
 90
        5
 70
   128
 43
0.0
 10
6497.4109453355
 20
5303.7647500385
 10
6497.2771331176
 20
5303.4497313198
 10
6497.1506284211
 20
5303.39525745
 10
6497.0233242729
 20
5303.5817477046
 10
6497.0162447621
 20
5303.5989287769
  0
LWPOLYLINE
  5
2F9
330
1F
100
AcDbEntity
  8
0
  6
Continuous
 62
     7
370
    25
100
AcDbPolyline
 90
        3
 70
   128
 43
0.0
 10
6465.0546157163
 20
5304.8230833718
 10
6465.1884279342
 20
5304.5080646531
 10
6465.2432772751
 20
5304.4844461162
  0
ARC
  5
2FA
330
1F
100
AcDbEntity
  8
0
  6
Continuous
 62
     7
370
    25
100
AcDbCircle
 10
6470.7534855922
 20
5224.3358722555
 30
0.0
 40
80.68871216692035
100
AcDbArc
 50
91.120352328
 51
94.0500493583
  0
ARC
  5
2FB
330
1F
100
AcDbEntity
  8
0
  6
Continuous
 62
     7
370
    25
100
AcDbCircle
 10
6472.0765410039
 20
5325.0128586889
 30
0.0
 40
20.21292217525987
100
AcDbArc
 50
261.7490731666
 51
281.0544703704
  0
LWPOLYLINE
  5
2FC
330
1F
100
AcDbEntity
  8
0
  6
Continuous
 62
     7
370
    25
100
AcDbPolyline
 90
       11
 70
   128
 43
0.0
 10
6484.9592764529
 20
5305.361615406
 10
6484.4076406339
 20
5305.350286411
 10
6483.8522938252
 20
5305.3390090455
 10
6483.2938851534
 20
5305.3277833095
 10
6482.7330673241
 20
5305.316609203
 10
6481.8806888369
 20
5305.2993506697
 10
6481.4684393963
 20
5305.2909080103
 10
6480.9922250116
 20
5305.2811204434
 10
6480.4524538665
 20
5305.269987969
 10
6478.1727209566
 20
5305.2225292215
 10
6475.9522097454
 20
5305.1749804085
  0
ARC
  5
2FD
330
1F
100
AcDbEntity
  8
0
  6
Continuous
 62
     7
370
    25
100
AcDbCircle
 10
6488.0260581212
 20
5327.6755959876
 30
0.0
 40
22.52374034648379
100
AcDbArc
 50
262.1744280741
 51
280.4992000018
  0
ARC
  5
2FE
330
1F
100
AcDbEntity
  8
0
  6
Continuous
 62
     7
370
    25
100
AcDbCircle
 10
6489.3918060135
 20
5441.2675461339
 30
0.0
 40
135.7662086168204
100
AcDbArc
 50
271.1558035192
 51
273.2193438516
  0
LWPOLYLINE
  5
2FF
330
1F
100
AcDbEntity
  8
0
  6
Continuous
 62
     7
370
    25
100
AcDbPolyline
 90
        5
 70
   128
 43
0.0
 10
6497.4109453355
 20
5305.8814167052
 10
6497.2771331176
 20
5305.5663979865
 10
6497.1506284211
 20
5305.5119241167
 10
6497.0233242729
 20
5305.6984143713
 10
6497.0162447621
 20
5305.7155954436
  0
LWPOLYLINE
  5
300
330
1F
100
AcDbEntity
  8
0
  6
Continuous
 62
     7
370
    25
100
AcDbPolyline
 90
        3
 70
   128
 43
0.0
 10
6465.0546157163
 20
5306.9397500385
 10
6465.1884279342
 20
5306.6247313198
 10
6465.243005337
 20
5306.6012298814
  0
ARC
  5
301
330
1F
100
AcDbEntity
  8
0
  6
Continuous
 62
     7
370
    25
100
AcDbCircle
 10
6470.753485592
 20
5226.4525389266
 30
0.0
 40
80.6887121623961
100
AcDbArc
 50
91.1203523279
 51
94.0500493584
  0
ARC
  5
302
330
1F
100
AcDbEntity
  8
0
  6
Continuous
 62
     7
370
    25
100
AcDbCircle
 10
6472.0765410039
 20
5327.1295253556
 30
0.0
 40
20.21292217525897
100
AcDbArc
 50
261.7490731666
 51
281.0544703704
  0
LWPOLYLINE
  5
303
330
1F
100
AcDbEntity
  8
0
  6
Continuous
 62
     7
370
    25
100
AcDbPolyline
 90
       11
 70
   128
 43
0.0
 10
6484.9592764529
 20
5307.4782820727
 10
6484.4076406339
 20
5307.4669530777
 10
6483.8522938252
 20
5307.4556757122
 10
6483.2938851534
 20
5307.4444499762
 10
6482.7330673241
 20
5307.4332758697
 10
6481.8806888248
 20
5307.4160173361
 10
6481.4684393855
 20
5307.4075746768
 10
6480.9922250048
 20
5307.3977871099
 10
6480.4524538665
 20
5307.3866546356
 10
6478.1727209566
 20
5307.3391958882
 10
6475.9522097454
 20
5307.2916470752
  0
ARC
  5
304
330
1F
100
AcDbEntity
  8
0
  6
Continuous
 62
     7
370
    25
100
AcDbCircle
 10
6488.0260581212
 20
5329.7922626542
 30
0.0
 40
22.52374034648379
100
AcDbArc
 50
262.1744280741
 51
280.4992000018
  0
ARC
  5
305
330
1F
100
AcDbEntity
  8
0
  6
Continuous
 62
     7
370
    25
100
AcDbCircle
 10
6489.3918060134
 20
5443.3842128045
 30
0.0
 40
135.7662086206983
100
AcDbArc
 50
271.1558035192
 51
273.2193438516
  0
LWPOLYLINE
  5
306
330
1F
100
AcDbEntity
  8
0
  6
Continuous
 62
     7
370
    25
100
AcDbPolyline
 90
        5
 70
   128
 43
0.0
 10
6497.4109453355
 20
5307.9980833718
 10
6497.2771331176
 20
5307.6830646531
 10
6497.1506284211
 20
5307.6285907833
 10
6497.0233242729
 20
5307.815081038
 10
6497.0162447621
 20
5307.8322621103
  0
LWPOLYLINE
  5
307
330
1F
100
AcDbEntity
  8
0
  6
Continuous
 62
     7
370
    25
100
AcDbPolyline
 90
        3
 70
   128
 43
0.0
 10
6465.0546157163
 20
5309.0564167052
 10
6465.1884279342
 20
5308.7413979865
 10
6465.2427334328
 20
5308.7180136321
  0
LWPOLYLINE
  5
308
330
1F
100
AcDbEntity
  8
0
  6
Continuous
 62
     7
370
    25
100
AcDbPolyline
 90
        5
 70
   128
 43
0.0
 10
6497.0162447621
 20
5308.0968454494
 10
6497.1500686807
 20
5308.4101639828
 10
6497.2766125307
 20
5308.4645873537
 10
6497.4039421246
 20
5308.2796232084
 10
6497.4109453355
 20
5308.2626667109
  0
ARC
  5
309
330
1F
100
AcDbEntity
  8
0
  6
Continuous
 62
     7
370
    25
100
AcDbCircle
 10
6489.3918060136
 20
5443.6487961378
 30
0.0
 40
135.7662086149066
100
AcDbArc
 50
271.1558035192
 51
273.2193438516
  0
ARC
  5
30A
330
1F
100
AcDbEntity
  8
0
  6
Continuous
 62
     7
370
    25
100
AcDbCircle
 10
6489.0635928868
 20
5285.5962298704
 30
0.0
 40
22.5237403464425
100
AcDbArc
 50
82.1744280741
 51
100.4992000018
  0
LWPOLYLINE
  5
30B
330
1F
100
AcDbEntity
  8
0
  6
Continuous
 62
     7
370
    25
100
AcDbPolyline
 90
       11
 70
   128
 43
0.0
 10
6484.9592764529
 20
5307.7428654118
 10
6484.4076406339
 20
5307.7315364168
 10
6483.8522938252
 20
5307.7202590513
 10
6483.2938851534
 20
5307.7090333153
 10
6482.7330673241
 20
5307.6978592088
 10
6481.8806888273
 20
5307.6806006753
 10
6481.4684393878
 20
5307.6721580159
 10
6480.9922250062
 20
5307.6623704491
 10
6480.4524538665
 20
5307.6512379747
 10
6478.1727209566
 20
5307.6037792273
 10
6475.9522097454
 20
5307.5562304143
  0
ARC
  5
30C
330
1F
100
AcDbEntity
  8
0
  6
Continuous
 62
     7
370
    25
100
AcDbCircle
 10
6473.048946871
 20
5287.6560880561
 30
0.0
 40
20.11080806911809
100
AcDbArc
 50
81.6995882149
 51
101.1039553221
  0
ARC
  5
30D
330
1F
100
AcDbEntity
  8
0
  6
Continuous
 62
     7
370
    25
100
AcDbCircle
 10
6470.7534855918
 20
5226.7171222701
 30
0.0
 40
80.68871215808218
100
AcDbArc
 50
91.1203523279
 51
94.0500493585
  0
LWPOLYLINE
  5
30E
330
1F
100
AcDbEntity
  8
0
  6
Continuous
 62
     7
370
    25
100
AcDbPolyline
 90
        3
 70
   128
 43
0.0
 10
6465.1869769866
 20
5307.4033900893
 10
6465.0616189272
 20
5307.2212898751
 10
6465.0546157163
 20
5307.2043333776
  0
LWPOLYLINE
  5
30F
330
1F
100
AcDbEntity
  8
0
  6
Continuous
 62
     7
370
    25
100
AcDbPolyline
 90
        5
 70
   128
 43
0.0
 10
6497.0162447621
 20
5305.9801787827
 10
6497.1500686807
 20
5306.2934973161
 10
6497.2766125307
 20
5306.3479206871
 10
6497.4039421246
 20
5306.1629565417
 10
6497.4109453355
 20
5306.1460000443
  0
ARC
  5
310
330
1F
100
AcDbEntity
  8
0
  6
Continuous
 62
     7
370
    25
100
AcDbCircle
 10
6489.3918060134
 20
5441.5321294763
 30
0.0
 40
135.7662086200755
100
AcDbArc
 50
271.1558035192
 51
273.2193438516
  0
ARC
  5
311
330
1F
100
AcDbEntity
  8
0
  6
Continuous
 62
     7
370
    25
100
AcDbCircle
 10
6489.0635928868
 20
5283.4795632036
 30
0.0
 40
22.52374034648652
100
AcDbArc
 50
82.1744280741
 51
100.4992000018
  0
LWPOLYLINE
  5
312
330
1F
100
AcDbEntity
  8
0
  6
Continuous
 62
     7
370
    25
100
AcDbPolyline
 90
       11
 70
   128
 43
0.0
 10
6484.9592764529
 20
5305.6261987451
 10
6484.4076406339
 20
5305.6148697501
 10
6483.8522938252
 20
5305.6035923847
 10
6483.2938851534
 20
5305.5923666486
 10
6482.7330673241
 20
5305.5811925421
 10
6481.8806888354
 20
5305.5639340088
 10
6481.468439395
 20
5305.5554913494
 10
6480.9922250108
 20
5305.5457037825
 10
6480.4524538665
 20
5305.5345713081
 10
6478.1727209566
 20
5305.4871125606
 10
6475.9522097454
 20
5305.4395637476
  0
ARC
  5
313
330
1F
100
AcDbEntity
  8
0
  6
Continuous
 62
     7
370
    25
100
AcDbCircle
 10
6473.048946871
 20
5285.5394213895
 30
0.0
 40
20.11080806911809
100
AcDbArc
 50
81.6995882149
 51
101.1039553221
  0
ARC
  5
314
330
1F
100
AcDbEntity
  8
0
  6
Continuous
 62
     7
370
    25
100
AcDbCircle
 10
6470.753485592
 20
5224.6004555991
 30
0.0
 40
80.68871216239519
100
AcDbArc
 50
91.1203523279
 51
94.0500493584
  0
LWPOLYLINE
  5
315
330
1F
100
AcDbEntity
  8
0
  6
Continuous
 62
     7
370
    25
100
AcDbPolyline
 90
        3
 70
   128
 43
0.0
 10
6465.1872271092
 20
5305.2870867609
 10
6465.0616189272
 20
5305.1046232084
 10
6465.0546157163
 20
5305.0876667109
  0
LWPOLYLINE
  5
316
330
1F
100
AcDbEntity
  8
0
  6
Continuous
 62
     7
370
    25
100
AcDbPolyline
 90
        5
 70
   128
 43
0.0
 10
6497.0162447621
 20
5303.863512116
 10
6497.1500686807
 20
5304.1768306494
 10
6497.2766125307
 20
5304.2312540204
 10
6497.4039421246
 20
5304.0462898751
 10
6497.4109453355
 20
5304.0293333776
  0
ARC
  5
317
330
1F
100
AcDbEntity
  8
0
  6
Continuous
 62
     7
370
    25
100
AcDbCircle
 10
6489.3918060134
 20
5439.4154628077
 30
0.0
 40
135.7662086182005
100
AcDbArc
 50
271.1558035192
 51
273.2193438516
  0
ARC
  5
318
330
1F
100
AcDbEntity
  8
0
  6
Continuous
 62
     7
370
    25
100
AcDbCircle
 10
6489.0635928868
 20
5281.362896537
 30
0.0
 40
22.52374034646039
100
AcDbArc
 50
82.1744280741
 51
100.4992000018
  0
LWPOLYLINE
  5
319
330
1F
100
AcDbEntity
  8
0
  6
Continuous
 62
     7
370
    25
100
AcDbPolyline
 90
       11
 70
   128
 43
0.0
 10
6484.9592764529
 20
5303.5095320785
 10
6484.4076406339
 20
5303.4982030835
 10
6483.8522938252
 20
5303.486925718
 10
6483.2938851534
 20
5303.475699982
 10
6482.7330673241
 20
5303.4645258755
 10
6481.8806888248
 20
5303.4472673419
 10
6481.4684393855
 20
5303.4388246825
 10
6480.9922250048
 20
5303.4290371157
 10
6480.4524538665
 20
5303.4179046414
 10
6478.1727209566
 20
5303.370445894
 10
6475.9522097454
 20
5303.322897081
  0
ARC
  5
31A
330
1F
100
AcDbEntity
  8
0
  6
Continuous
 62
     7
370
    25
100
AcDbCircle
 10
6473.0469071266
 20
5283.5061102524
 30
0.0
 40
20.02862510298412
100
AcDbArc
 50
81.6593901374
 51
101.1441533995
  0
ARC
  5
31B
330
1F
100
AcDbEntity
  8
0
  6
Continuous
 62
     7
370
    25
100
AcDbCircle
 10
6470.7534855921
 20
5222.4837889308
 30
0.0
 40
80.68871216401975
100
AcDbArc
 50
91.120352328
 51
94.0500493584
  0
LWPOLYLINE
  5
31C
330
1F
100
AcDbEntity
  8
0
  6
Continuous
 62
     7
370
    25
100
AcDbPolyline
 90
        3
 70
   128
 43
0.0
 10
6465.1874718873
 20
5303.1702289353
 10
6465.1854685658
 20
5303.1710384547
 10
6465.0546157163
 20
5302.9710000443
  0
LWPOLYLINE
  5
31D
330
1F
100
AcDbEntity
  8
0
  6
Continuous
 62
     7
370
    25
100
AcDbPolyline
 90
        4
 70
   128
 43
0.0
 10
6497.0162447621
 20
5301.7468454494
 10
6497.1500686807
 20
5302.0601639828
 10
6497.280092486
 20
5302.1127051214
 10
6497.4109453355
 20
5301.9126667109
  0
ARC
  5
31E
330
1F
100
AcDbEntity
  8
0
  6
Continuous
 62
     7
370
    25
100
AcDbCircle
 10
6489.0625822364
 20
5279.2895384316
 30
0.0
 40
22.48097377662745
100
AcDbArc
 50
82.1568475073
 51
100.5167805686
  0
LWPOLYLINE
  5
31F
330
1F
100
AcDbEntity
  8
0
  6
Continuous
 62
     7
370
    25
100
AcDbPolyline
 90
       18
 70
   128
 43
0.0
 10
6496.5721702883
 20
5310.9728971632
 10
6496.3412074439
 20
5310.9138199271
 10
6495.553492433
 20
5310.8501254767
 10
6494.2367676454
 20
5310.7846055132
 10
6492.4617572516
 20
5310.7208002912
 10
6490.2974286699
 20
5310.6581743627
 10
6487.7740064731
 20
5310.5928375435
 10
6485.0209835145
 20
5310.5281426125
 10
6482.1684571129
 20
5310.4659547852
 10
6479.2431699096
 20
5310.4011297165
 10
6476.383884275
 20
5310.3358630016
 10
6473.7382963236
 20
5310.2733737464
 10
6471.3410412285
 20
5310.2093805085
 10
6469.285812694
 20
5310.1438694429
 10
6467.6821113451
 20
5310.0803792329
 10
6466.5668096121
 20
5310.0174890946
 10
6465.9696790717
 20
5309.9520652064
 10
6465.9541973189
 20
5309.9272586501
  0
LWPOLYLINE
  5
320
330
1F
100
AcDbEntity
  8
0
  6
Continuous
 62
     7
370
    25
100
AcDbPolyline
 90
       18
 70
   128
 43
0.0
 10
6496.5721701382
 20
5308.8562304581
 10
6496.3412074439
 20
5308.7971532604
 10
6495.553492433
 20
5308.7334588101
 10
6494.2367676454
 20
5308.6679388466
 10
6492.4617572516
 20
5308.6041336245
 10
6490.2974286699
 20
5308.541507696
 10
6487.7740064731
 20
5308.4761708768
 10
6485.0209835145
 20
5308.4114759459
 10
6482.1684571129
 20
5308.3492881185
 10
6479.2431699096
 20
5308.2844630499
 10
6476.383884275
 20
5308.2191963349
 10
6473.7382963236
 20
5308.1567070798
 10
6471.3410412285
 20
5308.0927138418
 10
6469.285812694
 20
5308.0272027762
 10
6467.6821113451
 20
5307.9637125662
 10
6466.5668096121
 20
5307.9008224279
 10
6465.9696790717
 20
5307.8353985397
 10
6465.9541951691
 20
5307.8105885388
  0
LWPOLYLINE
  5
321
330
1F
100
AcDbEntity
  8
0
  6
Continuous
 62
     7
370
    25
100
AcDbPolyline
 90
       18
 70
   128
 43
0.0
 10
6496.572170108
 20
5306.7395637837
 10
6496.3412074439
 20
5306.6804865937
 10
6495.553492433
 20
5306.6167921434
 10
6494.2367676454
 20
5306.5512721799
 10
6492.4617572516
 20
5306.4874669578
 10
6490.2974286699
 20
5306.4248410293
 10
6487.7740064731
 20
5306.3595042101
 10
6485.0209835145
 20
5306.2948092792
 10
6482.1684571129
 20
5306.2326214518
 10
6479.2431699096
 20
5306.1677963832
 10
6476.383884275
 20
5306.1025296682
 10
6473.7382963236
 20
5306.0400404131
 10
6471.3410412285
 20
5305.9760471751
 10
6469.285812694
 20
5305.9105361096
 10
6467.6821113451
 20
5305.8470458996
 10
6466.5668096121
 20
5305.7841557613
 10
6465.9696790717
 20
5305.718731873
 10
6465.9541930202
 20
5305.693918429
  0
LWPOLYLINE
  5
322
330
1F
100
AcDbEntity
  8
0
  6
Continuous
 62
     7
370
    25
100
AcDbPolyline
 90
       18
 70
   128
 43
0.0
 10
6496.571973903
 20
5304.6228469304
 10
6496.3412074439
 20
5304.5638199271
 10
6495.553492433
 20
5304.5001254767
 10
6494.2367676454
 20
5304.4346055132
 10
6492.4617572516
 20
5304.3708002912
 10
6490.2974286699
 20
5304.3081743627
 10
6487.7740064731
 20
5304.2428375435
 10
6485.0209835145
 20
5304.1781426125
 10
6482.1684571129
 20
5304.1159547852
 10
6479.2431699096
 20
5304.0511297165
 10
6476.383884275
 20
5303.9858630016
 10
6473.7382963236
 20
5303.9233737464
 10
6471.3410412285
 20
5303.8593805085
 10
6469.285812694
 20
5303.7938694429
 10
6467.6821113451
 20
5303.7303792329
 10
6466.5668096121
 20
5303.6674890946
 10
6465.9696790717
 20
5303.6020652064
 10
6465.9541908723
 20
5303.5772483206
  0
ARC
  5
323
330
1F
100
AcDbEntity
  8
0
  6
Continuous
 62
     7
370
    25
100
AcDbCircle
 10
6484.064544715
 20
5476.7493753529
 30
0.0
 40
174.691536230658
100
AcDbArc
 50
270.2934577005
 51
274.1057008643
  0
LWPOLYLINE
  5
324
330
1F
100
AcDbEntity
  8
0
  6
Continuous
 62
     7
370
    25
100
AcDbPolyline
 90
        5
 70
   128
 43
0.0
 10
6497.0162447621
 20
5310.213512116
 10
6497.1500686807
 20
5310.5268306494
 10
6497.2766125307
 20
5310.5812540204
 10
6497.4039421246
 20
5310.3962898751
 10
6497.4109453355
 20
5310.3793333776
  0
ARC
  5
325
330
1F
100
AcDbEntity
  8
0
  6
Continuous
 62
     7
370
    25
100
AcDbCircle
 10
6489.3918060134
 20
5445.7654628083
 30
0.0
 40
135.7662086187846
100
AcDbArc
 50
271.1558035192
 51
273.2193438516
  0
ARC
  5
326
330
1F
100
AcDbEntity
  8
0
  6
Continuous
 62
     7
370
    25
100
AcDbCircle
 10
6489.0635928868
 20
5287.712896537
 30
0.0
 40
22.52374034648562
100
AcDbArc
 50
82.1744280741
 51
100.4992000018
  0
LWPOLYLINE
  5
327
330
1F
100
AcDbEntity
  8
0
  6
Continuous
 62
     7
370
    25
100
AcDbPolyline
 90
       11
 70
   128
 43
0.0
 10
6484.9592764529
 20
5309.8595320785
 10
6484.4076406339
 20
5309.8482030835
 10
6483.8522938252
 20
5309.836925718
 10
6483.2938851534
 20
5309.825699982
 10
6482.7330673241
 20
5309.8145258755
 10
6481.8806888188
 20
5309.7972673418
 10
6481.4684393802
 20
5309.7888246824
 10
6480.9922250015
 20
5309.7790371156
 10
6480.4524538665
 20
5309.7679046414
 10
6478.1727209566
 20
5309.720445894
 10
6475.9522097454
 20
5309.672897081
  0
ARC
  5
328
330
1F
100
AcDbEntity
  8
0
  6
Continuous
 62
     7
370
    25
100
AcDbCircle
 10
6473.048946871
 20
5289.7727547231
 30
0.0
 40
20.11080806882615
100
AcDbArc
 50
81.6995882147
 51
101.1039553222
  0
ARC
  5
329
330
1F
100
AcDbEntity
  8
0
  6
Continuous
 62
     7
370
    25
100
AcDbCircle
 10
6470.753485592
 20
5228.8337889324
 30
0.0
 40
80.68871216239519
100
AcDbArc
 50
91.1203523279
 51
94.0500493584
  0
LWPOLYLINE
  5
32A
330
1F
100
AcDbEntity
  8
0
  6
Continuous
 62
     7
370
    25
100
AcDbPolyline
 90
        3
 70
   128
 43
0.0
 10
6465.186727445
 20
5309.5196942617
 10
6465.0616189272
 20
5309.3379565417
 10
6465.0546157163
 20
5309.3210000443
  0
LINE
  5
32B
330
1F
100
AcDbEntity
  8
0
  6
Continuous
 62
     7
370
    25
100
AcDbLine
 10
6465.163362628
 20
5310.89742038
 30
0.0
 11
6465.2135781225
 21
5310.9606740861
 31
0.0
  0
LINE
  5
32C
330
1F
100
AcDbEntity
  8
0
  6
Continuous
 62
     7
370
    25
100
AcDbLine
 10
6487.9964221306
 20
5312.1994545927
 30
0.0
 11
6466.4327805259
 21
5312.1994545927
 31
0.0
  0
LINE
  5
32D
330
1F
100
AcDbEntity
  8
0
  6
Continuous
 62
     7
370
    25
100
AcDbLine
 10
6496.0327805259
 20
5312.1994545927
 30
0.0
 11
6487.9964221306
 21
5312.1994545927
 31
0.0
  0
LINE
  5
32E
330
1F
100
AcDbEntity
  8
0
  6
Continuous
 62
     7
370
    25
100
AcDbLine
 10
6487.8327805259
 20
5290.2408509964
 30
0.0
 11
6488.544825504
 21
5290.1994545927
 31
0.0
  0
LWPOLYLINE
  5
32F
330
1F
100
AcDbEntity
  8
0
  6
Continuous
 62
     7
370
    25
100
AcDbPolyline
 90
        3
 70
   128
 43
0.0
 10
6472.5640109811
 20
5290.1994545927
 10
6473.0099031362
 20
5290.2056647565
 10
6474.6327805259
 20
5290.3822981644
  0
LINE
  5
330
330
1F
100
AcDbEntity
  8
0
  6
Continuous
 62
     7
370
    25
100
AcDbLine
 10
6475.9522097454
 20
5303.322897081
 30
0.0
 11
6475.9522097454
 21
5302.1994545927
 31
0.0
  0
LINE
  5
331
330
1F
100
AcDbEntity
  8
0
  6
Continuous
 62
     7
370
    25
100
AcDbLine
 10
6475.9522097454
 20
5302.1994545927
 30
0.0
 11
6478.0941492496
 21
5302.1994545927
 31
0.0
  0
LINE
  5
332
330
1F
100
AcDbEntity
  8
0
  6
Continuous
 62
     7
370
    25
100
AcDbLine
 10
6478.0941492496
 20
5291.8994545927
 30
0.0
 11
6478.0941492496
 21
5302.1994545927
 31
0.0
  0
LWPOLYLINE
  5
333
330
1F
100
AcDbEntity
  8
0
  6
Continuous
 62
     7
370
    25
100
AcDbPolyline
 90
        3
 70
   128
 43
0.0
 10
6467.0338727125
 20
5291.1994545927
 10
6469.7329568861
 20
5290.4527395489
 10
6472.5640109811
 20
5290.1994545927
  0
LINE
  5
334
330
1F
100
AcDbEntity
  8
0
  6
Continuous
 62
     7
370
    25
100
AcDbLine
 10
6467.0338727125
 20
5302.1994545927
 30
0.0
 11
6467.0338727125
 21
5291.1994545927
 31
0.0
  0
LINE
  5
335
330
1F
100
AcDbEntity
  8
0
  6
Continuous
 62
     7
370
    25
100
AcDbLine
 10
6467.0338727125
 20
5302.1994545927
 30
0.0
 11
6469.1758122167
 21
5302.1994545927
 31
0.0
  0
LINE
  5
336
330
1F
100
AcDbEntity
  8
0
  6
Continuous
 62
     7
370
    25
100
AcDbLine
 10
6469.1758122167
 20
5302.1994545927
 30
0.0
 11
6469.1758122167
 21
5303.1570758194
 31
0.0
  0
LINE
  5
337
330
1F
100
AcDbEntity
  8
0
  6
Continuous
 62
     7
370
    25
100
AcDbLine
 10
6482.7354901293
 20
5302.1994545927
 30
0.0
 11
6482.7354811756
 21
5303.1999915994
 31
0.0
  0
LINE
  5
338
330
1F
100
AcDbEntity
  8
0
  6
Continuous
 62
     7
370
    25
100
AcDbLine
 10
6484.9592764529
 20
5303.2449487393
 30
0.0
 11
6484.9592764529
 21
5303.5095320785
 31
0.0
  0
LINE
  5
339
330
1F
100
AcDbEntity
  8
0
  6
Continuous
 62
     7
370
    25
100
AcDbLine
 10
6475.9522097454
 20
5305.4395637476
 30
0.0
 11
6475.9522097454
 21
5305.1749804085
 31
0.0
  0
LINE
  5
33A
330
1F
100
AcDbEntity
  8
0
  6
Continuous
 62
     7
370
    25
100
AcDbLine
 10
6484.9592764529
 20
5305.361615406
 30
0.0
 11
6484.9592764529
 21
5305.6261987451
 31
0.0
  0
LINE
  5
33B
330
1F
100
AcDbEntity
  8
0
  6
Continuous
 62
     7
370
    25
100
AcDbLine
 10
6475.9522097454
 20
5307.5562304143
 30
0.0
 11
6475.9522097454
 21
5307.2916470752
 31
0.0
  0
LINE
  5
33C
330
1F
100
AcDbEntity
  8
0
  6
Continuous
 62
     7
370
    25
100
AcDbLine
 10
6484.9592764529
 20
5307.4782820727
 30
0.0
 11
6484.9592764529
 21
5307.7428654118
 31
0.0
  0
LINE
  5
33D
330
1F
100
AcDbEntity
  8
0
  6
Continuous
 62
     7
370
    25
100
AcDbLine
 10
6475.9522097454
 20
5309.672897081
 30
0.0
 11
6475.9522097454
 21
5309.4083137419
 31
0.0
  0
LINE
  5
33E
330
1F
100
AcDbEntity
  8
0
  6
Continuous
 62
     7
370
    25
100
AcDbLine
 10
6484.9592764529
 20
5309.5949487393
 30
0.0
 11
6484.9592764529
 21
5309.8595320785
 31
0.0
  0
LINE
  5
33F
330
1F
100
AcDbEntity
  8
0
  6
Continuous
 62
     7
370
    25
100
AcDbLine
 10
6482.6925767429
 20
5302.1994545927
 30
0.0
 11
6482.6925767429
 21
5291.8994545927
 31
0.0
  0
LINE
  5
340
330
1F
100
AcDbEntity
  8
0
  6
Continuous
 62
     7
370
    25
100
AcDbLine
 10
6478.0941492496
 20
5302.1994545927
 30
0.0
 11
6482.6925767429
 21
5302.1994545927
 31
0.0
  0
LINE
  5
341
330
1F
100
AcDbEntity
  8
0
  6
Continuous
 62
     7
370
    25
100
AcDbLine
 10
6469.1758122167
 20
5307.1258258136
 30
0.0
 11
6469.1758122167
 21
5307.3904091527
 31
0.0
  0
LINE
  5
342
330
1F
100
AcDbEntity
  8
0
  6
Continuous
 62
     7
370
    25
100
AcDbLine
 10
6469.1758122167
 20
5305.0091591469
 30
0.0
 11
6469.1758122167
 21
5305.2737424861
 31
0.0
  0
LINE
  5
343
330
1F
100
AcDbEntity
  8
0
  6
Continuous
 62
     7
370
    25
100
AcDbLine
 10
6469.1758122167
 20
5309.2424924803
 30
0.0
 11
6469.1758122167
 21
5309.5070758194
 31
0.0
  0
LINE
  5
344
330
1F
100
AcDbEntity
  8
0
  6
Continuous
 62
     7
370
    25
100
AcDbLine
 10
6492.1303745551
 20
5302.1994545927
 30
0.0
 11
6494.3970742651
 21
5302.1994545927
 31
0.0
  0
LINE
  5
345
330
1F
100
AcDbEntity
  8
0
  6
Continuous
 62
     7
370
    25
100
AcDbLine
 10
6494.3970742651
 20
5291.1994545927
 30
0.0
 11
6494.3970742651
 21
5302.1994545927
 31
0.0
  0
LWPOLYLINE
  5
346
330
1F
100
AcDbEntity
  8
0
  6
Continuous
 62
     7
370
    25
100
AcDbPolyline
 90
        3
 70
   128
 43
0.0
 10
6488.544825504
 20
5290.1994545927
 10
6491.4709498845
 20
5290.4409367591
 10
6494.3970742651
 20
5291.1994545927
  0
LINE
  5
347
330
1F
100
AcDbEntity
  8
0
  6
Continuous
 62
     7
370
    25
100
AcDbLine
 10
6484.9592764529
 20
5302.1994545927
 30
0.0
 11
6484.9592764529
 21
5301.3928654118
 31
0.0
  0
LINE
  5
348
330
1F
100
AcDbEntity
  8
0
  6
Continuous
 62
     7
370
    25
100
AcDbLine
 10
6492.1303745551
 20
5301.5602104519
 30
0.0
 11
6492.1303745551
 21
5302.1994545927
 31
0.0
  0
LINE
  5
349
330
1F
100
AcDbEntity
  8
0
  6
Continuous
 62
     7
370
    25
100
AcDbLine
 10
6482.6925767429
 20
5302.1994545927
 30
0.0
 11
6484.9592764529
 21
5302.1994545927
 31
0.0
  0
LINE
  5
34A
330
1F
100
AcDbEntity
  8
0
  6
Continuous
 62
     7
370
    25
100
AcDbLine
 10
6492.1303745551
 20
5303.6768771185
 30
0.0
 11
6492.1303745551
 21
5303.4122937794
 31
0.0
  0
LINE
  5
34B
330
1F
100
AcDbEntity
  8
0
  6
Continuous
 62
     7
370
    25
100
AcDbLine
 10
6492.1303745551
 20
5307.9102104519
 30
0.0
 11
6492.1303745551
 21
5307.6456271128
 31
0.0
  0
LINE
  5
34C
330
1F
100
AcDbEntity
  8
0
  6
Continuous
 62
     7
370
    25
100
AcDbLine
 10
6492.1303745551
 20
5305.7935437852
 30
0.0
 11
6492.1303745551
 21
5305.5289604461
 31
0.0
  0
LINE
  5
34D
330
1F
100
AcDbEntity
  8
0
  6
Continuous
 62
     7
370
    25
100
AcDbLine
 10
6492.1303745551
 20
5310.0268771186
 30
0.0
 11
6492.1303745551
 21
5309.7622937794
 31
0.0
  0
LWPOLYLINE
  5
34E
330
1F
100
AcDbEntity
  8
0
  6
Continuous
 62
     7
370
    25
100
AcDbPolyline
 90
        3
 70
   128
 43
0.0
 10
6465.2135991754
 20
5290.2288265799
 10
6465.0776730177
 20
5290.4828193164
 10
6464.9298555104
 20
5291.1994545927
  0
LINE
  5
34F
330
1F
100
AcDbEntity
  8
0
  6
Continuous
 62
     7
370
    25
100
AcDbLine
 10
6467.0338727125
 20
5291.1994545927
 30
0.0
 11
6464.9298555104
 21
5291.1994545927
 31
0.0
  0
LWPOLYLINE
  5
350
330
1F
100
AcDbEntity
  8
0
  6
Continuous
 62
     7
370
    25
100
AcDbPolyline
 90
        3
 70
   128
 43
0.0
 10
6496.8914845563
 20
5291.1994545927
 10
6497.048696418
 20
5290.4527395489
 10
6497.2135950488
 20
5290.1994545927
  0
LINE
  5
351
330
1F
100
AcDbEntity
  8
0
  6
Continuous
 62
     7
370
    25
100
AcDbLine
 10
6496.8914845563
 20
5291.1994545927
 30
0.0
 11
6494.3970742651
 21
5291.1994545927
 31
0.0
  0
LINE
  5
352
330
1F
100
AcDbEntity
  8
0
  6
Continuous
 62
     7
370
    25
100
AcDbLine
 10
6497.0162447621
 20
5303.5989287769
 30
0.0
 11
6497.0162447621
 21
5303.863512116
 31
0.0
  0
LINE
  5
353
330
1F
100
AcDbEntity
  8
0
  6
Continuous
 62
     7
370
    25
100
AcDbLine
 10
6497.0162447621
 20
5307.8322621103
 30
0.0
 11
6497.0162447621
 21
5308.0968454494
 31
0.0
  0
LINE
  5
354
330
1F
100
AcDbEntity
  8
0
  6
Continuous
 62
     7
370
    25
100
AcDbLine
 10
6497.0162447621
 20
5309.9489287769
 30
0.0
 11
6497.0162447621
 21
5310.213512116
 31
0.0
  0
LINE
  5
355
330
1F
100
AcDbEntity
  8
0
  6
Continuous
 62
     7
370
    25
100
AcDbLine
 10
6497.0162447621
 20
5305.7155954436
 30
0.0
 11
6497.0162447621
 21
5305.9801787827
 31
0.0
  0
LINE
  5
356
330
1F
100
AcDbEntity
  8
0
  6
Continuous
 62
     7
370
    25
100
AcDbLine
 10
6465.0546157163
 20
5307.2043333776
 30
0.0
 11
6465.0546157163
 21
5306.9397500385
 31
0.0
  0
LINE
  5
357
330
1F
100
AcDbEntity
  8
0
  6
Continuous
 62
     7
370
    25
100
AcDbLine
 10
6465.0546157163
 20
5305.0876667109
 30
0.0
 11
6465.0546157163
 21
5304.8230833718
 31
0.0
  0
LINE
  5
358
330
1F
100
AcDbEntity
  8
0
  6
Continuous
 62
     7
370
    25
100
AcDbLine
 10
6465.0546157163
 20
5309.3210000443
 30
0.0
 11
6465.0546157163
 21
5309.0564167052
 31
0.0
  0
LINE
  5
359
330
1F
100
AcDbEntity
  8
0
  6
Continuous
 62
     7
370
    25
100
AcDbLine
 10
6465.0546157163
 20
5302.9710000443
 30
0.0
 11
6465.0546157163
 21
5302.1994545927
 31
0.0
  0
LINE
  5
35A
330
1F
100
AcDbEntity
  8
0
  6
Continuous
 62
     7
370
    25
100
AcDbLine
 10
6496.8914845563
 20
5302.1994545927
 30
0.0
 11
6496.8914845563
 21
5291.1994545927
 31
0.0
  0
LINE
  5
35B
330
1F
100
AcDbEntity
  8
0
  6
Continuous
 62
     7
370
    25
100
AcDbLine
 10
6494.3970742651
 20
5302.1994545927
 30
0.0
 11
6496.8914845563
 21
5302.1994545927
 31
0.0
  0
LINE
  5
35C
330
1F
100
AcDbEntity
  8
0
  6
Continuous
 62
     7
370
    25
100
AcDbLine
 10
6464.9298555104
 20
5291.1994545927
 30
0.0
 11
6464.9298555104
 21
5302.1994545927
 31
0.0
  0
LINE
  5
35D
330
1F
100
AcDbEntity
  8
0
  6
Continuous
 62
     7
370
    25
100
AcDbLine
 10
6464.9298555104
 20
5302.1994545927
 30
0.0
 11
6467.0338727125
 21
5302.1994545927
 31
0.0
  0
LINE
  5
35E
330
1F
100
AcDbEntity
  8
0
  6
Continuous
 62
     7
370
    25
100
AcDbLine
 10
6497.4109453355
 20
5302.1994545927
 30
0.0
 11
6497.5357055414
 21
5302.1994545927
 31
0.0
  0
LINE
  5
35F
330
1F
100
AcDbEntity
  8
0
  6
Continuous
 62
     7
370
    25
100
AcDbLine
 10
6497.5357055414
 20
5291.1994545927
 30
0.0
 11
6497.5357055414
 21
5302.1994545927
 31
0.0
  0
LWPOLYLINE
  5
360
330
1F
100
AcDbEntity
  8
0
  6
Continuous
 62
     7
370
    25
100
AcDbPolyline
 90
        3
 70
   128
 43
0.0
 10
6497.2520708664
 20
5290.2290302394
 10
6497.3878880341
 20
5290.4828193164
 10
6497.5357055414
 20
5291.1994545927
  0
LINE
  5
361
330
1F
100
AcDbEntity
  8
0
  6
Continuous
 62
     7
370
    25
100
AcDbLine
 10
6497.4109453355
 20
5301.9126667109
 30
0.0
 11
6497.4109453355
 21
5302.1994545927
 31
0.0
  0
LINE
  5
362
330
1F
100
AcDbEntity
  8
0
  6
Continuous
 62
     7
370
    25
100
AcDbLine
 10
6496.8914845563
 20
5302.1994545927
 30
0.0
 11
6497.0162447621
 21
5302.1994545927
 31
0.0
  0
LINE
  5
363
330
1F
100
AcDbEntity
  8
0
  6
Continuous
 62
     7
370
    25
100
AcDbLine
 10
6497.0162447621
 20
5302.1994545927
 30
0.0
 11
6497.0162447621
 21
5301.7468454494
 31
0.0
  0
LINE
  5
364
330
1F
100
AcDbEntity
  8
0
  6
Continuous
 62
     7
370
    25
100
AcDbLine
 10
6497.4109453355
 20
5310.3793333776
 30
0.0
 11
6497.4109453355
 21
5310.1147500385
 31
0.0
  0
LINE
  5
365
330
1F
100
AcDbEntity
  8
0
  6
Continuous
 62
     7
370
    25
100
AcDbLine
 10
6497.4109453355
 20
5308.2626667109
 30
0.0
 11
6497.4109453355
 21
5307.9980833718
 31
0.0
  0
LINE
  5
366
330
1F
100
AcDbEntity
  8
0
  6
Continuous
 62
     7
370
    25
100
AcDbLine
 10
6497.4109453355
 20
5304.0293333776
 30
0.0
 11
6497.4109453355
 21
5303.7647500385
 31
0.0
  0
LINE
  5
367
330
1F
100
AcDbEntity
  8
0
  6
Continuous
 62
     7
370
    25
100
AcDbLine
 10
6497.4109453355
 20
5306.1460000443
 30
0.0
 11
6497.4109453355
 21
5305.8814167052
 31
0.0
  0
LINE
  5
368
330
1F
100
AcDbEntity
  8
0
  6
Continuous
 62
     7
370
    25
100
AcDbLine
 10
6497.4109453355
 20
5302.1994545927
 30
0.0
 11
6497.2003401267
 21
5302.1994545927
 31
0.0
  0
LWPOLYLINE
  5
369
330
1F
100
AcDbEntity
  8
0
  6
Continuous
 62
     7
370
    25
100
AcDbPolyline
 90
        5
 70
   128
 43
0.0
 10
6497.0162447621
 20
5117.2841591469
 10
6497.1500569801
 20
5117.5991778656
 10
6497.2765616766
 20
5117.6536517354
 10
6497.4038658248
 20
5117.4671614808
 10
6497.4109453355
 20
5117.4499804085
  0
ARC
  5
36A
330
1F
100
AcDbEntity
  8
0
  6
Continuous
 62
     7
370
    25
100
AcDbCircle
 10
6489.0435709665
 20
5262.3878053165
 30
0.0
 40
145.3225091276485
100
AcDbArc
 50
271.2171144098
 51
273.1449362001
  0
ARC
  5
36B
330
1F
100
AcDbEntity
  8
0
  6
Continuous
 62
     7
370
    25
100
AcDbCircle
 10
6489.0609766447
 20
5094.6937259622
 30
0.0
 40
22.61363381834048
100
AcDbArc
 50
82.1990393277
 51
100.45025245
  0
LINE
  5
36C
330
1F
100
AcDbEntity
  8
0
  6
Continuous
 62
     7
370
    25
100
AcDbLine
 10
6483.3921056975
 20
5116.8994545927
 30
0.0
 11
6484.9592764529
 21
5116.9322621103
 31
0.0
  0
LWPOLYLINE
  5
36D
330
1F
100
AcDbEntity
  8
0
  6
Continuous
 62
     7
370
    25
100
AcDbPolyline
 90
        4
 70
   128
 43
0.0
 10
6475.5780092644
 20
5116.7963699889
 10
6478.0618676759
 20
5116.8293677833
 10
6480.696771053
 20
5116.8639285352
 10
6483.3921056975
 20
5116.8994545927
  0
ARC
  5
36E
330
1F
100
AcDbEntity
  8
0
  6
Continuous
 62
     7
370
    25
100
AcDbCircle
 10
6473.0581025207
 20
5097.0222779256
 30
0.0
 40
19.93400729723324
100
AcDbArc
 50
82.7376695743
 51
99.0721572701
  0
ARC
  5
36F
330
1F
100
AcDbEntity
  8
0
  6
Continuous
 62
     7
370
    25
100
AcDbCircle
 10
6470.3581797501
 20
5027.9494259822
 30
0.0
 40
88.75860241212264
100
AcDbArc
 50
90.2861205016
 51
93.3687216784
  0
LWPOLYLINE
  5
370
330
1F
100
AcDbEntity
  8
0
  6
Continuous
 62
     7
370
    25
100
AcDbPolyline
 90
        5
 70
   128
 43
0.0
 10
6494.5713449343
 20
5115.7537751573
 10
6495.7521601589
 20
5115.7921822968
 10
6496.4332934511
 20
5115.8282365309
 10
6496.6967066642
 20
5115.8636945455
 10
6496.6530919543
 20
5115.8727407781
  0
ARC
  5
371
330
1F
100
AcDbEntity
  8
0
  6
Continuous
 62
     7
370
    25
100
AcDbCircle
 10
6495.1102364108
 20
5120.6795875785
 30
0.0
 40
4.95520252177746
100
AcDbArc
 50
263.7565828665
 51
286.5316568382
  0
LWPOLYLINE
  5
372
330
1F
100
AcDbEntity
  8
0
  6
Continuous
 62
     7
370
    25
100
AcDbPolyline
 90
       18
 70
   128
 43
0.0
 10
6465.9440571805
 20
5116.9997730157
 10
6466.1048355161
 20
5117.0443854905
 10
6466.8791710081
 20
5117.109392137
 10
6468.1771074605
 20
5117.1745266497
 10
6469.9221697404
 20
5117.2368526216
 10
6472.0914029386
 20
5117.30111893
 10
6474.6073403211
 20
5117.3665932668
 10
6477.3316710892
 20
5117.4297438
 10
6480.1963164269
 20
5117.492958907
 10
6483.1320191518
 20
5117.5584421567
 10
6485.980116559
 20
5117.6226597768
 10
6488.631936761
 20
5117.6850113646
 10
6491.0544484754
 20
5117.7501724663
 10
6493.0162898116
 20
5117.8116881273
 10
6494.5713449343
 20
5117.870441824
 10
6495.9056732532
 20
5117.9445036304
 10
6496.4983306886
 20
5118.0098750609
 10
6496.5202251161
 20
5118.0459035096
  0
LWPOLYLINE
  5
373
330
1F
100
AcDbEntity
  8
0
  6
Continuous
 62
     7
370
    25
100
AcDbPolyline
 90
       18
 70
   128
 43
0.0
 10
6465.9440733604
 20
5119.116444172
 10
6466.1048355161
 20
5119.1610521572
 10
6466.8791710081
 20
5119.2260588037
 10
6468.1771074605
 20
5119.2911933164
 10
6469.9221697404
 20
5119.3535192883
 10
6472.0914029386
 20
5119.4177855966
 10
6474.6073403211
 20
5119.4832599335
 10
6477.3316710892
 20
5119.5464104666
 10
6480.1963164269
 20
5119.6096255737
 10
6483.1320191518
 20
5119.6751088234
 10
6485.980116559
 20
5119.7393264435
 10
6488.631936761
 20
5119.8016780313
 10
6491.0544484754
 20
5119.866839133
 10
6493.0162898116
 20
5119.9283547939
 10
6494.5713449343
 20
5119.9871084906
 10
6495.9056732532
 20
5120.0611702971
 10
6496.4983306886
 20
5120.1265417276
 10
6496.5202354062
 20
5120.1625871093
  0
LWPOLYLINE
  5
374
330
1F
100
AcDbEntity
  8
0
  6
Continuous
 62
     7
370
    25
100
AcDbPolyline
 90
       18
 70
   128
 43
0.0
 10
6465.9440895257
 20
5121.2331153241
 10
6466.1048355161
 20
5121.2777188238
 10
6466.8791710081
 20
5121.3427254703
 10
6468.1771074605
 20
5121.4078599831
 10
6469.9221697404
 20
5121.4701859549
 10
6472.0914029386
 20
5121.5344522633
 10
6474.6073403211
 20
5121.5999266001
 10
6477.3316710892
 20
5121.6630771333
 10
6480.1963164269
 20
5121.7262922403
 10
6483.1320191518
 20
5121.7917754901
 10
6485.980116559
 20
5121.8559931102
 10
6488.631936761
 20
5121.9183446979
 10
6491.0544484754
 20
5121.9835057997
 10
6493.0162898116
 20
5122.0450214606
 10
6494.5713449343
 20
5122.1037751573
 10
6495.9056732532
 20
5122.1778369637
 10
6496.4983306886
 20
5122.2432083942
 10
6496.5202457034
 20
5122.2792707204
  0
LWPOLYLINE
  5
375
330
1F
100
AcDbEntity
  8
0
  6
Continuous
 62
     7
370
    25
100
AcDbPolyline
 90
       18
 70
   128
 43
0.0
 10
6465.9441056764
 20
5123.3497864723
 10
6466.1048355161
 20
5123.3943854905
 10
6466.8791710081
 20
5123.459392137
 10
6468.1771074605
 20
5123.5245266497
 10
6469.9221697404
 20
5123.5868526216
 10
6472.0914029386
 20
5123.65111893
 10
6474.6073403211
 20
5123.7165932668
 10
6477.3316710892
 20
5123.7797438
 10
6480.1963164269
 20
5123.842958907
 10
6483.1320191518
 20
5123.9084421567
 10
6485.980116559
 20
5123.9726597768
 10
6488.631936761
 20
5124.0350113646
 10
6491.0544484754
 20
5124.1001724663
 10
6493.0162898116
 20
5124.1616881273
 10
6494.5713449343
 20
5124.220441824
 10
6495.9056732532
 20
5124.2945036304
 10
6496.4983306886
 20
5124.3598750609
 10
6496.5202560078
 20
5124.3959543436
  0
LWPOLYLINE
  5
376
330
1F
100
AcDbEntity
  8
0
  6
Continuous
 62
     7
370
    25
100
AcDbPolyline
 90
        5
 70
   128
 43
0.0
 10
6497.0162447621
 20
5123.6341591469
 10
6497.1500569801
 20
5123.9491778656
 10
6497.2765616766
 20
5124.0036517354
 10
6497.4038658248
 20
5123.8171614808
 10
6497.4109453355
 20
5123.7999804085
  0
ARC
  5
377
330
1F
100
AcDbEntity
  8
0
  6
Continuous
 62
     7
370
    25
100
AcDbCircle
 10
6489.043570966
 20
5268.7378053291
 30
0.0
 40
145.322509140243
100
AcDbArc
 50
271.2171144099
 51
273.1449362001
  0
ARC
  5
378
330
1F
100
AcDbEntity
  8
0
  6
Continuous
 62
     7
370
    25
100
AcDbCircle
 10
6489.0609766446
 20
5101.0437259626
 30
0.0
 40
22.61363381798249
100
AcDbArc
 50
82.1990393275
 51
100.4502524502
  0
LWPOLYLINE
  5
379
330
1F
100
AcDbEntity
  8
0
  6
Continuous
 62
     7
370
    25
100
AcDbPolyline
 90
       11
 70
   128
 43
0.0
 10
6475.9522097456
 20
5123.0956271128
 10
6476.489662241
 20
5123.1069561077
 10
6477.0326588114
 20
5123.1182334732
 10
6477.580564766
 20
5123.1294592092
 10
6478.1327396755
 20
5123.1406333158
 10
6478.975592535
 20
5123.1578918493
 10
6479.3847859297
 20
5123.1663345087
 10
6479.8587244905
 20
5123.1761220755
 10
6480.3975422588
 20
5123.1872545498
 10
6482.6925347551
 20
5123.2347132973
 10
6484.9592764529
 20
5123.2822621103
  0
ARC
  5
37A
330
1F
100
AcDbEntity
  8
0
  6
Continuous
 62
     7
370
    25
100
AcDbCircle
 10
6473.0539496359
 20
5103.1725910358
 30
0.0
 40
20.13274144736561
100
AcDbArc
 50
81.7230821854
 51
101.1062134857
  0
ARC
  5
37B
330
1F
100
AcDbEntity
  8
0
  6
Continuous
 62
     7
370
    25
100
AcDbCircle
 10
6470.5552214549
 20
5046.8741479335
 30
0.0
 40
76.0666424229486
100
AcDbArc
 50
91.0390712332
 51
94.1468481312
  0
LWPOLYLINE
  5
37C
330
1F
100
AcDbEntity
  8
0
  6
Continuous
 62
     7
370
    25
100
AcDbPolyline
 90
        3
 70
   128
 43
0.0
 10
6465.1849380771
 20
5122.9393689297
 10
6465.061695227
 20
5122.7588281475
 10
6465.0546157163
 20
5122.7416470752
  0
LWPOLYLINE
  5
37D
330
1F
100
AcDbEntity
  8
0
  6
Continuous
 62
     7
370
    25
100
AcDbPolyline
 90
        5
 70
   128
 43
0.0
 10
6497.0162447621
 20
5121.5174924803
 10
6497.1500569801
 20
5121.832511199
 10
6497.2765616766
 20
5121.8869850688
 10
6497.4038658248
 20
5121.7004948141
 10
6497.4109453355
 20
5121.6833137418
  0
ARC
  5
37E
330
1F
100
AcDbEntity
  8
0
  6
Continuous
 62
     7
370
    25
100
AcDbCircle
 10
6489.0435709661
 20
5266.6211386597
 30
0.0
 40
145.3225091375106
100
AcDbArc
 50
271.2171144099
 51
273.1449362001
  0
ARC
  5
37F
330
1F
100
AcDbEntity
  8
0
  6
Continuous
 62
     7
370
    25
100
AcDbCircle
 10
6489.0609766447
 20
5098.9270592956
 30
0.0
 40
22.61363381834048
100
AcDbArc
 50
82.1990393277
 51
100.45025245
  0
LWPOLYLINE
  5
380
330
1F
100
AcDbEntity
  8
0
  6
Continuous
 62
     7
370
    25
100
AcDbPolyline
 90
       11
 70
   128
 43
0.0
 10
6475.9522097454
 20
5120.9789604461
 10
6476.4896622409
 20
5120.9902894411
 10
6477.0326588113
 20
5121.0015668066
 10
6477.5805647659
 20
5121.0127925426
 10
6478.1327396754
 20
5121.0239666491
 10
6478.9755925299
 20
5121.0412251826
 10
6479.3847859251
 20
5121.049667842
 10
6479.8587244876
 20
5121.0594554088
 10
6480.3975422588
 20
5121.0705878831
 10
6482.6925347551
 20
5121.1180466306
 10
6484.9592764529
 20
5121.1655954436
  0
ARC
  5
381
330
1F
100
AcDbEntity
  8
0
  6
Continuous
 62
     7
370
    25
100
AcDbCircle
 10
6473.0539496359
 20
5101.0559243694
 30
0.0
 40
20.13274144707145
100
AcDbArc
 50
81.7230821852
 51
101.1062134859
  0
ARC
  5
382
330
1F
100
AcDbEntity
  8
0
  6
Continuous
 62
     7
370
    25
100
AcDbCircle
 10
6470.5552214549
 20
5044.7574812668
 30
0.0
 40
76.06664242300863
100
AcDbArc
 50
91.0390712332
 51
94.1468481312
  0
LWPOLYLINE
  5
383
330
1F
100
AcDbEntity
  8
0
  6
Continuous
 62
     7
370
    25
100
AcDbPolyline
 90
        3
 70
   128
 43
0.0
 10
6465.1851802726
 20
5120.8230570598
 10
6465.061695227
 20
5120.6421614808
 10
6465.0546157163
 20
5120.6249804085
  0
LWPOLYLINE
  5
384
330
1F
100
AcDbEntity
  8
0
  6
Continuous
 62
     7
370
    25
100
AcDbPolyline
 90
        5
 70
   128
 43
0.0
 10
6497.0162447621
 20
5119.4008258136
 10
6497.1500569801
 20
5119.7158445323
 10
6497.2765616766
 20
5119.7703184021
 10
6497.4038658248
 20
5119.5838281475
 10
6497.4109453355
 20
5119.5666470752
  0
ARC
  5
385
330
1F
100
AcDbEntity
  8
0
  6
Continuous
 62
     7
370
    25
100
AcDbCircle
 10
6489.0435709661
 20
5264.504471993
 30
0.0
 40
145.3225091375106
100
AcDbArc
 50
271.2171144099
 51
273.1449362001
  0
ARC
  5
386
330
1F
100
AcDbEntity
  8
0
  6
Continuous
 62
     7
370
    25
100
AcDbCircle
 10
6489.0609766447
 20
5096.8103926289
 30
0.0
 40
22.61363381834048
100
AcDbArc
 50
82.1990393277
 51
100.45025245
  0
LWPOLYLINE
  5
387
330
1F
100
AcDbEntity
  8
0
  6
Continuous
 62
     7
370
    25
100
AcDbPolyline
 90
       11
 70
   128
 43
0.0
 10
6475.9522097454
 20
5118.8622937794
 10
6476.4896622409
 20
5118.8736227744
 10
6477.0326588113
 20
5118.8849001399
 10
6477.5805647659
 20
5118.8961258759
 10
6478.1327396754
 20
5118.9072999824
 10
6478.9755925299
 20
5118.9245585159
 10
6479.3847859251
 20
5118.9330011753
 10
6479.8587244876
 20
5118.9427887422
 10
6480.3975422588
 20
5118.9539212165
 10
6482.6925347551
 20
5119.0013799639
 10
6484.9592764529
 20
5119.0489287769
  0
ARC
  5
388
330
1F
100
AcDbEntity
  8
0
  6
Continuous
 62
     7
370
    25
100
AcDbCircle
 10
6473.0539496359
 20
5098.9392577028
 30
0.0
 40
20.13274144707505
100
AcDbArc
 50
81.7230821852
 51
101.1062134859
  0
ARC
  5
389
330
1F
100
AcDbEntity
  8
0
  6
Continuous
 62
     7
370
    25
100
AcDbCircle
 10
6470.5552214548
 20
5042.6408146017
 30
0.0
 40
76.06664242146422
100
AcDbArc
 50
91.0390712332
 51
94.1468481312
  0
LWPOLYLINE
  5
38A
330
1F
100
AcDbEntity
  8
0
  6
Continuous
 62
     7
370
    25
100
AcDbPolyline
 90
        3
 70
   128
 43
0.0
 10
6465.1854230546
 20
5118.7067460492
 10
6465.061695227
 20
5118.5254948141
 10
6465.0546157163
 20
5118.5083137418
  0
ARC
  5
38B
330
1F
100
AcDbEntity
  8
0
  6
Continuous
 62
     7
370
    25
100
AcDbCircle
 10
6470.5552214548
 20
5042.3762312626
 30
0.0
 40
76.06664242146333
100
AcDbArc
 50
91.0390712332
 51
94.1468481312
  0
ARC
  5
38C
330
1F
100
AcDbEntity
  8
0
  6
Continuous
 62
     7
370
    25
100
AcDbCircle
 10
6472.0742240241
 20
5138.3472586876
 30
0.0
 40
20.12668450659919
100
AcDbArc
 50
261.7201374466
 51
281.1091582245
  0
LWPOLYLINE
  5
38D
330
1F
100
AcDbEntity
  8
0
  6
Continuous
 62
     7
370
    25
100
AcDbPolyline
 90
       11
 70
   128
 43
0.0
 10
6475.9522097454
 20
5118.5977104403
 10
6476.4896622409
 20
5118.6090394353
 10
6477.0326588113
 20
5118.6203168008
 10
6477.5805647659
 20
5118.6315425368
 10
6478.1327396754
 20
5118.6427166433
 10
6478.9755925324
 20
5118.6599751768
 10
6479.3847859273
 20
5118.6684178362
 10
6479.858724489
 20
5118.6782054031
 10
6480.3975422588
 20
5118.6893378774
 10
6482.6925347551
 20
5118.7367966248
 10
6484.9592764529
 20
5118.7843454378
  0
ARC
  5
38E
330
1F
100
AcDbEntity
  8
0
  6
Continuous
 62
     7
370
    25
100
AcDbCircle
 10
6488.0313542101
 20
5141.0728103294
 30
0.0
 40
22.49918507341782
100
AcDbArc
 50
262.1522196134
 51
280.4970721643
  0
ARC
  5
38F
330
1F
100
AcDbEntity
  8
0
  6
Continuous
 62
     7
370
    25
100
AcDbCircle
 10
6489.0435709665
 20
5264.2398886441
 30
0.0
 40
145.3225091276485
100
AcDbArc
 50
271.2171144098
 51
273.1449362001
  0
LWPOLYLINE
  5
390
330
1F
100
AcDbEntity
  8
0
  6
Continuous
 62
     7
370
    25
100
AcDbPolyline
 90
        5
 70
   128
 43
0.0
 10
6497.4109453355
 20
5119.3020637361
 10
6497.277121417
 20
5118.9887452027
 10
6497.150577567
 20
5118.9343218317
 10
6497.0232479731
 20
5119.119285977
 10
6497.0162447621
 20
5119.1362424745
  0
LWPOLYLINE
  5
391
330
1F
100
AcDbEntity
  8
0
  6
Continuous
 62
     7
370
    25
100
AcDbPolyline
 90
        3
 70
   128
 43
0.0
 10
6465.0546157163
 20
5120.3603970694
 10
6465.1884396348
 20
5120.047078536
 10
6465.2415765307
 20
5120.0242256752
  0
ARC
  5
392
330
1F
100
AcDbEntity
  8
0
  6
Continuous
 62
     7
370
    25
100
AcDbCircle
 10
6470.5552214548
 20
5044.4928979292
 30
0.0
 40
76.06664242146242
100
AcDbArc
 50
91.0390712332
 51
94.1468481312
  0
ARC
  5
393
330
1F
100
AcDbEntity
  8
0
  6
Continuous
 62
     7
370
    25
100
AcDbCircle
 10
6472.0740723262
 20
5140.4700681436
 30
0.0
 40
20.13274144707518
100
AcDbArc
 50
261.7230821852
 51
281.1062134859
  0
LWPOLYLINE
  5
394
330
1F
100
AcDbEntity
  8
0
  6
Continuous
 62
     7
370
    25
100
AcDbPolyline
 90
       11
 70
   128
 43
0.0
 10
6475.9522097454
 20
5120.714377107
 10
6476.4896622409
 20
5120.725706102
 10
6477.0326588113
 20
5120.7369834675
 10
6477.5805647659
 20
5120.7482092035
 10
6478.1327396754
 20
5120.75938331
 10
6478.975592532
 20
5120.7766418435
 10
6479.384785927
 20
5120.7850845029
 10
6479.8587244888
 20
5120.7948720697
 10
6480.3975422588
 20
5120.806004544
 10
6482.6925347551
 20
5120.8534632915
 10
6484.9592764529
 20
5120.9010121045
  0
ARC
  5
395
330
1F
100
AcDbEntity
  8
0
  6
Continuous
 62
     7
370
    25
100
AcDbCircle
 10
6488.0313542101
 20
5143.189476996
 30
0.0
 40
22.49918507341693
100
AcDbArc
 50
262.1522196134
 51
280.4970721643
  0
ARC
  5
396
330
1F
100
AcDbEntity
  8
0
  6
Continuous
 62
     7
370
    25
100
AcDbCircle
 10
6489.0435709661
 20
5266.3565553204
 30
0.0
 40
145.322509137364
100
AcDbArc
 50
271.2171144099
 51
273.1449362001
  0
LWPOLYLINE
  5
397
330
1F
100
AcDbEntity
  8
0
  6
Continuous
 62
     7
370
    25
100
AcDbPolyline
 90
        5
 70
   128
 43
0.0
 10
6497.4109453355
 20
5121.4187304027
 10
6497.277121417
 20
5121.1054118694
 10
6497.150577567
 20
5121.0509884984
 10
6497.0232479731
 20
5121.2359526437
 10
6497.0162447621
 20
5121.2529091412
  0
LWPOLYLINE
  5
398
330
1F
100
AcDbEntity
  8
0
  6
Continuous
 62
     7
370
    25
100
AcDbPolyline
 90
        3
 70
   128
 43
0.0
 10
6465.0546157163
 20
5122.4770637361
 10
6465.1884396348
 20
5122.1637452027
 10
6465.2413054418
 20
5122.1410089304
  0
ARC
  5
399
330
1F
100
AcDbEntity
  8
0
  6
Continuous
 62
     7
370
    25
100
AcDbCircle
 10
6470.5552214549
 20
5046.6095645944
 30
0.0
 40
76.06664242300863
100
AcDbArc
 50
91.0390712332
 51
94.1468481312
  0
ARC
  5
39A
330
1F
100
AcDbEntity
  8
0
  6
Continuous
 62
     7
370
    25
100
AcDbCircle
 10
6472.0740723262
 20
5142.5867348102
 30
0.0
 40
20.13274144707339
100
AcDbArc
 50
261.7230821852
 51
281.1062134859
  0
LWPOLYLINE
  5
39B
330
1F
100
AcDbEntity
  8
0
  6
Continuous
 62
     7
370
    25
100
AcDbPolyline
 90
       11
 70
   128
 43
0.0
 10
6475.9522097454
 20
5122.8310437737
 10
6476.4896622409
 20
5122.8423727686
 10
6477.0326588113
 20
5122.8536501341
 10
6477.5805647659
 20
5122.8648758701
 10
6478.1327396754
 20
5122.8760499766
 10
6478.9755925299
 20
5122.8933085101
 10
6479.3847859251
 20
5122.9017511695
 10
6479.8587244876
 20
5122.9115387364
 10
6480.3975422588
 20
5122.9226712107
 10
6482.6925347551
 20
5122.9701299581
 10
6484.9592764529
 20
5123.0176787711
  0
ARC
  5
39C
330
1F
100
AcDbEntity
  8
0
  6
Continuous
 62
     7
370
    25
100
AcDbCircle
 10
6488.0313542101
 20
5145.3061436624
 30
0.0
 40
22.49918507308286
100
AcDbArc
 50
262.1522196133
 51
280.4970721644
  0
ARC
  5
39D
330
1F
100
AcDbEntity
  8
0
  6
Continuous
 62
     7
370
    25
100
AcDbCircle
 10
6489.0435709664
 20
5268.4732219801
 30
0.0
 40
145.3225091303932
100
AcDbArc
 50
271.2171144098
 51
273.1449362001
  0
LWPOLYLINE
  5
39E
330
1F
100
AcDbEntity
  8
0
  6
Continuous
 62
     7
370
    25
100
AcDbPolyline
 90
        5
 70
   128
 43
0.0
 10
6497.4109453355
 20
5123.5353970694
 10
6497.277121417
 20
5123.222078536
 10
6497.150577567
 20
5123.1676551651
 10
6497.0232479731
 20
5123.3526193104
 10
6497.0162447621
 20
5123.3695758078
  0
LWPOLYLINE
  5
39F
330
1F
100
AcDbEntity
  8
0
  6
Continuous
 62
     7
370
    25
100
AcDbPolyline
 90
        3
 70
   128
 43
0.0
 10
6465.0546157163
 20
5124.5937304027
 10
6465.1884396348
 20
5124.2804118694
 10
6465.241033606
 20
5124.2591592447
  0
ARC
  5
3A0
330
1F
100
AcDbEntity
  8
0
  6
Continuous
 62
     7
370
    25
100
AcDbCircle
 10
6470.5552214548
 20
5048.7262312625
 30
0.0
 40
76.06664242149756
100
AcDbArc
 50
91.0390712332
 51
94.1468481312
  0
ARC
  5
3A1
330
1F
100
AcDbEntity
  8
0
  6
Continuous
 62
     7
370
    25
100
AcDbCircle
 10
6472.0750609563
 20
5144.6633683201
 30
0.0
 40
20.09326873271486
100
AcDbArc
 50
261.7038591206
 51
281.1254365505
  0
LWPOLYLINE
  5
3A2
330
1F
100
AcDbEntity
  8
0
  6
Continuous
 62
     7
370
    25
100
AcDbPolyline
 90
       11
 70
   128
 43
0.0
 10
6475.9522097456
 20
5124.9477104403
 10
6476.489662241
 20
5124.9590394353
 10
6477.0326588114
 20
5124.9703168008
 10
6477.580564766
 20
5124.9815425368
 10
6478.1327396755
 20
5124.9927166433
 10
6478.9755924984
 20
5125.0099751761
 10
6479.384785897
 20
5125.0184178356
 10
6479.85872447
 20
5125.0282054027
 10
6480.3975422588
 20
5125.0393378774
 10
6482.6925347551
 20
5125.0867966248
 10
6484.9592764529
 20
5125.1343454378
  0
ARC
  5
3A3
330
1F
100
AcDbEntity
  8
0
  6
Continuous
 62
     7
370
    25
100
AcDbCircle
 10
6488.0334763838
 20
5147.3310349079
 30
0.0
 40
22.40856373456331
100
AcDbArc
 50
262.1148037248
 51
280.5344880529
  0
LWPOLYLINE
  5
3A4
330
1F
100
AcDbEntity
  8
0
  6
Continuous
 62
     7
370
    25
100
AcDbPolyline
 90
        4
 70
   128
 43
0.0
 10
6497.4109453355
 20
5125.6520637361
 10
6497.277121417
 20
5125.3387452027
 10
6497.1470976117
 20
5125.286204064
 10
6497.0162447621
 20
5125.4862424745
  0
LWPOLYLINE
  5
3A5
330
1F
100
AcDbEntity
  8
0
  6
Continuous
 62
     7
370
    25
100
AcDbPolyline
 90
       13
 70
   128
 43
0.0
 10
6473.5982436809
 20
5115.7537751573
 10
6474.7131331811
 20
5115.7816822222
 10
6477.4427886163
 20
5115.8446827441
 10
6480.3132171024
 20
5115.9080530976
 10
6483.2484660938
 20
5115.9735541156
 10
6486.089866086
 20
5116.0376488893
 10
6488.7339212308
 20
5116.1000720911
 10
6491.1445164419
 20
5116.165294256
 10
6493.1903506915
 20
5116.2301879676
 10
6494.7821557774
 20
5116.2923869982
 10
6495.9056731296
 20
5116.357003621
 10
6496.4983306429
 20
5116.4223750515
 10
6496.5124655705
 20
5116.4456347801
  0
LWPOLYLINE
  5
3A6
330
1F
100
AcDbEntity
  8
0
  6
Continuous
 62
     7
370
    25
100
AcDbPolyline
 90
       19
 70
   128
 43
0.0
 10
6465.9009968874
 20
5117.51699138
 10
6466.1048354185
 20
5117.5735521447
 10
6466.8791708006
 20
5117.6385587906
 10
6468.1771071512
 20
5117.7036933035
 10
6469.6740066365
 20
5117.7580195786
 10
6471.4955367748
 20
5117.8134987362
 10
6473.5982436809
 20
5117.870441824
 10
6474.7131331811
 20
5117.8983488889
 10
6477.4427886163
 20
5117.9613494108
 10
6480.3132171024
 20
5118.0247197643
 10
6483.2484660938
 20
5118.0902207823
 10
6486.089866086
 20
5118.154315556
 10
6488.7339212308
 20
5118.2167387577
 10
6491.1445164419
 20
5118.2819609227
 10
6493.1903506915
 20
5118.3468546343
 10
6494.7821557774
 20
5118.4090536648
 10
6495.9056731296
 20
5118.4736702877
 10
6496.4983306429
 20
5118.5390417182
 10
6496.5124677507
 20
5118.5623050344
  0
LWPOLYLINE
  5
3A7
330
1F
100
AcDbEntity
  8
0
  6
Continuous
 62
     7
370
    25
100
AcDbPolyline
 90
       19
 70
   128
 43
0.0
 10
6465.901004255
 20
5119.633660091
 10
6466.1048354185
 20
5119.6902188114
 10
6466.8791708006
 20
5119.7552254573
 10
6468.1771071512
 20
5119.8203599702
 10
6469.6740066365
 20
5119.8746862452
 10
6471.4955367748
 20
5119.9301654028
 10
6473.5982436809
 20
5119.9871084906
 10
6474.7131331811
 20
5120.0150155555
 10
6477.4427886163
 20
5120.0780160774
 10
6480.3132171024
 20
5120.1413864309
 10
6483.2484660938
 20
5120.206887449
 10
6486.089866086
 20
5120.2709822226
 10
6488.7339212308
 20
5120.3334054244
 10
6491.1445164419
 20
5120.3986275894
 10
6493.1903506915
 20
5120.4635213009
 10
6494.7821557774
 20
5120.5257203315
 10
6495.9056731296
 20
5120.5903369544
 10
6496.4983306429
 20
5120.6557083848
 10
6496.5124699298
 20
5120.678975287
  0
LWPOLYLINE
  5
3A8
330
1F
100
AcDbEntity
  8
0
  6
Continuous
 62
     7
370
    25
100
AcDbPolyline
 90
       19
 70
   128
 43
0.0
 10
6465.901088008
 20
5121.7503499973
 10
6466.1048354185
 20
5121.806885478
 10
6466.8791708006
 20
5121.871892124
 10
6468.1771071512
 20
5121.9370266368
 10
6469.6740066365
 20
5121.9913529119
 10
6471.4955367748
 20
5122.0468320695
 10
6473.5982436809
 20
5122.1037751573
 10
6474.7131331811
 20
5122.1316822222
 10
6477.4427886163
 20
5122.1946827441
 10
6480.3132171024
 20
5122.2580530976
 10
6483.2484660938
 20
5122.3235541157
 10
6486.089866086
 20
5122.3876488893
 10
6488.7339212308
 20
5122.4500720911
 10
6491.1445164419
 20
5122.515294256
 10
6493.1903506915
 20
5122.5801879676
 10
6494.7821557774
 20
5122.6423869982
 10
6495.9056731296
 20
5122.707003621
 10
6496.4983306429
 20
5122.7723750515
 10
6496.512472108
 20
5122.7956455378
  0
LWPOLYLINE
  5
3A9
330
1F
100
AcDbEntity
  8
0
  6
Continuous
 62
     7
370
    25
100
AcDbPolyline
 90
       19
 70
   128
 43
0.0
 10
6465.9011716837
 20
5123.8670398822
 10
6466.1048354185
 20
5123.9235521447
 10
6466.8791708006
 20
5123.9885587906
 10
6468.1771071512
 20
5124.0536933035
 10
6469.6740066365
 20
5124.1080195786
 10
6471.4955367748
 20
5124.1634987362
 10
6473.5982436809
 20
5124.220441824
 10
6474.7131331811
 20
5124.2483488889
 10
6477.4427886163
 20
5124.3113494108
 10
6480.3132171024
 20
5124.3747197643
 10
6483.2484660938
 20
5124.4402207823
 10
6486.089866086
 20
5124.504315556
 10
6488.7339212308
 20
5124.5667387577
 10
6491.1445164419
 20
5124.6319609227
 10
6493.1903506915
 20
5124.6968546343
 10
6494.7821557774
 20
5124.7590536648
 10
6495.9056731296
 20
5124.8236702877
 10
6496.4983306429
 20
5124.8890417182
 10
6496.5124742851
 20
5124.912315787
  0
LWPOLYLINE
  5
3AA
330
1F
100
AcDbEntity
  8
0
  6
Continuous
 62
     7
370
    25
100
AcDbPolyline
 90
        7
 70
   128
 43
0.0
 10
6487.1993701228
 20
5116.4707995785
 10
6484.8657495081
 20
5116.3524219301
 10
6482.4669628074
 20
5116.2303867013
 10
6479.8338482138
 20
5116.0952435658
 10
6477.2729393446
 20
5115.9628062019
 10
6475.3781172734
 20
5115.8598879216
 10
6473.5982436809
 20
5115.7537751573
  0
LWPOLYLINE
  5
3AB
330
1F
100
AcDbEntity
  8
0
  6
Continuous
 62
     7
370
    25
100
AcDbPolyline
 90
        3
 70
   128
 43
0.0
 10
6491.3115527961
 20
5116.6990107036
 10
6489.6992138044
 20
5116.518481314
 10
6487.1993701228
 20
5116.4707995785
  0
LWPOLYLINE
  5
3AC
330
1F
100
AcDbEntity
  8
0
  6
Continuous
 62
     7
370
    25
100
AcDbPolyline
 90
        3
 70
   128
 43
0.0
 10
6494.3208814409
 20
5116.8994545927
 10
6492.3693456705
 20
5116.7652411726
 10
6491.3115527961
 20
5116.6990107036
  0
ARC
  5
3AD
330
1F
100
AcDbEntity
  8
0
  6
Continuous
 62
     7
370
    25
100
AcDbCircle
 10
6492.422891375
 20
5189.7881534785
 30
0.0
 40
72.91340611674582
100
AcDbArc
 50
271.4916201424
 51
273.6118756134
  0
LWPOLYLINE
  5
3AE
330
1F
100
AcDbEntity
  8
0
  6
Continuous
 62
     7
370
    25
100
AcDbPolyline
 90
        5
 70
   128
 43
0.0
 10
6497.4109453355
 20
5117.1853970694
 10
6497.277121417
 20
5116.872078536
 10
6497.150577567
 20
5116.8176551651
 10
6497.0232479731
 20
5117.0026193104
 10
6497.0162447621
 20
5117.0195758078
  0
LWPOLYLINE
  5
3AF
330
1F
100
AcDbEntity
  8
0
  6
Continuous
 62
     7
370
    25
100
AcDbPolyline
 90
        3
 70
   128
 43
0.0
 10
6465.0546157163
 20
5118.2437304027
 10
6465.1884396348
 20
5117.9304118694
 10
6465.2418476889
 20
5117.9074423901
  0
ARC
  5
3B0
330
1F
100
AcDbEntity
  8
0
  6
Continuous
 62
     7
370
    25
100
AcDbCircle
 10
6472.5678311557
 20
5128.0618709488
 30
0.0
 40
11.66073257230662
100
AcDbArc
 50
256.8497123474
 51
284.960114497
  0
LINE
  5
3B1
330
1F
100
AcDbEntity
  8
0
  6
Continuous
 62
     7
370
    25
100
AcDbLine
 10
6483.3921056975
 20
5116.8994545927
 30
0.0
 11
6484.9592764529
 21
5116.8994545927
 31
0.0
  0
LINE
  5
3B2
330
1F
100
AcDbEntity
  8
0
  6
Continuous
 62
     7
370
    25
100
AcDbLine
 10
6484.9592764529
 20
5116.8994545927
 30
0.0
 11
6487.1993701228
 21
5116.4707995785
 31
0.0
  0
LINE
  5
3B3
330
1F
100
AcDbEntity
  8
0
  6
Continuous
 62
     7
370
    25
100
AcDbLine
 10
6473.5982436809
 20
5115.7537751573
 30
0.0
 11
6494.5713449343
 21
5115.7537751573
 31
0.0
  0
LINE
  5
3B4
330
1F
100
AcDbEntity
  8
0
  6
Continuous
 62
     7
370
    25
100
AcDbLine
 10
6465.2135880633
 20
5116.4615805689
 30
0.0
 11
6465.1425985934
 21
5116.55465842
 31
0.0
  0
LINE
  5
3B5
330
1F
100
AcDbEntity
  8
0
  6
Continuous
 62
     7
370
    25
100
AcDbLine
 10
6466.4327805259
 20
5115.1994545927
 30
0.0
 11
6496.0327805259
 21
5115.1994545927
 31
0.0
  0
ARC
  5
3B6
330
1F
100
AcDbEntity
  8
0
  6
Continuous
 62
     7
370
    25
100
AcDbCircle
 10
6472.5934693909
 20
5121.571149038
 30
0.0
 40
15.6283333183988
100
AcDbArc
 50
69.3922398833
 51
90.1079989479
  0
ARC
  5
3B7
330
1F
100
AcDbEntity
  8
0
  6
Continuous
 62
     7
370
    25
100
AcDbCircle
 10
6488.5228258764
 20
5119.7037941053
 30
0.0
 40
17.495674318904
100
AcDbArc
 50
89.927954412
 51
109.4655161726
  0
LINE
  5
3B8
330
1F
100
AcDbEntity
  8
0
  6
Continuous
 62
     7
370
    25
100
AcDbLine
 10
6478.0941492496
 20
5136.1994545927
 30
0.0
 11
6482.6925767429
 21
5136.1994545927
 31
0.0
  0
LINE
  5
3B9
330
1F
100
AcDbEntity
  8
0
  6
Continuous
 62
     7
370
    25
100
AcDbLine
 10
6484.9592764529
 20
5125.1343454378
 30
0.0
 11
6484.9592764529
 21
5125.1994545927
 31
0.0
  0
LINE
  5
3BA
330
1F
100
AcDbEntity
  8
0
  6
Continuous
 62
     7
370
    25
100
AcDbLine
 10
6484.9592764529
 20
5125.1994545927
 30
0.0
 11
6482.6925767429
 21
5125.1994545927
 31
0.0
  0
LINE
  5
3BB
330
1F
100
AcDbEntity
  8
0
  6
Continuous
 62
     7
370
    25
100
AcDbLine
 10
6482.6925767429
 20
5136.1994545927
 30
0.0
 11
6482.6925767429
 21
5125.1994545927
 31
0.0
  0
LWPOLYLINE
  5
3BC
330
1F
100
AcDbEntity
  8
0
  6
Continuous
 62
     7
370
    25
100
AcDbPolyline
 90
        3
 70
   128
 43
0.0
 10
6494.3970742651
 20
5136.1994545927
 10
6491.5407782298
 20
5136.9461696365
 10
6488.544825504
 20
5137.1994545927
  0
LINE
  5
3BD
330
1F
100
AcDbEntity
  8
0
  6
Continuous
 62
     7
370
    25
100
AcDbLine
 10
6494.3970742651
 20
5125.1994545927
 30
0.0
 11
6494.3970742651
 21
5136.1994545927
 31
0.0
  0
LINE
  5
3BE
330
1F
100
AcDbEntity
  8
0
  6
Continuous
 62
     7
370
    25
100
AcDbLine
 10
6494.3970742651
 20
5125.1994545927
 30
0.0
 11
6492.1303745551
 21
5125.1994545927
 31
0.0
  0
LINE
  5
3BF
330
1F
100
AcDbEntity
  8
0
  6
Continuous
 62
     7
370
    25
100
AcDbLine
 10
6492.1303745551
 20
5125.1994545927
 30
0.0
 11
6492.1303745551
 21
5125.3001666994
 31
0.0
  0
LINE
  5
3C0
330
1F
100
AcDbEntity
  8
0
  6
Continuous
 62
     7
370
    25
100
AcDbLine
 10
6484.9592764529
 20
5118.7843454378
 30
0.0
 11
6484.9592764529
 21
5119.0489287769
 31
0.0
  0
LINE
  5
3C1
330
1F
100
AcDbEntity
  8
0
  6
Continuous
 62
     7
370
    25
100
AcDbLine
 10
6475.9522097454
 20
5118.8622937794
 30
0.0
 11
6475.9522097454
 21
5118.5977104403
 31
0.0
  0
LINE
  5
3C2
330
1F
100
AcDbEntity
  8
0
  6
Continuous
 62
     7
370
    25
100
AcDbLine
 10
6484.9592764529
 20
5120.9010121045
 30
0.0
 11
6484.9592764529
 21
5121.1655954436
 31
0.0
  0
LINE
  5
3C3
330
1F
100
AcDbEntity
  8
0
  6
Continuous
 62
     7
370
    25
100
AcDbLine
 10
6475.9522097454
 20
5120.9789604461
 30
0.0
 11
6475.9522097454
 21
5120.714377107
 31
0.0
  0
LINE
  5
3C4
330
1F
100
AcDbEntity
  8
0
  6
Continuous
 62
     7
370
    25
100
AcDbLine
 10
6484.9592764529
 20
5123.0176787711
 30
0.0
 11
6484.9592764529
 21
5123.2822621103
 31
0.0
  0
LINE
  5
3C5
330
1F
100
AcDbEntity
  8
0
  6
Continuous
 62
     7
370
    25
100
AcDbLine
 10
6475.9522097454
 20
5123.0956271128
 30
0.0
 11
6475.9522097454
 21
5122.8310437737
 31
0.0
  0
LINE
  5
3C6
330
1F
100
AcDbEntity
  8
0
  6
Continuous
 62
     7
370
    25
100
AcDbLine
 10
6475.9522097454
 20
5125.1994545927
 30
0.0
 11
6475.9522097454
 21
5124.9477104403
 31
0.0
  0
LINE
  5
3C7
330
1F
100
AcDbEntity
  8
0
  6
Continuous
 62
     7
370
    25
100
AcDbLine
 10
6478.0941492496
 20
5125.1994545927
 30
0.0
 11
6478.0941492496
 21
5136.1994545927
 31
0.0
  0
LINE
  5
3C8
330
1F
100
AcDbEntity
  8
0
  6
Continuous
 62
     7
370
    25
100
AcDbLine
 10
6482.6925767429
 20
5125.1994545927
 30
0.0
 11
6478.0941492496
 21
5125.1994545927
 31
0.0
  0
LINE
  5
3C9
330
1F
100
AcDbEntity
  8
0
  6
Continuous
 62
     7
370
    25
100
AcDbLine
 10
6492.1303745551
 20
5123.4480833718
 30
0.0
 11
6492.1303745551
 21
5123.1835000327
 31
0.0
  0
LINE
  5
3CA
330
1F
100
AcDbEntity
  8
0
  6
Continuous
 62
     7
370
    25
100
AcDbLine
 10
6492.1303745551
 20
5121.3314167052
 30
0.0
 11
6492.1303745551
 21
5121.0668333661
 31
0.0
  0
LINE
  5
3CB
330
1F
100
AcDbEntity
  8
0
  6
Continuous
 62
     7
370
    25
100
AcDbLine
 10
6492.1303745551
 20
5119.2147500385
 30
0.0
 11
6492.1303745551
 21
5118.9501666994
 31
0.0
  0
LINE
  5
3CC
330
1F
100
AcDbEntity
  8
0
  6
Continuous
 62
     7
370
    25
100
AcDbLine
 10
6492.1303745551
 20
5117.0980833718
 30
0.0
 11
6492.1303745551
 21
5116.8994545927
 31
0.0
  0
LINE
  5
3CD
330
1F
100
AcDbEntity
  8
0
  6
Continuous
 62
     7
370
    25
100
AcDbLine
 10
6491.3115527961
 20
5116.6990107036
 30
0.0
 11
6492.1303745551
 21
5116.8994545927
 31
0.0
  0
LINE
  5
3CE
330
1F
100
AcDbEntity
  8
0
  6
Continuous
 62
     7
370
    25
100
AcDbLine
 10
6484.9592764529
 20
5116.8994545927
 30
0.0
 11
6484.9592764529
 21
5116.9322621103
 31
0.0
  0
LINE
  5
3CF
330
1F
100
AcDbEntity
  8
0
  6
Continuous
 62
     7
370
    25
100
AcDbLine
 10
6469.1758122167
 20
5124.7803654002
 30
0.0
 11
6469.1758122167
 21
5125.1994545927
 31
0.0
  0
LINE
  5
3D0
330
1F
100
AcDbEntity
  8
0
  6
Continuous
 62
     7
370
    25
100
AcDbLine
 10
6469.1758122167
 20
5125.1994545927
 30
0.0
 11
6467.0338727125
 21
5125.1994545927
 31
0.0
  0
LINE
  5
3D1
330
1F
100
AcDbEntity
  8
0
  6
Continuous
 62
     7
370
    25
100
AcDbLine
 10
6467.0338727125
 20
5136.1994545927
 30
0.0
 11
6467.0338727125
 21
5125.1994545927
 31
0.0
  0
LWPOLYLINE
  5
3D2
330
1F
100
AcDbEntity
  8
0
  6
Continuous
 62
     7
370
    25
100
AcDbPolyline
 90
        3
 70
   128
 43
0.0
 10
6472.5640109811
 20
5137.1994545927
 10
6469.7989418468
 20
5136.9579724263
 10
6467.0338727125
 20
5136.1994545927
  0
LINE
  5
3D3
330
1F
100
AcDbEntity
  8
0
  6
Continuous
 62
     7
370
    25
100
AcDbLine
 10
6478.0941492496
 20
5125.1994545927
 30
0.0
 11
6475.9522097454
 21
5125.1994545927
 31
0.0
  0
LWPOLYLINE
  5
3D4
330
1F
100
AcDbEntity
  8
0
  6
Continuous
 62
     7
370
    25
100
AcDbPolyline
 90
        4
 70
   128
 43
0.0
 10
6497.2135950488
 20
5137.1994545927
 10
6497.1876234484
 20
5137.1932444289
 10
6497.0393020635
 20
5136.916089869
 10
6496.8914845563
 20
5136.1994545927
  0
LINE
  5
3D5
330
1F
100
AcDbEntity
  8
0
  6
Continuous
 62
     7
370
    25
100
AcDbLine
 10
6494.3970742651
 20
5136.1994545927
 30
0.0
 11
6496.8914845563
 21
5136.1994545927
 31
0.0
  0
LINE
  5
3D6
330
1F
100
AcDbEntity
  8
0
  6
Continuous
 62
     7
370
    25
100
AcDbLine
 10
6469.1758122167
 20
5122.6636987336
 30
0.0
 11
6469.1758122167
 21
5122.9282820727
 31
0.0
  0
LINE
  5
3D7
330
1F
100
AcDbEntity
  8
0
  6
Continuous
 62
     7
370
    25
100
AcDbLine
 10
6469.1758122167
 20
5118.4303654002
 30
0.0
 11
6469.1758122167
 21
5118.6949487393
 31
0.0
  0
LINE
  5
3D8
330
1F
100
AcDbEntity
  8
0
  6
Continuous
 62
     7
370
    25
100
AcDbLine
 10
6469.1758122167
 20
5120.5470320669
 30
0.0
 11
6469.1758122167
 21
5120.811615406
 31
0.0
  0
LINE
  5
3D9
330
1F
100
AcDbEntity
  8
0
  6
Continuous
 62
     7
370
    25
100
AcDbLine
 10
6464.9298555104
 20
5136.1994545927
 30
0.0
 11
6467.0338727125
 21
5136.1994545927
 31
0.0
  0
LWPOLYLINE
  5
3DA
330
1F
100
AcDbEntity
  8
0
  6
Continuous
 62
     7
370
    25
100
AcDbPolyline
 90
        3
 70
   128
 43
0.0
 10
6464.9298555104
 20
5136.1994545927
 10
6465.0870673721
 20
5136.9461696365
 10
6465.2135470533
 20
5137.1404429325
  0
LINE
  5
3DB
330
1F
100
AcDbEntity
  8
0
  6
Continuous
 62
     7
370
    25
100
AcDbLine
 10
6492.1303745551
 20
5116.8994545927
 30
0.0
 11
6494.3208814409
 21
5116.8994545927
 31
0.0
  0
LINE
  5
3DC
330
1F
100
AcDbEntity
  8
0
  6
Continuous
 62
     7
370
    25
100
AcDbLine
 10
6497.0162447621
 20
5117.0195758078
 30
0.0
 11
6497.0162447621
 21
5117.2841591469
 31
0.0
  0
LINE
  5
3DD
330
1F
100
AcDbEntity
  8
0
  6
Continuous
 62
     7
370
    25
100
AcDbLine
 10
6497.0162447621
 20
5119.1362424745
 30
0.0
 11
6497.0162447621
 21
5119.4008258136
 31
0.0
  0
LINE
  5
3DE
330
1F
100
AcDbEntity
  8
0
  6
Continuous
 62
     7
370
    25
100
AcDbLine
 10
6497.0162447621
 20
5123.3695758078
 30
0.0
 11
6497.0162447621
 21
5123.6341591469
 31
0.0
  0
LINE
  5
3DF
330
1F
100
AcDbEntity
  8
0
  6
Continuous
 62
     7
370
    25
100
AcDbLine
 10
6497.0162447621
 20
5121.2529091412
 30
0.0
 11
6497.0162447621
 21
5121.5174924803
 31
0.0
  0
LINE
  5
3E0
330
1F
100
AcDbEntity
  8
0
  6
Continuous
 62
     7
370
    25
100
AcDbLine
 10
6496.8914845563
 20
5136.1994545927
 30
0.0
 11
6496.8914845563
 21
5125.1994545927
 31
0.0
  0
LINE
  5
3E1
330
1F
100
AcDbEntity
  8
0
  6
Continuous
 62
     7
370
    25
100
AcDbLine
 10
6496.8914845563
 20
5125.1994545927
 30
0.0
 11
6494.3970742651
 21
5125.1994545927
 31
0.0
  0
LINE
  5
3E2
330
1F
100
AcDbEntity
  8
0
  6
Continuous
 62
     7
370
    25
100
AcDbLine
 10
6465.0546157163
 20
5122.7416470752
 30
0.0
 11
6465.0546157163
 21
5122.4770637361
 31
0.0
  0
LINE
  5
3E3
330
1F
100
AcDbEntity
  8
0
  6
Continuous
 62
     7
370
    25
100
AcDbLine
 10
6465.0546157163
 20
5118.5083137418
 30
0.0
 11
6465.0546157163
 21
5118.2437304027
 31
0.0
  0
LINE
  5
3E4
330
1F
100
AcDbEntity
  8
0
  6
Continuous
 62
     7
370
    25
100
AcDbLine
 10
6465.0546157163
 20
5120.6249804085
 30
0.0
 11
6465.0546157163
 21
5120.3603970694
 31
0.0
  0
LINE
  5
3E5
330
1F
100
AcDbEntity
  8
0
  6
Continuous
 62
     7
370
    25
100
AcDbLine
 10
6465.0546157163
 20
5125.1994545927
 30
0.0
 11
6465.0546157163
 21
5124.5937304027
 31
0.0
  0
LINE
  5
3E6
330
1F
100
AcDbEntity
  8
0
  6
Continuous
 62
     7
370
    25
100
AcDbLine
 10
6464.9298555104
 20
5125.1994545927
 30
0.0
 11
6464.9298555104
 21
5136.1994545927
 31
0.0
  0
LINE
  5
3E7
330
1F
100
AcDbEntity
  8
0
  6
Continuous
 62
     7
370
    25
100
AcDbLine
 10
6467.0338727125
 20
5125.1994545927
 30
0.0
 11
6464.9298555104
 21
5125.1994545927
 31
0.0
  0
LWPOLYLINE
  5
3E8
330
1F
100
AcDbEntity
  8
0
  6
Continuous
 62
     7
370
    25
100
AcDbPolyline
 90
        3
 70
   128
 43
0.0
 10
6497.5357055414
 20
5136.1994545927
 10
6497.3784936797
 20
5136.9461696365
 10
6497.2519174869
 20
5137.1405911747
  0
LINE
  5
3E9
330
1F
100
AcDbEntity
  8
0
  6
Continuous
 62
     7
370
    25
100
AcDbLine
 10
6497.5357055414
 20
5125.1994545927
 30
0.0
 11
6497.5357055414
 21
5136.1994545927
 31
0.0
  0
LINE
  5
3EA
330
1F
100
AcDbEntity
  8
0
  6
Continuous
 62
     7
370
    25
100
AcDbLine
 10
6497.5357055414
 20
5125.1994545927
 30
0.0
 11
6497.4109453355
 21
5125.1994545927
 31
0.0
  0
LINE
  5
3EB
330
1F
100
AcDbEntity
  8
0
  6
Continuous
 62
     7
370
    25
100
AcDbLine
 10
6497.4109453355
 20
5125.1994545927
 30
0.0
 11
6497.4109453355
 21
5125.6520637361
 31
0.0
  0
LINE
  5
3EC
330
1F
100
AcDbEntity
  8
0
  6
Continuous
 62
     7
370
    25
100
AcDbLine
 10
6497.0162447621
 20
5125.4862424745
 30
0.0
 11
6497.0162447621
 21
5125.1994545927
 31
0.0
  0
LINE
  5
3ED
330
1F
100
AcDbEntity
  8
0
  6
Continuous
 62
     7
370
    25
100
AcDbLine
 10
6497.0162447621
 20
5125.1994545927
 30
0.0
 11
6496.8914845563
 21
5125.1994545927
 31
0.0
  0
LINE
  5
3EE
330
1F
100
AcDbEntity
  8
0
  6
Continuous
 62
     7
370
    25
100
AcDbLine
 10
6497.4109453355
 20
5121.6833137418
 30
0.0
 11
6497.4109453355
 21
5121.4187304027
 31
0.0
  0
LINE
  5
3EF
330
1F
100
AcDbEntity
  8
0
  6
Continuous
 62
     7
370
    25
100
AcDbLine
 10
6497.4109453355
 20
5123.7999804085
 30
0.0
 11
6497.4109453355
 21
5123.5353970694
 31
0.0
  0
LINE
  5
3F0
330
1F
100
AcDbEntity
  8
0
  6
Continuous
 62
     7
370
    25
100
AcDbLine
 10
6497.4109453355
 20
5117.4499804085
 30
0.0
 11
6497.4109453355
 21
5117.1853970694
 31
0.0
  0
LINE
  5
3F1
330
1F
100
AcDbEntity
  8
0
  6
Continuous
 62
     7
370
    25
100
AcDbLine
 10
6497.4109453355
 20
5119.5666470752
 30
0.0
 11
6497.4109453355
 21
5119.3020637361
 31
0.0
  0
LINE
  5
3F2
330
1F
100
AcDbEntity
  8
0
  6
Continuous
 62
     7
370
    25
100
AcDbLine
 10
6497.1021932655
 20
5125.1994545927
 30
0.0
 11
6497.4109453355
 21
5125.1994545927
 31
0.0
  0
LINE
  5
3F3
330
1F
100
AcDbEntity
  8
0
  6
Continuous
 62
     7
370
    25
100
AcDbLine
 10
6544.2327805259
 20
5287.1894545927
 30
0.0
 11
6446.2327805259
 21
5287.1894545927
 31
0.0
  0
LINE
  5
3F4
330
1F
100
AcDbEntity
  8
0
  6
Continuous
 62
     7
370
    25
100
AcDbLine
 10
6544.2327805259
 20
5140.2094545927
 30
0.0
 11
6544.2327805259
 21
5287.1894545927
 31
0.0
  0
LINE
  5
3F5
330
1F
100
AcDbEntity
  8
0
  6
Continuous
 62
     7
370
    25
100
AcDbLine
 10
6446.2327805259
 20
5140.2094545927
 30
0.0
 11
6544.2327805259
 21
5140.2094545927
 31
0.0
  0
LINE
  5
3F6
330
1F
100
AcDbEntity
  8
0
  6
Continuous
 62
     7
370
    25
100
AcDbLine
 10
6446.2327805259
 20
5140.2094545927
 30
0.0
 11
6446.2327805259
 21
5287.1894545927
 31
0.0
  0
LINE
  5
3F7
330
1F
100
AcDbEntity
  8
0
  6
Continuous
 62
     7
370
    25
100
AcDbLine
 10
6446.2327805259
 20
5287.1894545927
 30
0.0
 11
6446.2327805259
 21
5289.1894545927
 31
0.0
  0
LINE
  5
3F8
330
1F
100
AcDbEntity
  8
0
  6
Continuous
 62
     7
370
    25
100
AcDbLine
 10
6543.5256737447
 20
5289.1894545927
 30
0.0
 11
6446.2327805259
 21
5289.1894545927
 31
0.0
  0
ARC
  5
3F9
330
1F
100
AcDbEntity
  8
0
  6
Continuous
 62
     7
370
    25
100
AcDbCircle
 10
6539.5571635158
 20
5286.6613743457
 30
0.0
 40
4.705344107765935
100
AcDbArc
 50
6.4438749229
 51
32.498566346
  0
LINE
  5
3FA
330
1F
100
AcDbEntity
  8
0
  6
Continuous
 62
     7
370
    25
100
AcDbLine
 10
6444.2327805259
 20
5287.1894545927
 30
0.0
 11
6446.2327805259
 21
5287.1894545927
 31
0.0
  0
LINE
  5
3FB
330
1F
100
AcDbEntity
  8
0
  6
Continuous
 62
     7
370
    25
100
AcDbLine
 10
6446.2327805259
 20
5140.2094545927
 30
0.0
 11
6444.2327805259
 21
5140.2094545927
 31
0.0
  0
LINE
  5
3FC
330
1F
100
AcDbEntity
  8
0
  6
Continuous
 62
     7
370
    25
100
AcDbLine
 10
6444.2327805259
 20
5140.2094545927
 30
0.0
 11
6444.2327805259
 21
5287.1894545927
 31
0.0
  0
ARC
  5
3FD
330
1F
100
AcDbEntity
  8
0
  6
Continuous
 62
     7
370
    25
100
AcDbCircle
 10
6540.9564890108
 20
5140.2427985665
 30
0.0
 40
3.276461187398499
100
AcDbArc
 50
321.6406579459
 51
359.4169007851
  0
LINE
  5
3FE
330
1F
100
AcDbEntity
  8
0
  6
Continuous
 62
     7
370
    25
100
AcDbLine
 10
6446.2327805259
 20
5138.2094545927
 30
0.0
 11
6543.5256737447
 21
5138.2094545927
 31
0.0
  0
LINE
  5
3FF
330
1F
100
AcDbEntity
  8
0
  6
Continuous
 62
     7
370
    25
100
AcDbLine
 10
6446.2327805259
 20
5138.2094545927
 30
0.0
 11
6446.2327805259
 21
5140.2094545927
 31
0.0
  0
LINE
  5
400
330
1F
100
AcDbEntity
  8
0
  6
Continuous
 62
     7
370
    25
100
AcDbLine
 10
6544.2327805259
 20
5287.1894545927
 30
0.0
 11
6546.2327805259
 21
5287.1894545927
 31
0.0
  0
LINE
  5
401
330
1F
100
AcDbEntity
  8
0
  6
Continuous
 62
     7
370
    25
100
AcDbLine
 10
6546.2327805259
 20
5140.2094545927
 30
0.0
 11
6544.2327805259
 21
5140.2094545927
 31
0.0
  0
ARC
  5
402
330
1F
100
AcDbEntity
  8
0
  6
Continuous
 62
     7
370
    25
100
AcDbCircle
 10
6544.2327805259
 20
5287.1894545927
 30
0.0
 40
0.9999999999972715
100
AcDbArc
 50
359.9999999998
 51
90.0000000002
  0
LINE
  5
403
330
1F
100
AcDbEntity
  8
0
  6
Continuous
 62
     7
370
    25
100
AcDbLine
 10
6544.2327805259
 20
5289.1894545927
 30
0.0
 11
6544.2327805259
 21
5288.1894545927
 31
0.0
  0
ARC
  5
404
330
1F
100
AcDbEntity
  8
0
  6
Continuous
 62
     7
370
    25
100
AcDbCircle
 10
6544.2327805259
 20
5287.1894545927
 30
0.0
 40
2.000000000003638
100
AcDbArc
 50
0.0000000001
 51
89.9999999999
  0
ARC
  5
405
330
1F
100
AcDbEntity
  8
0
  6
Continuous
 62
     7
370
    25
100
AcDbCircle
 10
6544.2327805259
 20
5140.2094545927
 30
0.0
 40
2.000000000003638
100
AcDbArc
 50
270.0000000001
 51
359.9999999999
  0
LINE
  5
406
330
1F
100
AcDbEntity
  8
0
  6
Continuous
 62
     7
370
    25
100
AcDbLine
 10
6544.2327805259
 20
5138.2094545927
 30
0.0
 11
6544.2327805259
 21
5139.2094545927
 31
0.0
  0
ARC
  5
407
330
1F
100
AcDbEntity
  8
0
  6
Continuous
 62
     7
370
    25
100
AcDbCircle
 10
6544.2327805259
 20
5140.2094545927
 30
0.0
 40
0.9999999999990905
100
AcDbArc
 50
270.0
 51
0.0000000001
  0
LINE
  5
408
330
1F
100
AcDbEntity
  8
0
  6
Continuous
 62
     7
370
    25
100
AcDbLine
 10
6444.2327805259
 20
5288.1994545927
 30
0.0
 11
6444.2327805259
 21
5287.1894545927
 31
0.0
  0
LINE
  5
409
330
1F
100
AcDbEntity
  8
0
  6
Continuous
 62
     7
370
    25
100
AcDbLine
 10
6444.2327805259
 20
5288.1994545927
 30
0.0
 11
6445.2327805259
 21
5288.1994545927
 31
0.0
  0
LINE
  5
40A
330
1F
100
AcDbEntity
  8
0
  6
Continuous
 62
     7
370
    25
100
AcDbLine
 10
6445.2327805259
 20
5288.1994545927
 30
0.0
 11
6445.2327805259
 21
5287.1894545927
 31
0.0
  0
ARC
  5
40B
330
1F
100
AcDbEntity
  8
0
  6
Continuous
 62
     7
370
    25
100
AcDbCircle
 10
6446.2327805259
 20
5288.1994545927
 30
0.0
 40
2.0
100
AcDbArc
 50
90.0
 51
180.0
  0
LINE
  5
40C
330
1F
100
AcDbEntity
  8
0
  6
Continuous
 62
     7
370
    25
100
AcDbLine
 10
6446.2327805259
 20
5289.1994545927
 30
0.0
 11
6446.2327805259
 21
5290.1994545927
 31
0.0
  0
ARC
  5
40D
330
1F
100
AcDbEntity
  8
0
  6
Continuous
 62
     7
370
    25
100
AcDbCircle
 10
6446.2327805259
 20
5288.1994545927
 30
0.0
 40
1.0
100
AcDbArc
 50
90.0
 51
180.0
  0
LINE
  5
40E
330
1F
100
AcDbEntity
  8
0
  6
Continuous
 62
     7
370
    25
100
AcDbLine
 10
6444.2327805259
 20
5139.1994545927
 30
0.0
 11
6445.2327805259
 21
5139.1994545927
 31
0.0
  0
LINE
  5
40F
330
1F
100
AcDbEntity
  8
0
  6
Continuous
 62
     7
370
    25
100
AcDbLine
 10
6445.2327805259
 20
5140.2094545927
 30
0.0
 11
6445.2327805259
 21
5139.1994545927
 31
0.0
  0
LINE
  5
410
330
1F
100
AcDbEntity
  8
0
  6
Continuous
 62
     7
370
    25
100
AcDbLine
 10
6444.2327805259
 20
5140.2094545927
 30
0.0
 11
6444.2327805259
 21
5139.1994545927
 31
0.0
  0
ARC
  5
411
330
1F
100
AcDbEntity
  8
0
  6
Continuous
 62
     7
370
    25
100
AcDbCircle
 10
6446.2327805259
 20
5139.1994545927
 30
0.0
 40
1.0
100
AcDbArc
 50
180.0
 51
269.9999999999
  0
LINE
  5
412
330
1F
100
AcDbEntity
  8
0
  6
Continuous
 62
     7
370
    25
100
AcDbLine
 10
6446.2327805259
 20
5138.1994545927
 30
0.0
 11
6446.2327805259
 21
5137.1994545927
 31
0.0
  0
ARC
  5
413
330
1F
100
AcDbEntity
  8
0
  6
Continuous
 62
     7
370
    25
100
AcDbCircle
 10
6446.2327805259
 20
5139.1994545927
 30
0.0
 40
2.000000000000909
100
AcDbArc
 50
180.0
 51
270.0
  0
LINE
  5
414
330
1F
100
AcDbEntity
  8
0
  6
Continuous
 62
     7
370
    25
100
AcDbLine
 10
6446.2327805259
 20
5290.1994545927
 30
0.0
 11
6544.2327805259
 21
5290.1994545927
 31
0.0
  0
LINE
  5
415
330
1F
100
AcDbEntity
  8
0
  6
Continuous
 62
     7
370
    25
100
AcDbLine
 10
6544.2327805259
 20
5290.1994545927
 30
0.0
 11
6544.2327805259
 21
5289.1994545927
 31
0.0
  0
LINE
  5
416
330
1F
100
AcDbEntity
  8
0
  6
Continuous
 62
     7
370
    25
100
AcDbLine
 10
6446.2327805259
 20
5289.1994545927
 30
0.0
 11
6544.2327805259
 21
5289.1994545927
 31
0.0
  0
LINE
  5
417
330
1F
100
AcDbEntity
  8
0
  6
Continuous
 62
     7
370
    25
100
AcDbLine
 10
6544.2327805259
 20
5138.1994545927
 30
0.0
 11
6446.2327805259
 21
5138.1994545927
 31
0.0
  0
LINE
  5
418
330
1F
100
AcDbEntity
  8
0
  6
Continuous
 62
     7
370
    25
100
AcDbLine
 10
6544.2327805259
 20
5137.1994545927
 30
0.0
 11
6544.2327805259
 21
5138.1994545927
 31
0.0
  0
LINE
  5
419
330
1F
100
AcDbEntity
  8
0
  6
Continuous
 62
     7
370
    25
100
AcDbLine
 10
6544.2327805259
 20
5137.1994545927
 30
0.0
 11
6446.2327805259
 21
5137.1994545927
 31
0.0
  0
LINE
  5
41A
330
1F
100
AcDbEntity
  8
0
  6
Continuous
 62
     7
370
    25
100
AcDbLine
 10
6544.2327805259
 20
5288.1894545927
 30
0.0
 11
6543.99676281
 21
5288.1894545927
 31
0.0
  0
LINE
  5
41B
330
1F
100
AcDbEntity
  8
0
  6
Continuous
 62
     7
370
    25
100
AcDbLine
 10
6544.2327805259
 20
5289.1894545927
 30
0.0
 11
6543.5256737447
 21
5289.1894545927
 31
0.0
  0
LINE
  5
41C
330
1F
100
AcDbEntity
  8
0
  6
Continuous
 62
     7
370
    25
100
AcDbLine
 10
6543.9932187164
 20
5139.2094545927
 30
0.0
 11
6544.2327805259
 21
5139.2094545927
 31
0.0
  0
LINE
  5
41D
330
1F
100
AcDbEntity
  8
0
  6
Continuous
 62
     7
370
    25
100
AcDbLine
 10
6543.5256737447
 20
5138.2094545927
 30
0.0
 11
6544.2327805259
 21
5138.2094545927
 31
0.0
  0
LINE
  5
41E
330
1F
100
AcDbEntity
  8
0
  6
Continuous
 62
     7
370
    25
100
AcDbLine
 10
6549.7327805259
 20
5184.6994545927
 30
0.0
 11
6549.7327805259
 21
5212.6994545927
 31
0.0
  0
LINE
  5
41F
330
1F
100
AcDbEntity
  8
0
  6
Continuous
 62
     7
370
    25
100
AcDbLine
 10
6551.2327805259
 20
5211.1994545927
 30
0.0
 11
6551.2327805259
 21
5186.1994545927
 31
0.0
  0
LINE
  5
420
330
1F
100
AcDbEntity
  8
0
  6
Continuous
 62
     7
370
    25
100
AcDbLine
 10
6546.2327805259
 20
5296.6994545927
 30
0.0
 11
6546.2327805259
 21
5298.6994545927
 31
0.0
  0
LINE
  5
421
330
1F
100
AcDbEntity
  8
0
  6
Continuous
 62
     7
370
    25
100
AcDbLine
 10
6546.2327805259
 20
5298.6994545927
 30
0.0
 11
6548.2327805259
 21
5298.6994545927
 31
0.0
  0
LINE
  5
422
330
1F
100
AcDbEntity
  8
0
  6
Continuous
 62
     7
370
    25
100
AcDbLine
 10
6548.2327805259
 20
5296.6994545927
 30
0.0
 11
6548.2327805259
 21
5298.6994545927
 31
0.0
  0
LINE
  5
423
330
1F
100
AcDbEntity
  8
0
  6
Continuous
 62
     7
370
    25
100
AcDbLine
 10
6548.2327805259
 20
5296.6994545927
 30
0.0
 11
6546.2327805259
 21
5296.6994545927
 31
0.0
  0
LINE
  5
424
330
1F
100
AcDbEntity
  8
0
  6
Continuous
 62
     7
370
    25
100
AcDbLine
 10
6548.2327805259
 20
5130.6994545927
 30
0.0
 11
6548.2327805259
 21
5296.6994545927
 31
0.0
  0
LINE
  5
425
330
1F
100
AcDbEntity
  8
0
  6
Continuous
 62
     7
370
    25
100
AcDbLine
 10
6546.2327805259
 20
5130.6994545927
 30
0.0
 11
6548.2327805259
 21
5130.6994545927
 31
0.0
  0
LINE
  5
426
330
1F
100
AcDbEntity
  8
0
  6
Continuous
 62
     7
370
    25
100
AcDbLine
 10
6546.2327805259
 20
5296.6994545927
 30
0.0
 11
6546.2327805259
 21
5130.6994545927
 31
0.0
  0
LINE
  5
427
330
1F
100
AcDbEntity
  8
0
  6
Continuous
 62
     7
370
    25
100
AcDbLine
 10
6549.2327805259
 20
5296.6994545927
 30
0.0
 11
6549.2327805259
 21
5130.6994545927
 31
0.0
  0
LINE
  5
428
330
1F
100
AcDbEntity
  8
0
  6
Continuous
 62
     7
370
    25
100
AcDbLine
 10
6549.2327805259
 20
5130.6994545927
 30
0.0
 11
6548.2327805259
 21
5130.6994545927
 31
0.0
  0
LINE
  5
429
330
1F
100
AcDbEntity
  8
0
  6
Continuous
 62
     7
370
    25
100
AcDbLine
 10
6549.2327805259
 20
5296.6994545927
 30
0.0
 11
6548.2327805259
 21
5296.6994545927
 31
0.0
  0
LINE
  5
42A
330
1F
100
AcDbEntity
  8
0
  6
Continuous
 62
     7
370
    25
100
AcDbLine
 10
6549.2327805259
 20
5297.6994545927
 30
0.0
 11
6549.2327805259
 21
5296.6994545927
 31
0.0
  0
LINE
  5
42B
330
1F
100
AcDbEntity
  8
0
  6
Continuous
 62
     7
370
    25
100
AcDbLine
 10
6549.2327805259
 20
5297.6994545927
 30
0.0
 11
6548.2327805259
 21
5298.6994545927
 31
0.0
  0
LINE
  5
42C
330
1F
100
AcDbEntity
  8
0
  6
Continuous
 62
     7
370
    25
100
AcDbLine
 10
6548.2327805259
 20
5128.6994545927
 30
0.0
 11
6548.2327805259
 21
5130.6994545927
 31
0.0
  0
LINE
  5
42D
330
1F
100
AcDbEntity
  8
0
  6
Continuous
 62
     7
370
    25
100
AcDbLine
 10
6548.2327805259
 20
5128.6994545927
 30
0.0
 11
6546.2327805259
 21
5128.6994545927
 31
0.0
  0
LINE
  5
42E
330
1F
100
AcDbEntity
  8
0
  6
Continuous
 62
     7
370
    25
100
AcDbLine
 10
6546.2327805259
 20
5128.6994545927
 30
0.0
 11
6546.2327805259
 21
5130.6994545927
 31
0.0
  0
LINE
  5
42F
330
1F
100
AcDbEntity
  8
0
  6
Continuous
 62
     7
370
    25
100
AcDbLine
 10
6549.2327805259
 20
5130.6994545927
 30
0.0
 11
6549.2327805259
 21
5129.6994545927
 31
0.0
  0
LINE
  5
430
330
1F
100
AcDbEntity
  8
0
  6
Continuous
 62
     7
370
    25
100
AcDbLine
 10
6548.2327805259
 20
5128.6994545927
 30
0.0
 11
6549.2327805259
 21
5129.6994545927
 31
0.0
  0
LINE
  5
431
330
1F
100
AcDbEntity
  8
0
  6
Continuous
 62
     8
370
    25
100
AcDbLine
 10
6474.6526394087
 20
5291.0994545927
 30
0.0
 11
6474.6327805259
 21
5291.0994545927
 31
0.0
  0
LINE
  5
432
330
1F
100
AcDbEntity
  8
0
  6
Continuous
 62
     8
370
    25
100
AcDbLine
 10
6487.8327805259
 20
5291.0994545927
 30
0.0
 11
6474.6526394087
 21
5291.0994545927
 31
0.0
  0
LINE
  5
433
330
1F
100
AcDbEntity
  8
0
  6
Continuous
 62
     7
370
    25
100
AcDbLine
 10
6260.0187553361
 20
4919.0699107364
 30
0.0
 11
6260.0187553361
 21
4918.5699107364
 31
0.0
  0
LINE
  5
434
330
1F
100
AcDbEntity
  8
0
  6
Continuous
 62
     7
370
    25
100
AcDbLine
 10
6288.0187553361
 20
4918.5699107364
 30
0.0
 11
6288.0187553361
 21
4919.0699107364
 31
0.0
  0
LINE
  5
435
330
1F
100
AcDbEntity
  8
0
  6
Continuous
 62
     7
370
    25
100
AcDbLine
 10
6260.0187553361
 20
4918.5699107364
 30
0.0
 11
6261.5187553361
 21
4917.0699107364
 31
0.0
  0
LINE
  5
436
330
1F
100
AcDbEntity
  8
0
  6
Continuous
 62
     7
370
    25
100
AcDbLine
 10
6286.5187553361
 20
4917.0699107364
 30
0.0
 11
6288.0187553361
 21
4918.5699107364
 31
0.0
  0
LWPOLYLINE
  5
437
330
1F
100
AcDbEntity
  8
0
  6
Continuous
 62
     7
370
    25
100
AcDbPolyline
 90
        3
 70
   128
 43
0.0
 10
6284.399516187
 20
4922.3425875239
 10
6284.8060391104
 20
4922.5774639919
 10
6285.2119571589
 20
4922.811969171
  0
LINE
  5
438
330
1F
100
AcDbEntity
  8
0
  6
Continuous
 62
     7
370
    25
100
AcDbLine
 10
6284.399516187
 20
4923.8425875239
 30
0.0
 11
6284.7929508269
 21
4924.0699107364
 31
0.0
  0
LWPOLYLINE
  5
439
330
1F
100
AcDbEntity
  8
0
  6
Continuous
 62
     7
370
    25
100
AcDbPolyline
 90
        3
 70
   128
 43
0.0
 10
6262.8255520619
 20
4923.5619700246
 10
6263.2311647292
 20
4923.3276503777
 10
6263.6306547806
 20
4923.0968283625
  0
LINE
  5
43A
330
1F
100
AcDbEntity
  8
0
  6
Continuous
 62
     7
370
    25
100
AcDbLine
 10
6284.5766212464
 20
4922.0699107364
 30
0.0
 11
6284.4068563567
 21
4922.1679931542
 31
0.0
  0
LWPOLYLINE
  5
43B
330
1F
100
AcDbEntity
  8
0
  6
Continuous
 62
     7
370
    25
100
AcDbPolyline
 90
        3
 70
   128
 43
0.0
 10
6285.2119550999
 20
4923.2028535171
 10
6284.805078775
 20
4923.4379153725
 10
6284.4068558904
 20
4923.6679933691
  0
LWPOLYLINE
  5
43C
330
1F
100
AcDbEntity
  8
0
  6
Continuous
 62
     7
370
    25
100
AcDbPolyline
 90
        3
 70
   128
 43
0.0
 10
6263.6379932444
 20
4922.9222332234
 10
6263.2324289555
 20
4922.6879137175
 10
6262.8255527507
 20
4922.4528518578
  0
LINE
  5
43D
330
1F
100
AcDbEntity
  8
0
  6
Continuous
 62
     7
370
    25
100
AcDbLine
 10
6263.0281797817
 20
4924.0699107364
 30
0.0
 11
6262.8255527507
 21
4923.9528518578
 31
0.0
  0
LINE
  5
43E
330
1F
100
AcDbEntity
  8
0
  6
Continuous
 62
     7
370
    25
100
AcDbLine
 10
6285.2187553361
 20
4922.8198130621
 30
0.0
 11
6285.2187553361
 21
4923.1948130575
 31
0.0
  0
LINE
  5
43F
330
1F
100
AcDbEntity
  8
0
  6
Continuous
 62
     7
370
    25
100
AcDbLine
 10
6262.8187553361
 20
4922.4448643992
 30
0.0
 11
6262.8187553361
 21
4922.0699107364
 31
0.0
  0
LINE
  5
440
330
1F
100
AcDbEntity
  8
0
  6
Continuous
 62
     7
370
    25
100
AcDbLine
 10
6262.8187553361
 20
4923.9448643992
 30
0.0
 11
6262.8187553361
 21
4923.5698644038
 31
0.0
  0
LWPOLYLINE
  5
441
330
1F
100
AcDbEntity
  8
0
  6
Continuous
 62
     7
370
    25
100
AcDbPolyline
 90
        3
 70
   128
 43
0.0
 10
6284.4068565154
 20
4922.163663349
 10
6284.4068530715
 20
4922.2575950854
 10
6284.4068563559
 20
4922.3468284482
  0
LWPOLYLINE
  5
442
330
1F
100
AcDbEntity
  8
0
  6
Continuous
 62
     7
370
    25
100
AcDbPolyline
 90
        3
 70
   128
 43
0.0
 10
6284.4068565154
 20
4923.663663349
 10
6284.4068429301
 20
4923.757776911
 10
6284.4068558848
 20
4923.8468283393
  0
LWPOLYLINE
  5
443
330
1F
100
AcDbEntity
  8
0
  6
Continuous
 62
     7
370
    25
100
AcDbPolyline
 90
        3
 70
   128
 43
0.0
 10
6263.6306541562
 20
4923.1011616106
 10
6263.6306676134
 20
4923.0077751709
 10
6263.6306547756
 20
4922.9179933373
  0
CIRCLE
  5
444
330
1F
100
AcDbEntity
  8
0
  6
Continuous
 62
     7
370
    25
100
AcDbCircle
 10
6221.0187553361
 20
4987.0699107364
 30
0.0
 40
5.799999999999866
  0
CIRCLE
  5
445
330
1F
100
AcDbEntity
  8
0
  6
Continuous
 62
     7
370
    25
100
AcDbCircle
 10
6221.0187553361
 20
4987.0699107364
 30
0.0
 40
6.600000000000217
  0
CIRCLE
  5
446
330
1F
100
AcDbEntity
  8
0
  6
Continuous
 62
     7
370
    25
100
AcDbCircle
 10
6221.0187553361
 20
4987.0699107364
 30
0.0
 40
3.999999999999945
  0
LINE
  5
447
330
1F
100
AcDbEntity
  8
0
  6
Continuous
 62
     7
370
    25
100
AcDbLine
 10
6312.8098439845
 20
4997.1853214678
 30
0.0
 11
6315.888975635
 21
4991.192402965
 31
0.0
  0
ARC
  5
448
330
1F
100
AcDbEntity
  8
0
  6
Continuous
 62
     7
370
    25
100
AcDbCircle
 10
6299.9998699242
 20
4986.8540194578
 30
0.0
 40
16.47073925916369
100
AcDbArc
 50
347.6142964755
 51
15.2718689673
  0
ARC
  5
449
330
1F
100
AcDbEntity
  8
0
  6
Continuous
 62
     7
370
    25
100
AcDbCircle
 10
6300.0187553361
 20
4987.0699107364
 30
0.0
 40
16.49999999999977
100
AcDbArc
 50
341.3349830795
 51
346.8679809997
  0
LINE
  5
44A
330
1F
100
AcDbEntity
  8
0
  6
Continuous
 62
     7
370
    25
100
AcDbLine
 10
6315.6509519902
 20
4981.7893399559
 30
0.0
 11
6314.2864484453
 21
4979.6725420831
 31
0.0
  0
ARC
  5
44B
330
1F
100
AcDbEntity
  8
0
  6
Continuous
 62
     7
370
    25
100
AcDbCircle
 10
6300.039974537
 20
4986.2474969055
 30
0.0
 40
15.69050826891702
100
AcDbArc
 50
335.2259894525
 51
26.9762419206
  0
ARC
  5
44C
330
1F
100
AcDbEntity
  8
0
  6
Continuous
 62
     7
370
    25
100
AcDbCircle
 10
6300.0171141646
 20
4987.0705360923
 30
0.0
 40
15.35556112027419
100
AcDbArc
 50
294.0824588703
 51
24.1996181129
  0
LWPOLYLINE
  5
44D
330
1F
100
AcDbEntity
  8
0
  6
Continuous
 62
     7
370
    25
100
AcDbPolyline
 90
       22
 70
   128
 43
0.0
 10
6306.2829658766
 20
4973.0515361407
 10
6303.6854545305
 20
4972.1202825407
 10
6301.1637206813
 20
4971.68367122
 10
6298.5676804122
 20
4971.6751598293
 10
6296.006217416
 20
4972.0984192137
 10
6293.5460547153
 20
4972.9481367353
 10
6291.2607322629
 20
4974.1938136318
 10
6289.205697619
 20
4975.8166910777
 10
6287.4486285886
 20
4977.7584519594
 10
6286.0535154265
 20
4979.9421488423
 10
6285.0270502439
 20
4982.3617681948
 10
6284.4160060495
 20
4984.9181498242
 10
6284.2417102672
 20
4987.5546091622
 10
6284.5058491828
 20
4990.1835785369
 10
6285.2148681063
 20
4992.7514489514
 10
6286.3414642057
 20
4995.1655796067
 10
6287.8348104805
 20
4997.3308198423
 10
6289.6637856587
 20
4999.2211026917
 10
6291.8115291772
 20
5000.8032266239
 10
6294.1911923463
 20
5002.0089852337
 10
6296.5494359582
 20
5002.7584047004
 10
6298.9943949447
 20
5003.1393286343
  0
LINE
  5
44E
330
1F
100
AcDbEntity
  8
0
  6
Continuous
 62
     7
370
    25
100
AcDbLine
 10
6298.9943949447
 20
5003.1393286343
 30
0.0
 11
6303.0333493765
 21
5002.9413578498
 31
0.0
  0
ARC
  5
44F
330
1F
100
AcDbEntity
  8
0
  6
Continuous
 62
     7
370
    25
100
AcDbCircle
 10
6300.2058156575
 20
4986.9582641237
 30
0.0
 40
16.23127327069911
100
AcDbArc
 50
39.0562827024
 51
79.9677289809
  0
CIRCLE
  5
450
330
1F
100
AcDbEntity
  8
0
  6
Continuous
 62
     7
370
    25
100
AcDbCircle
 10
6300.0187553361
 20
4987.0699107364
 30
0.0
 40
14.80000000000023
  0
CIRCLE
  5
451
330
1F
100
AcDbEntity
  8
0
  6
Continuous
 62
     7
370
    25
100
AcDbCircle
 10
6300.0187553361
 20
4987.0699107364
 30
0.0
 40
13.10000000000004
  0
CIRCLE
  5
452
330
1F
100
AcDbEntity
  8
0
  6
Continuous
 62
     7
370
    25
100
AcDbCircle
 10
6300.0187553361
 20
4987.0699107364
 30
0.0
 40
12.1
  0
ARC
  5
453
330
1F
100
AcDbEntity
  8
0
  6
Continuous
 62
     7
370
    25
100
AcDbCircle
 10
6300.0187553361
 20
4987.0699107364
 30
0.0
 40
16.4999999999904
100
AcDbArc
 50
41.3349830795
 51
73.0527626117
  0
LINE
  5
454
330
1F
100
AcDbEntity
  8
0
  6
Continuous
 62
     7
370
    25
100
AcDbLine
 10
6316.0924365606
 20
4990.7964066634
 30
0.0
 11
6315.9750317951
 21
4991.0249117328
 31
0.0
  0
LINE
  5
455
330
1F
100
AcDbEntity
  8
0
  6
Continuous
 62
     7
370
    25
100
AcDbLine
 10
6312.7237832544
 20
4997.3528215947
 30
0.0
 11
6312.4079621055
 21
4997.9675047656
 31
0.0
  0
ARC
  5
456
330
1F
100
AcDbEntity
  8
0
  6
Continuous
 62
     7
370
    25
100
AcDbCircle
 10
6300.4711964668
 20
4987.1272374737
 30
0.0
 40
16.04636858018501
100
AcDbArc
 50
347.2939219537
 51
13.2182172067
  0
LINE
  5
457
330
1F
100
AcDbEntity
  8
0
  6
Continuous
 62
     7
370
    25
100
AcDbLine
 10
6308.7963758251
 20
4973.1066264912
 30
0.0
 11
6308.7091212568
 21
4973.0473132767
 31
0.0
  0
LINE
  5
458
330
1F
100
AcDbEntity
  8
0
  6
Continuous
 62
     7
370
    25
100
AcDbLine
 10
6311.7816032638
 20
4975.7866958559
 30
0.0
 11
6314.2864484453
 21
4979.6725420831
 31
0.0
  0
LWPOLYLINE
  5
459
330
1F
100
AcDbEntity
  8
0
  6
Continuous
 62
     7
370
    25
100
AcDbPolyline
 90
        3
 70
   128
 43
0.0
 10
6308.7381002151
 20
4973.0619478266
 10
6310.8644875808
 20
4974.8139300553
 10
6311.7816032638
 20
4975.7866958559
  0
ARC
  5
45A
330
1F
100
AcDbEntity
  8
0
  6
Continuous
 62
     7
370
    25
100
AcDbCircle
 10
6300.0187553361
 20
4987.0699107364
 30
0.0
 40
16.4999999999903
100
AcDbArc
 50
281.3349830792
 51
301.900459561
  0
LINE
  5
45B
330
1F
100
AcDbEntity
  8
0
  6
Continuous
 62
     7
370
    25
100
AcDbLine
 10
6295.2091548638
 20
4971.2864465002
 30
0.0
 11
6303.2617452208
 21
4970.8917459268
 31
0.0
  0
ARC
  5
45C
330
1F
100
AcDbEntity
  8
0
  6
Continuous
 62
     7
370
    25
100
AcDbCircle
 10
6300.0187553361
 20
4987.0699107364
 30
0.0
 40
16.50000000000502
100
AcDbArc
 50
221.3349830795
 51
253.0527626117
  0
LINE
  5
45D
330
1F
100
AcDbEntity
  8
0
  6
Continuous
 62
     7
370
    25
100
AcDbLine
 10
6283.9450741116
 20
4983.3434148093
 30
0.0
 11
6287.6295485667
 21
4976.1723167072
 31
0.0
  0
ARC
  5
45E
330
1F
100
AcDbEntity
  8
0
  6
Continuous
 62
     7
370
    25
100
AcDbCircle
 10
6300.0187553361
 20
4987.0699107364
 30
0.0
 40
16.50000000001263
100
AcDbArc
 50
161.3349830796
 51
193.0527626117
  0
LINE
  5
45F
330
1F
100
AcDbEntity
  8
0
  6
Continuous
 62
     7
370
    25
100
AcDbLine
 10
6288.7546745839
 20
4999.1268790456
 30
0.0
 11
6284.386558682
 21
4992.3504815169
 31
0.0
  0
ARC
  5
460
330
1F
100
AcDbEntity
  8
0
  6
Continuous
 62
     7
370
    25
100
AcDbCircle
 10
6300.0187553361
 20
4987.0699107364
 30
0.0
 40
16.50000000001497
100
AcDbArc
 50
101.3349830796
 51
133.0527626117
  0
LINE
  5
461
330
1F
100
AcDbEntity
  8
0
  6
Continuous
 62
     7
370
    25
100
AcDbLine
 10
6304.8283558084
 20
5002.8533749726
 30
0.0
 11
6303.2214291186
 21
5002.9321390545
 31
0.0
  0
LINE
  5
462
330
1F
100
AcDbEntity
  8
0
  6
Continuous
 62
     7
370
    25
100
AcDbLine
 10
6298.8063052146
 20
5003.1485479191
 30
0.0
 11
6296.7757654514
 21
5003.248075546
 31
0.0
  0
ARC
  5
463
330
1F
100
AcDbEntity
  8
0
  6
Continuous
 62
     7
370
    25
100
AcDbCircle
 10
6300.0187553361
 20
4987.0699107364
 30
0.0
 40
16.49999999999941
100
AcDbArc
 50
301.900459561
 51
313.0527626117
  0
LINE
  5
464
330
1F
100
AcDbEntity
  8
0
  6
Continuous
 62
     7
370
    25
100
AcDbLine
 10
6311.7816032638
 20
4975.7866958559
 30
0.0
 11
6311.2828360883
 21
4975.0129424272
 31
0.0
  0
LINE
  5
465
330
1F
100
AcDbEntity
  8
0
  6
Continuous
 62
     7
370
    25
100
AcDbLine
 10
6283.587326188
 20
4985.567201133
 30
0.0
 11
6283.5873253692
 21
4985.5672100867
 31
0.0
  0
LINE
  5
466
330
1F
100
AcDbEntity
  8
0
  6
Continuous
 62
     7
370
    25
100
AcDbLine
 10
6282.7804551007
 20
4985.6101145194
 30
0.0
 11
6283.9450741116
 21
4983.3434148093
 31
0.0
  0
ARC
  5
467
330
1F
100
AcDbEntity
  8
0
  6
Continuous
 62
     7
370
    25
100
AcDbCircle
 10
6300.0187553361
 20
4987.0699107364
 30
0.0
 40
17.30000000000035
100
AcDbArc
 50
169.5472984449
 51
184.8404472463
  0
LINE
  5
468
330
1F
100
AcDbEntity
  8
0
  6
Continuous
 62
     7
370
    25
100
AcDbLine
 10
6284.386558682
 20
4992.3504815169
 30
0.0
 11
6283.0058486558
 21
4990.2085420127
 31
0.0
  0
ARC
  5
469
330
1F
100
AcDbEntity
  8
0
  6
Continuous
 62
     7
370
    25
100
AcDbCircle
 10
6300.0187553361
 20
4987.0699107364
 30
0.0
 40
17.30000000000084
100
AcDbArc
 50
109.5472984449
 51
124.8404472463
  0
LINE
  5
46A
330
1F
100
AcDbEntity
  8
0
  6
Continuous
 62
     7
370
    25
100
AcDbLine
 10
6296.7757654514
 20
5003.248075546
 30
0.0
 11
6294.2304364144
 21
5003.3728357519
 31
0.0
  0
LINE
  5
46B
330
1F
100
AcDbEntity
  8
0
  6
Continuous
 62
     7
370
    25
100
AcDbLine
 10
6290.1353846101
 20
5001.2688185498
 30
0.0
 11
6288.7546745839
 21
4999.1268790456
 31
0.0
  0
ARC
  5
46C
330
1F
100
AcDbEntity
  8
0
  6
Continuous
 62
     7
370
    25
100
AcDbCircle
 10
6300.0187553361
 20
4987.0699107364
 30
0.0
 40
17.30000000000044
100
AcDbArc
 50
49.5472984449
 51
64.8404472463
  0
LINE
  5
46D
330
1F
100
AcDbEntity
  8
0
  6
Continuous
 62
     7
370
    25
100
AcDbLine
 10
6312.4079621055
 20
4997.9675047656
 30
0.0
 11
6311.2433430946
 21
5000.2342044756
 31
0.0
  0
LINE
  5
46E
330
1F
100
AcDbEntity
  8
0
  6
Continuous
 62
     7
370
    25
100
AcDbLine
 10
6307.3736848455
 20
5002.7286147668
 30
0.0
 11
6304.8283558084
 21
5002.8533749726
 31
0.0
  0
ARC
  5
46F
330
1F
100
AcDbEntity
  8
0
  6
Continuous
 62
     7
370
    25
100
AcDbCircle
 10
6300.0187553361
 20
4987.0699107364
 30
0.0
 40
17.30000000000001
100
AcDbArc
 50
349.5472984449
 51
4.8404472463
  0
LINE
  5
470
330
1F
100
AcDbEntity
  8
0
  6
Continuous
 62
     7
370
    25
100
AcDbLine
 10
6315.6509519902
 20
4981.7893399559
 30
0.0
 11
6317.0316620164
 21
4983.9312794601
 31
0.0
  0
LINE
  5
471
330
1F
100
AcDbEntity
  8
0
  6
Continuous
 62
     7
370
    25
100
AcDbLine
 10
6317.2570555715
 20
4988.5297069534
 30
0.0
 11
6316.0924365606
 21
4990.7964066634
 31
0.0
  0
ARC
  5
472
330
1F
100
AcDbEntity
  8
0
  6
Continuous
 62
     7
370
    25
100
AcDbCircle
 10
6300.0187553361
 20
4987.0699107364
 30
0.0
 40
17.29999999999965
100
AcDbArc
 50
229.5472984449
 51
244.8404472463
  0
LINE
  5
473
330
1F
100
AcDbEntity
  8
0
  6
Continuous
 62
     7
370
    25
100
AcDbLine
 10
6287.6295485667
 20
4976.1723167072
 30
0.0
 11
6288.7941675776
 21
4973.9056169972
 31
0.0
  0
LINE
  5
474
330
1F
100
AcDbEntity
  8
0
  6
Continuous
 62
     7
370
    25
100
AcDbLine
 10
6292.6638258267
 20
4971.411206706
 30
0.0
 11
6295.2091548638
 21
4971.2864465002
 31
0.0
  0
ARC
  5
475
330
1F
100
AcDbEntity
  8
0
  6
Continuous
 62
     7
370
    25
100
AcDbCircle
 10
6300.0187553361
 20
4987.0699107364
 30
0.0
 40
17.29999999999923
100
AcDbArc
 50
289.5472984449
 51
304.8404472463
  0
LINE
  5
476
330
1F
100
AcDbEntity
  8
0
  6
Continuous
 62
     7
370
    25
100
AcDbLine
 10
6303.2617452208
 20
4970.8917459268
 30
0.0
 11
6305.8070742578
 21
4970.7669857209
 31
0.0
  0
LINE
  5
477
330
1F
100
AcDbEntity
  8
0
  6
Continuous
 62
     7
370
    25
100
AcDbLine
 10
6309.9021260621
 20
4972.871002923
 30
0.0
 11
6311.2828360883
 21
4975.0129424272
 31
0.0
  0
LINE
  5
478
330
1F
100
AcDbEntity
  8
0
  6
Continuous
 62
     7
370
    25
100
AcDbLine
 10
6203.0187553361
 20
4924.0699107364
 30
0.0
 11
6345.0187553361
 21
4924.0699107364
 31
0.0
  0
LINE
  5
479
330
1F
100
AcDbEntity
  8
0
  6
Continuous
 62
     7
370
    25
100
AcDbLine
 10
6203.0187553361
 20
5022.0699107364
 30
0.0
 11
6345.0187553361
 21
5022.0699107364
 31
0.0
  0
LINE
  5
47A
330
1F
100
AcDbEntity
  8
0
  6
Continuous
 62
     7
370
    25
100
AcDbLine
 10
6203.0187553361
 20
5022.0699107364
 30
0.0
 11
6203.0187553361
 21
4924.0699107364
 31
0.0
  0
LINE
  5
47B
330
1F
100
AcDbEntity
  8
0
  6
Continuous
 62
     7
370
    25
100
AcDbLine
 10
6345.0187553361
 20
4924.0699107364
 30
0.0
 11
6345.0187553361
 21
5022.0699107364
 31
0.0
  0
LINE
  5
47C
330
1F
100
AcDbEntity
  8
0
  6
Continuous
 62
     7
370
    25
100
AcDbLine
 10
6345.0187553361
 20
5024.0699107364
 30
0.0
 11
6345.0187553361
 21
5022.0699107364
 31
0.0
  0
LINE
  5
47D
330
1F
100
AcDbEntity
  8
0
  6
Continuous
 62
     7
370
    25
100
AcDbLine
 10
6203.0187553361
 20
5022.0699107364
 30
0.0
 11
6203.0187553361
 21
5024.0699107364
 31
0.0
  0
LINE
  5
47E
330
1F
100
AcDbEntity
  8
0
  6
Continuous
 62
     7
370
    25
100
AcDbLine
 10
6345.0187553361
 20
5024.0699107364
 30
0.0
 11
6203.0187553361
 21
5024.0699107364
 31
0.0
  0
ARC
  5
47F
330
1F
100
AcDbEntity
  8
0
  6
Continuous
 62
     7
370
    25
100
AcDbCircle
 10
6344.4906750891
 20
4920.1014005075
 30
0.0
 40
4.70534410776034
100
AcDbArc
 50
57.501433654
 51
83.5561250771
  0
LINE
  5
480
330
1F
100
AcDbEntity
  8
0
  6
Continuous
 62
     7
370
    25
100
AcDbLine
 10
6345.0187553361
 20
5022.0699107364
 30
0.0
 11
6347.0187553361
 21
5022.0699107364
 31
0.0
  0
LINE
  5
481
330
1F
100
AcDbEntity
  8
0
  6
Continuous
 62
     7
370
    25
100
AcDbLine
 10
6347.0187553361
 20
5022.0699107364
 30
0.0
 11
6347.0187553361
 21
4924.0699107364
 31
0.0
  0
ARC
  5
482
330
1F
100
AcDbEntity
  8
0
  6
Continuous
 62
     7
370
    25
100
AcDbCircle
 10
6203.0520993098
 20
4921.5007260025
 30
0.0
 40
3.276461187368394
100
AcDbArc
 50
90.5830992147
 51
128.3593420542
  0
LINE
  5
483
330
1F
100
AcDbEntity
  8
0
  6
Continuous
 62
     7
370
    25
100
AcDbLine
 10
6201.0187553361
 20
4924.0699107364
 30
0.0
 11
6201.0187553361
 21
5022.0699107364
 31
0.0
  0
LINE
  5
484
330
1F
100
AcDbEntity
  8
0
  6
Continuous
 62
     7
370
    25
100
AcDbLine
 10
6201.0187553361
 20
5022.0699107364
 30
0.0
 11
6203.0187553361
 21
5022.0699107364
 31
0.0
  0
ARC
  5
485
330
1F
100
AcDbEntity
  8
0
  6
Continuous
 62
     7
370
    25
100
AcDbCircle
 10
6199.0502451072
 20
4924.5979909834
 30
0.0
 40
4.705344107702535
100
AcDbArc
 50
327.5014336538
 51
353.5561250772
  0
LINE
  5
486
330
1F
100
AcDbEntity
  8
0
  6
Continuous
 62
     7
370
    25
100
AcDbLine
 10
6230.0187553361
 20
4924.0699107364
 30
0.0
 11
6230.0187553361
 21
4922.0699107364
 31
0.0
  0
LINE
  5
487
330
1F
100
AcDbEntity
  8
0
  6
Continuous
 62
     7
370
    25
100
AcDbLine
 10
6318.0187553361
 20
4922.0699107364
 30
0.0
 11
6318.0187553361
 21
4924.0699107364
 31
0.0
  0
ARC
  5
488
330
1F
100
AcDbEntity
  8
0
  6
Continuous
 62
     7
370
    25
100
AcDbCircle
 10
6347.58794007
 20
4924.1032547101
 30
0.0
 40
3.276461187387345
100
AcDbArc
 50
180.5830992148
 51
218.3593420542
  0
LINE
  5
489
330
1F
100
AcDbEntity
  8
0
  6
Continuous
 62
     7
370
    25
100
AcDbLine
 10
6345.0187553361
 20
4923.0699107364
 30
0.0
 11
6345.0187553361
 21
4922.0699107364
 31
0.0
  0
LWPOLYLINE
  5
48A
330
1F
100
AcDbEntity
  8
0
  6
Continuous
 62
     7
370
    25
100
AcDbPolyline
 90
        6
 70
   128
 43
0.0
 10
6344.3116485549
 20
4924.0699107364
 10
6344.4783725216
 20
4923.7079523111
 10
6344.6450963048
 20
4923.3950795873
 10
6344.8117518259
 20
4923.1737890531
 10
6344.9784073771
 20
4923.073924636
 10
6345.0187553361
 20
4923.0699107364
  0
LINE
  5
48B
330
1F
100
AcDbEntity
  8
0
  6
Continuous
 62
     7
370
    25
100
AcDbLine
 10
6203.0187553361
 20
4923.0699107364
 30
0.0
 11
6203.0187553361
 21
4922.0699107364
 31
0.0
  0
ARC
  5
48C
330
1F
100
AcDbEntity
  8
0
  6
Continuous
 62
     7
370
    25
100
AcDbCircle
 10
6201.8230962245
 20
4924.6653694022
 30
0.0
 40
1.993762539905794
100
AcDbArc
 50
306.8484045655
 51
342.622816069
  0
LINE
  5
48D
330
1F
100
AcDbEntity
  8
0
  6
Continuous
 62
     7
370
    25
100
AcDbLine
 10
6347.0187553361
 20
4924.0699107364
 30
0.0
 11
6346.0187553361
 21
4924.0699107364
 31
0.0
  0
ARC
  5
48E
330
1F
100
AcDbEntity
  8
0
  6
Continuous
 62
     7
370
    25
100
AcDbCircle
 10
6344.4232966702
 20
4922.8742516247
 30
0.0
 40
1.993762539973783
100
AcDbArc
 50
36.8484045662
 51
72.6228160684
  0
LINE
  5
48F
330
1F
100
AcDbEntity
  8
0
  6
Continuous
 62
     7
370
    25
100
AcDbLine
 10
6201.0187553361
 20
4924.0699107364
 30
0.0
 11
6202.0187553361
 21
4924.0699107364
 31
0.0
  0
LWPOLYLINE
  5
490
330
1F
100
AcDbEntity
  8
0
  6
Continuous
 62
     7
370
    25
100
AcDbPolyline
 90
        6
 70
   128
 43
0.0
 10
6203.0187553361
 20
4924.7770175176
 10
6202.6567969108
 20
4924.6102935509
 10
6202.343924187
 20
4924.4435697677
 10
6202.1226336528
 20
4924.2769142466
 10
6202.0227692357
 20
4924.1102586954
 10
6202.0187553361
 20
4924.0699107364
  0
ARC
  5
491
330
1F
100
AcDbEntity
  8
0
  6
Continuous
 62
     7
370
    25
100
AcDbCircle
 10
6345.0187553361
 20
5022.0699107364
 30
0.0
 40
1.0
100
AcDbArc
 50
0.0
 51
90.0
  0
ARC
  5
492
330
1F
100
AcDbEntity
  8
0
  6
Continuous
 62
     7
370
    25
100
AcDbCircle
 10
6345.0187553361
 20
5022.0699107364
 30
0.0
 40
2.0
100
AcDbArc
 50
0.0
 51
90.0
  0
ARC
  5
493
330
1F
100
AcDbEntity
  8
0
  6
Continuous
 62
     7
370
    25
100
AcDbCircle
 10
6203.0187553361
 20
5022.0699107364
 30
0.0
 40
1.0
100
AcDbArc
 50
90.0
 51
180.0
  0
ARC
  5
494
330
1F
100
AcDbEntity
  8
0
  6
Continuous
 62
     7
370
    25
100
AcDbCircle
 10
6203.0187553361
 20
5022.0699107364
 30
0.0
 40
2.0
100
AcDbArc
 50
90.0
 51
180.0
  0
ARC
  5
495
330
1F
100
AcDbEntity
  8
0
  6
Continuous
 62
     7
370
    25
100
AcDbCircle
 10
6345.0187553361
 20
4924.0699107364
 30
0.0
 40
2.000000000000909
100
AcDbArc
 50
270.0
 51
0.0
  0
ARC
  5
496
330
1F
100
AcDbEntity
  8
0
  6
Continuous
 62
     7
370
    25
100
AcDbCircle
 10
6345.0187553361
 20
4924.0699107364
 30
0.0
 40
1.000000000000909
100
AcDbArc
 50
270.0
 51
0.0
  0
ARC
  5
497
330
1F
100
AcDbEntity
  8
0
  6
Continuous
 62
     7
370
    25
100
AcDbCircle
 10
6203.0187553361
 20
4924.0699107364
 30
0.0
 40
2.0
100
AcDbArc
 50
180.0
 51
270.0
  0
ARC
  5
498
330
1F
100
AcDbEntity
  8
0
  6
Continuous
 62
     7
370
    25
100
AcDbCircle
 10
6203.0187553361
 20
4924.0699107364
 30
0.0
 40
1.0
100
AcDbArc
 50
180.0
 51
270.0
  0
LINE
  5
499
330
1F
100
AcDbEntity
  8
0
  6
Continuous
 62
     7
370
    25
100
AcDbLine
 10
6260.0187553361
 20
4918.5699107364
 30
0.0
 11
6288.0187553361
 21
4918.5699107364
 31
0.0
  0
LINE
  5
49A
330
1F
100
AcDbEntity
  8
0
  6
Continuous
 62
     7
370
    25
100
AcDbLine
 10
6286.5187553361
 20
4917.0699107364
 30
0.0
 11
6261.5187553361
 21
4917.0699107364
 31
0.0
  0
ARC
  5
49B
330
1F
100
AcDbEntity
  8
0
  6
Continuous
 62
     7
370
    25
100
AcDbCircle
 10
6278.0785923908
 20
4994.055220933
 30
0.0
 40
71.98540838938578
100
AcDbArc
 50
269.905364265
 51
274.9863471463
  0
LWPOLYLINE
  5
49C
330
1F
100
AcDbEntity
  8
0
  6
Continuous
 62
     7
370
    25
100
AcDbPolyline
 90
       14
 70
   128
 43
0.0
 10
6263.6416293589
 20
4923.1010994821
 10
6263.6310246038
 20
4923.10307549
 10
6264.0083293667
 20
4923.1650432656
 10
6265.0915000014
 20
4923.2300794074
 10
6266.766935967
 20
4923.2915365198
 10
6268.9425293744
 20
4923.3536061868
 10
6271.5062946319
 20
4923.4186367569
 10
6274.1943512027
 20
4923.4799999581
 10
6276.8817668529
 20
4923.5421699325
 10
6279.4083769478
 20
4923.6071930744
 10
6281.5178762774
 20
4923.6684657837
 10
6283.1261585034
 20
4923.7307344727
 10
6284.1199746525
 20
4923.7957483307
 10
6284.3354783538
 20
4923.8422527694
  0
LWPOLYLINE
  5
49D
330
1F
100
AcDbEntity
  8
0
  6
Continuous
 62
     7
370
    25
100
AcDbPolyline
 90
       20
 70
   128
 43
0.0
 10
6262.8265203176
 20
4922.0698644038
 10
6262.8191547367
 20
4922.0718254923
 10
6263.0041696205
 20
4922.1124755789
 10
6263.5336400581
 20
4922.155460762
 10
6264.393775947
 20
4922.1988294097
 10
6265.5400650413
 20
4922.2405718008
 10
6266.9211624526
 20
4922.2802527059
 10
6268.5457887384
 20
4922.3223561891
 10
6270.3585562903
 20
4922.3657968883
 10
6272.2761543122
 20
4922.4085541004
 10
6274.2080751812
 20
4922.4487499603
 10
6276.1437829973
 20
4922.4895567843
 10
6278.0478625557
 20
4922.5326083725
 10
6279.8296115267
 20
4922.5759430767
 10
6281.4088426882
 20
4922.6175563422
 10
6282.7433596902
 20
4922.657269536
 10
6283.8379623024
 20
4922.6994844749
 10
6284.6354568362
 20
4922.7429392346
 10
6285.0970117106
 20
4922.7856109662
 10
6285.1978413589
 20
4922.8198130621
  0
LWPOLYLINE
  5
49E
330
1F
100
AcDbEntity
  8
0
  6
Continuous
 62
     7
370
    25
100
AcDbPolyline
 90
       14
 70
   128
 43
0.0
 10
6262.8265203176
 20
4923.5698644038
 10
6262.8191547367
 20
4923.5718254923
 10
6263.0041696205
 20
4923.6124755789
 10
6263.5336400581
 20
4923.655460762
 10
6264.393775947
 20
4923.6988294097
 10
6265.5400650413
 20
4923.7405718008
 10
6266.9211624526
 20
4923.7802527059
 10
6268.5457887384
 20
4923.8223561891
 10
6270.3585562903
 20
4923.8657968883
 10
6272.2761543122
 20
4923.9085541004
 10
6274.2080751812
 20
4923.9487499603
 10
6276.1437829973
 20
4923.9895567843
 10
6278.0478625557
 20
4924.0326083725
 10
6279.5815859237
 20
4924.0699107364
  0
LINE
  5
49F
330
1F
100
AcDbEntity
  8
0
  6
Continuous
 62
     7
370
    25
100
AcDbLine
 10
6262.8265203263
 20
4922.4448643992
 30
0.0
 11
6262.8191547376
 21
4922.44682549
 31
0.0
  0
LWPOLYLINE
  5
4A0
330
1F
100
AcDbEntity
  8
0
  6
Continuous
 62
     7
370
    25
100
AcDbPolyline
 90
       19
 70
   128
 43
0.0
 10
6262.8474556879
 20
4922.4530435625
 10
6263.0041696436
 20
4922.487475577
 10
6263.5336401078
 20
4922.5304607605
 10
6264.3937760255
 20
4922.5738294084
 10
6265.5400651476
 20
4922.6155717997
 10
6266.9211625888
 20
4922.655252705
 10
6268.545788906
 20
4922.6973561887
 10
6270.3585564844
 20
4922.7407968882
 10
6272.276154525
 20
4922.7835541004
 10
6274.2080754044
 20
4922.8237499603
 10
6276.1437832345
 20
4922.864556785
 10
6278.0478627954
 20
4922.9076083736
 10
6279.829611756
 20
4922.9509430779
 10
6281.4088428949
 20
4922.9925563433
 10
6282.7433598717
 20
4923.0322695375
 10
6283.8379624503
 20
4923.0744844771
 10
6284.6354569384
 20
4923.117939237
 10
6285.0970117589
 20
4923.1606109686
 10
6285.1978413384
 20
4923.1948130575
  0
LINE
  5
4A1
330
1F
100
AcDbEntity
  8
0
  6
Continuous
 62
     7
370
    25
100
AcDbLine
 10
6285.2151491311
 20
4923.2006839801
 30
0.0
 11
6285.2031573267
 21
4923.2029297631
 31
0.0
  0
LINE
  5
4A2
330
1F
100
AcDbEntity
  8
0
  6
Continuous
 62
     7
370
    25
100
AcDbLine
 10
6262.8265203263
 20
4923.9448643992
 30
0.0
 11
6262.8191547376
 21
4923.94682549
 31
0.0
  0
ARC
  5
4A3
330
1F
100
AcDbEntity
  8
0
  6
Continuous
 62
     7
370
    25
100
AcDbCircle
 10
6264.2414499686
 20
4915.7213736335
 30
0.0
 40
8.348870456169774
100
AcDbArc
 50
89.4879910391
 51
99.6113440755
  0
LWPOLYLINE
  5
4A4
330
1F
100
AcDbEntity
  8
0
  6
Continuous
 62
     7
370
    25
100
AcDbPolyline
 90
        3
 70
   128
 43
0.0
 10
6283.5339377498
 20
4922.0699107364
 10
6284.119974723
 20
4922.1082483378
 10
6284.3760651366
 20
4922.1635111668
  0
LWPOLYLINE
  5
4A5
330
1F
100
AcDbEntity
  8
0
  6
Continuous
 62
     7
370
    25
100
AcDbPolyline
 90
       13
 70
   128
 43
0.0
 10
6263.6724184007
 20
4922.9223739256
 10
6264.0083294
 20
4922.9775432685
 10
6265.0915000741
 20
4923.0425794107
 10
6266.7669360781
 20
4923.1040365232
 10
6268.9425295298
 20
4923.166106191
 10
6271.5062948217
 20
4923.2311367615
 10
6274.1943514097
 20
4923.2924999626
 10
6276.8817670756
 20
4923.3546699379
 10
6279.4083771605
 20
4923.4196930802
 10
6281.5178764566
 20
4923.4809657894
 10
6283.1261586406
 20
4923.5432344793
 10
6284.119974723
 20
4923.6082483378
 10
6284.3760725353
 20
4923.6635127634
  0
LINE
  5
4A6
330
1F
100
AcDbEntity
  8
0
  6
Continuous
 62
     7
370
    25
100
AcDbLine
 10
6352.0187553361
 20
4922.0699107364
 30
0.0
 11
6196.0187553361
 21
4922.0699107364
 31
0.0
  0
LINE
  5
4A7
330
1F
100
AcDbEntity
  8
0
  6
Continuous
 62
     7
370
    25
100
AcDbLine
 10
6352.0187553361
 20
4920.0699107364
 30
0.0
 11
6352.0187553361
 21
4922.0699107364
 31
0.0
  0
LINE
  5
4A8
330
1F
100
AcDbEntity
  8
0
  6
Continuous
 62
     7
370
    25
100
AcDbLine
 10
6196.0187553361
 20
4920.0699107364
 30
0.0
 11
6352.0187553361
 21
4920.0699107364
 31
0.0
  0
LINE
  5
4A9
330
1F
100
AcDbEntity
  8
0
  6
Continuous
 62
     7
370
    25
100
AcDbLine
 10
6196.0187553361
 20
4922.0699107364
 30
0.0
 11
6196.0187553361
 21
4920.0699107364
 31
0.0
  0
LINE
  5
4AA
330
1F
100
AcDbEntity
  8
0
  6
Continuous
 62
     7
370
    25
100
AcDbLine
 10
6194.0187553361
 20
4920.0699107364
 30
0.0
 11
6196.0187553361
 21
4920.0699107364
 31
0.0
  0
LINE
  5
4AB
330
1F
100
AcDbEntity
  8
0
  6
Continuous
 62
     7
370
    25
100
AcDbLine
 10
6194.0187553361
 20
4920.0699107364
 30
0.0
 11
6194.0187553361
 21
4922.0699107364
 31
0.0
  0
LINE
  5
4AC
330
1F
100
AcDbEntity
  8
0
  6
Continuous
 62
     7
370
    25
100
AcDbLine
 10
6194.0187553361
 20
4922.0699107364
 30
0.0
 11
6196.0187553361
 21
4922.0699107364
 31
0.0
  0
LINE
  5
4AD
330
1F
100
AcDbEntity
  8
0
  6
Continuous
 62
     7
370
    25
100
AcDbLine
 10
6196.0187553361
 20
4919.0699107364
 30
0.0
 11
6195.0187553361
 21
4919.0699107364
 31
0.0
  0
LINE
  5
4AE
330
1F
100
AcDbEntity
  8
0
  6
Continuous
 62
     7
370
    25
100
AcDbLine
 10
6195.0187553361
 20
4919.0699107364
 30
0.0
 11
6194.0187553361
 21
4920.0699107364
 31
0.0
  0
LINE
  5
4AF
330
1F
100
AcDbEntity
  8
0
  6
Continuous
 62
     7
370
    25
100
AcDbLine
 10
6196.0187553361
 20
4919.0699107364
 30
0.0
 11
6196.0187553361
 21
4920.0699107364
 31
0.0
  0
LINE
  5
4B0
330
1F
100
AcDbEntity
  8
0
  6
Continuous
 62
     7
370
    25
100
AcDbLine
 10
6352.0187553361
 20
4919.0699107364
 30
0.0
 11
6196.0187553361
 21
4919.0699107364
 31
0.0
  0
LINE
  5
4B1
330
1F
100
AcDbEntity
  8
0
  6
Continuous
 62
     7
370
    25
100
AcDbLine
 10
6352.0187553361
 20
4919.0699107364
 30
0.0
 11
6352.0187553361
 21
4920.0699107364
 31
0.0
  0
LINE
  5
4B2
330
1F
100
AcDbEntity
  8
0
  6
Continuous
 62
     7
370
    25
100
AcDbLine
 10
6354.0187553361
 20
4922.0699107364
 30
0.0
 11
6354.0187553361
 21
4920.0699107364
 31
0.0
  0
LINE
  5
4B3
330
1F
100
AcDbEntity
  8
0
  6
Continuous
 62
     7
370
    25
100
AcDbLine
 10
6352.0187553361
 20
4920.0699107364
 30
0.0
 11
6354.0187553361
 21
4920.0699107364
 31
0.0
  0
LINE
  5
4B4
330
1F
100
AcDbEntity
  8
0
  6
Continuous
 62
     7
370
    25
100
AcDbLine
 10
6352.0187553361
 20
4922.0699107364
 30
0.0
 11
6354.0187553361
 21
4922.0699107364
 31
0.0
  0
LINE
  5
4B5
330
1F
100
AcDbEntity
  8
0
  6
Continuous
 62
     7
370
    25
100
AcDbLine
 10
6353.0187553361
 20
4919.0699107364
 30
0.0
 11
6352.0187553361
 21
4919.0699107364
 31
0.0
  0
LINE
  5
4B6
330
1F
100
AcDbEntity
  8
0
  6
Continuous
 62
     7
370
    25
100
AcDbLine
 10
6354.0187553361
 20
4920.0699107364
 30
0.0
 11
6353.0187553361
 21
4919.0699107364
 31
0.0
  0
ENDSEC
  0
SECTION
  2
OBJECTS
  0
DICTIONARY
  5
C
330
0
100
AcDbDictionary
281
     1
  3
ACAD_GROUP
350
D
  3
ACAD_LAYOUT
350
1A
  3
ACAD_MLINESTYLE
350
17
  3
ACAD_PLOTSETTINGS
350
19
  3
ACAD_PLOTSTYLENAME
350
E
  3
ACAD_SCALELIST
350
47
  3
DWGPROPS
350
4B7
  0
DICTIONARY
  5
D
102
{ACAD_REACTORS
330
C
102
}
330
C
100
AcDbDictionary
281
     1
  0
DICTIONARY
  5
1A
102
{ACAD_REACTORS
330
C
102
}
330
C
100
AcDbDictionary
281
     1
  3
Layout1
350
1E
  3
Layout2
350
26
  3
Model
350
22
  0
DICTIONARY
  5
17
102
{ACAD_REACTORS
330
C
102
}
330
C
100
AcDbDictionary
281
     1
  3
Standard
350
18
  0
DICTIONARY
  5
19
102
{ACAD_REACTORS
330
C
102
}
330
C
100
AcDbDictionary
281
     1
  0
ACDBDICTIONARYWDFLT
  5
E
102
{ACAD_REACTORS
330
C
102
}
330
C
100
AcDbDictionary
281
     1
  3
Normal
350
F
100
AcDbDictionaryWithDefault
340
F
  0
DICTIONARY
  5
47
102
{ACAD_REACTORS
330
C
102
}
330
C
100
AcDbDictionary
281
     1
  3
A0
350
48
  3
A1
350
49
  3
A2
350
4A
  3
A3
350
4B
  3
A4
350
4C
  3
A5
350
4D
  3
A6
350
4E
  3
A7
350
4F
  3
A8
350
50
  3
A9
350
51
  3
B0
350
52
  3
B1
350
53
  3
B2
350
54
  3
B3
350
55
  3
B4
350
56
  3
B5
350
57
  3
B6
350
58
  3
B7
350
59
  3
B8
350
5A
  3
B9
350
5B
  3
C0
350
5C
  3
C1
350
5D
  3
C2
350
5E
  3
C3
350
5F
  3
C4
350
60
  3
C5
350
61
  3
C6
350
62
  3
C7
350
63
  3
C8
350
64
  3
C9
350
65
  3
D0
350
66
  3
D1
350
67
  3
D2
350
68
  0
XRECORD
  5
4B7
102
{ACAD_REACTORS
330
C
102
}
330
C
100
AcDbXrecord
280
     1
  1
DWGPROPS COOKIE
  2

  3

  4

  6

  7

  8
radek.stransky
  9

300
=
301
=
302
=
303
=
304
=
305
=
306
=
307
=
308
=
309
=
 40
0.0
 41
2459998.302502871
 42
2459998.302503322
  1

 90
        0
  0
LAYOUT
  5
1E
102
{ACAD_REACTORS
330
1A
102
}
330
1A
100
AcDbPlotSettings
  1

  2
none_device
  4

  6

 40
0.0
 41
0.0
 42
0.0
 43
0.0
 44
0.0
 45
0.0
 46
0.0
 47
0.0
 48
0.0
 49
0.0
140
0.0
141
0.0
142
1.0
143
1.0
 70
   688
 72
     1
 73
     0
 74
     5
  7

 75
    16
147
1.0
148
0.0
149
0.0
100
AcDbLayout
  1
Layout1
 70
     1
 71
     1
 10
0.0
 20
0.0
 11
420.0
 21
297.0
 12
0.0
 22
0.0
 32
0.0
 14
1.0000000000E+20
 24
1.0000000000E+20
 34
1.0000000000E+20
 15
-1.0000000000E+20
 25
-1.0000000000E+20
 35
-1.0000000000E+20
146
0.0
 13
0.0
 23
0.0
 33
0.0
 16
1.0
 26
0.0
 36
0.0
 17
0.0
 27
1.0
 37
0.0
 76
     0
330
1B
  0
LAYOUT
  5
26
102
{ACAD_REACTORS
330
1A
102
}
330
1A
100
AcDbPlotSettings
  1

  2
none_device
  4

  6

 40
0.0
 41
0.0
 42
0.0
 43
0.0
 44
0.0
 45
0.0
 46
0.0
 47
0.0
 48
0.0
 49
0.0
140
0.0
141
0.0
142
1.0
143
1.0
 70
   688
 72
     1
 73
     0
 74
     5
  7

 75
    16
147
1.0
148
0.0
149
0.0
100
AcDbLayout
  1
Layout2
 70
     1
 71
     2
 10
0.0
 20
0.0
 11
0.0
 21
0.0
 12
0.0
 22
0.0
 32
0.0
 14
0.0
 24
0.0
 34
0.0
 15
0.0
 25
0.0
 35
0.0
146
0.0
 13
0.0
 23
0.0
 33
0.0
 16
1.0
 26
0.0
 36
0.0
 17
0.0
 27
1.0
 37
0.0
 76
     0
330
23
  0
LAYOUT
  5
22
102
{ACAD_REACTORS
330
1A
102
}
330
1A
100
AcDbPlotSettings
  1

  2
none_device
  4
Letter_(8.50_x_11.00_Inches)
  6

 40
6.35
 41
6.35
 42
6.35000508
 43
6.35000508
 44
215.9
 45
279.4
 46
0.0
 47
0.0
 48
0.0
 49
0.0
140
0.0
141
0.0
142
1.0
143
1.0
 70
  1712
 72
     1
 73
     0
 74
     0
  7

 75
     0
147
1.0
148
0.0
149
0.0
100
AcDbLayout
  1
Model
 70
     1
 71
     0
 10
0.0
 20
0.0
 11
20000.0
 21
10000.0
 12
0.0
 22
0.0
 32
0.0
 14
0.0
 24
0.0
 34
0.0
 15
20000.0
 25
10000.0
 35
0.0
146
0.0
 13
0.0
 23
0.0
 33
0.0
 16
1.0
 26
0.0
 36
0.0
 17
0.0
 27
1.0
 37
0.0
 76
     0
330
1F
331
29
  0
MLINESTYLE
  5
18
102
{ACAD_REACTORS
330
17
102
}
330
17
100
AcDbMlineStyle
  2
Standard
 70
     0
  3

 62
   256
 51
90.0
 52
90.0
 71
     2
 49
0.5
 62
   256
  6
BYLAYER
 49
-0.5
 62
   256
  6
BYLAYER
  0
ACDBPLACEHOLDER
  5
F
102
{ACAD_REACTORS
330
E
102
}
330
E
  0
SCALE
  5
48
102
{ACAD_REACTORS
330
47
102
}
330
47
100
AcDbScale
 70
     0
300
1:1
140
1.0
141
1.0
290
     1
  0
SCALE
  5
49
102
{ACAD_REACTORS
330
47
102
}
330
47
100
AcDbScale
 70
     0
300
1:2
140
1.0
141
2.0
290
     0
  0
SCALE
  5
4A
102
{ACAD_REACTORS
330
47
102
}
330
47
100
AcDbScale
 70
     0
300
1:4
140
1.0
141
4.0
290
     0
  0
SCALE
  5
4B
102
{ACAD_REACTORS
330
47
102
}
330
47
100
AcDbScale
 70
     0
300
1:5
140
1.0
141
5.0
290
     0
  0
SCALE
  5
4C
102
{ACAD_REACTORS
330
47
102
}
330
47
100
AcDbScale
 70
     0
300
1:8
140
1.0
141
8.0
290
     0
  0
SCALE
  5
4D
102
{ACAD_REACTORS
330
47
102
}
330
47
100
AcDbScale
 70
     0
300
1:10
140
1.0
141
10.0
290
     0
  0
SCALE
  5
4E
102
{ACAD_REACTORS
330
47
102
}
330
47
100
AcDbScale
 70
     0
300
1:16
140
1.0
141
16.0
290
     0
  0
SCALE
  5
4F
102
{ACAD_REACTORS
330
47
102
}
330
47
100
AcDbScale
 70
     0
300
1:20
140
1.0
141
20.0
290
     0
  0
SCALE
  5
50
102
{ACAD_REACTORS
330
47
102
}
330
47
100
AcDbScale
 70
     0
300
1:30
140
1.0
141
30.0
290
     0
  0
SCALE
  5
51
102
{ACAD_REACTORS
330
47
102
}
330
47
100
AcDbScale
 70
     0
300
1:40
140
1.0
141
40.0
290
     0
  0
SCALE
  5
52
102
{ACAD_REACTORS
330
47
102
}
330
47
100
AcDbScale
 70
     0
300
1:50
140
1.0
141
50.0
290
     0
  0
SCALE
  5
53
102
{ACAD_REACTORS
330
47
102
}
330
47
100
AcDbScale
 70
     0
300
1:100
140
1.0
141
100.0
290
     0
  0
SCALE
  5
54
102
{ACAD_REACTORS
330
47
102
}
330
47
100
AcDbScale
 70
     0
300
2:1
140
2.0
141
1.0
290
     0
  0
SCALE
  5
55
102
{ACAD_REACTORS
330
47
102
}
330
47
100
AcDbScale
 70
     0
300
4:1
140
4.0
141
1.0
290
     0
  0
SCALE
  5
56
102
{ACAD_REACTORS
330
47
102
}
330
47
100
AcDbScale
 70
     0
300
8:1
140
8.0
141
1.0
290
     0
  0
SCALE
  5
57
102
{ACAD_REACTORS
330
47
102
}
330
47
100
AcDbScale
 70
     0
300
10:1
140
10.0
141
1.0
290
     0
  0
SCALE
  5
58
102
{ACAD_REACTORS
330
47
102
}
330
47
100
AcDbScale
 70
     0
300
100:1
140
100.0
141
1.0
290
     0
  0
SCALE
  5
59
102
{ACAD_REACTORS
330
47
102
}
330
47
100
AcDbScale
 70
     0
300
1/128" = 1'-0"
140
0.0078125
141
12.0
290
     0
  0
SCALE
  5
5A
102
{ACAD_REACTORS
330
47
102
}
330
47
100
AcDbScale
 70
     0
300
1/64" = 1'-0"
140
0.015625
141
12.0
290
     0
  0
SCALE
  5
5B
102
{ACAD_REACTORS
330
47
102
}
330
47
100
AcDbScale
 70
     0
300
1/32" = 1'-0"
140
0.03125
141
12.0
290
     0
  0
SCALE
  5
5C
102
{ACAD_REACTORS
330
47
102
}
330
47
100
AcDbScale
 70
     0
300
1/16" = 1'-0"
140
0.0625
141
12.0
290
     0
  0
SCALE
  5
5D
102
{ACAD_REACTORS
330
47
102
}
330
47
100
AcDbScale
 70
     0
300
3/32" = 1'-0"
140
0.09375
141
12.0
290
     0
  0
SCALE
  5
5E
102
{ACAD_REACTORS
330
47
102
}
330
47
100
AcDbScale
 70
     0
300
1/8" = 1'-0"
140
0.125
141
12.0
290
     0
  0
SCALE
  5
5F
102
{ACAD_REACTORS
330
47
102
}
330
47
100
AcDbScale
 70
     0
300
3/16" = 1'-0"
140
0.1875
141
12.0
290
     0
  0
SCALE
  5
60
102
{ACAD_REACTORS
330
47
102
}
330
47
100
AcDbScale
 70
     0
300
1/4" = 1'-0"
140
0.25
141
12.0
290
     0
  0
SCALE
  5
61
102
{ACAD_REACTORS
330
47
102
}
330
47
100
AcDbScale
 70
     0
300
3/8" = 1'-0"
140
0.375
141
12.0
290
     0
  0
SCALE
  5
62
102
{ACAD_REACTORS
330
47
102
}
330
47
100
AcDbScale
 70
     0
300
1/2" = 1'-0"
140
0.5
141
12.0
290
     0
  0
SCALE
  5
63
102
{ACAD_REACTORS
330
47
102
}
330
47
100
AcDbScale
 70
     0
300
3/4" = 1'-0"
140
0.75
141
12.0
290
     0
  0
SCALE
  5
64
102
{ACAD_REACTORS
330
47
102
}
330
47
100
AcDbScale
 70
     0
300
1" = 1'-0"
140
1.0
141
12.0
290
     0
  0
SCALE
  5
65
102
{ACAD_REACTORS
330
47
102
}
330
47
100
AcDbScale
 70
     0
300
1-1/2" = 1'-0"
140
1.5
141
12.0
290
     0
  0
SCALE
  5
66
102
{ACAD_REACTORS
330
47
102
}
330
47
100
AcDbScale
 70
     0
300
3" = 1'-0"
140
3.0
141
12.0
290
     0
  0
SCALE
  5
67
102
{ACAD_REACTORS
330
47
102
}
330
47
100
AcDbScale
 70
     0
300
6" = 1'-0"
140
6.0
141
12.0
290
     0
  0
SCALE
  5
68
102
{ACAD_REACTORS
330
47
102
}
330
47
100
AcDbScale
 70
     0
300
1'-0" = 1'-0"
140
12.0
141
12.0
290
     0
  0
ENDSEC
  0
EOF
