  0
SECTION
  2
HEADER
  9
$ACADVER
  1
AC1015
  9
$ACADMAINTVER
 70
     6
  9
$DWGCODEPAGE
  3
ANSI_1250
  9
$INSBASE
 10
0.0
 20
0.0
 30
0.0
  9
$EXTMIN
 10
0.0
 20
0.0
 30
0.0
  9
$EXTMAX
 10
20000.0
 20
10000.0
 30
0.0
  9
$LIMMIN
 10
0.0
 20
0.0
  9
$LIMMAX
 10
20000.0
 20
10000.0
  9
$ORTHOMODE
 70
     0
  9
$REGENMODE
 70
     1
  9
$FILLMODE
 70
     1
  9
$QTEXTMODE
 70
     0
  9
$MIRRTEXT
 70
     1
  9
$LTSCALE
 40
1.0
  9
$ATTMODE
 70
     1
  9
$TEXTSIZE
 40
2.0
  9
$TRACEWID
 40
1.0
  9
$TEXTSTYLE
  7
Standard
  9
$CLAYER
  8
0
  9
$CELTYPE
  6
ByLayer
  9
$CECOLOR
 62
   256
  9
$CELTSCALE
 40
1.0
  9
$DISPSILH
 70
     0
  9
$DIMSCALE
 40
1.0
  9
$DIMASZ
 40
2.0
  9
$DIMEXO
 40
1.0
  9
$DIMDLI
 40
3.75
  9
$DIMRND
 40
0.0
  9
$DIMDLE
 40
0.0
  9
$DIMEXE
 40
1.0
  9
$DIMTP
 40
0.0
  9
$DIMTM
 40
0.0
  9
$DIMTXT
 40
2.0
  9
$DIMCEN
 40
2.5
  9
$DIMTSZ
 40
0.0
  9
$DIMTOL
 70
     0
  9
$DIMLIM
 70
     0
  9
$DIMTIH
 70
     1
  9
$DIMTOH
 70
     1
  9
$DIMSE1
 70
     0
  9
$DIMSE2
 70
     0
  9
$DIMTAD
 70
     1
  9
$DIMZIN
 70
     0
  9
$DIMBLK
  1

  9
$DIMASO
 70
     1
  9
$DIMSHO
 70
     1
  9
$DIMPOST
  1

  9
$DIMAPOST
  1

  9
$DIMALT
 70
     0
  9
$DIMALTD
 70
     3
  9
$DIMALTF
 40
0.0393700787
  9
$DIMLFAC
 40
1.0
  9
$DIMTOFL
 70
     1
  9
$DIMTVP
 40
0.0
  9
$DIMTIX
 70
     0
  9
$DIMSOXD
 70
     0
  9
$DIMSAH
 70
     0
  9
$DIMBLK1
  1

  9
$DIMBLK2
  1

  9
$DIMSTYLE
  2
ISO-25
  9
$DIMCLRD
 70
     0
  9
$DIMCLRE
 70
     0
  9
$DIMCLRT
 70
     0
  9
$DIMTFAC
 40
1.0
  9
$DIMGAP
 40
1.524
  9
$DIMJUST
 70
     0
  9
$DIMSD1
 70
     0
  9
$DIMSD2
 70
     0
  9
$DIMTOLJ
 70
     0
  9
$DIMTZIN
 70
     0
  9
$DIMALTZ
 70
     0
  9
$DIMALTTZ
 70
     0
  9
$DIMUPT
 70
     0
  9
$DIMDEC
 70
     2
  9
$DIMTDEC
 70
     0
  9
$DIMALTU
 70
     2
  9
$DIMALTTD
 70
     3
  9
$DIMTXSTY
  7
Standard
  9
$DIMAUNIT
 70
     0
  9
$DIMADEC
 70
     2
  9
$DIMALTRND
 40
0.0
  9
$DIMAZIN
 70
     0
  9
$DIMDSEP
 70
    44
  9
$DIMATFIT
 70
     3
  9
$DIMFRAC
 70
     0
  9
$DIMLDRBLK
  1

  9
$DIMLUNIT
 70
     2
  9
$DIMLWD
 70
    -2
  9
$DIMLWE
 70
    -2
  9
$DIMTMOVE
 70
     0
  9
$LUNITS
 70
     2
  9
$LUPREC
 70
     3
  9
$SKETCHINC
 40
1.0
  9
$FILLETRAD
 40
10.0
  9
$AUNITS
 70
     0
  9
$AUPREC
 70
     2
  9
$MENU
  1
.
  9
$ELEVATION
 40
0.0
  9
$PELEVATION
 40
0.0
  9
$THICKNESS
 40
0.0
  9
$LIMCHECK
 70
     0
  9
$CHAMFERA
 40
0.0
  9
$CHAMFERB
 40
0.0
  9
$CHAMFERC
 40
0.0
  9
$CHAMFERD
 40
0.0
  9
$SKPOLY
 70
     0
  9
$TDCREATE
 40
2458697.609995278
  9
$TDUCREATE
 40
2458697.526661945
  9
$TDUPDATE
 40
2458697.609995787
  9
$TDUUPDATE
 40
2458697.526662454
  9
$TDINDWG
 40
0.0000000116
  9
$TDUSRTIMER
 40
0.0000000116
  9
$USRTIMER
 70
     1
  9
$ANGBASE
 50
0.0
  9
$ANGDIR
 70
     0
  9
$PDMODE
 70
     0
  9
$PDSIZE
 40
-1.0
  9
$PLINEWID
 40
0.0
  9
$SPLFRAME
 70
     0
  9
$SPLINETYPE
 70
     6
  9
$SPLINESEGS
 70
     8
  9
$HANDSEED
  5
2DA
  9
$SURFTAB1
 70
     6
  9
$SURFTAB2
 70
     6
  9
$SURFTYPE
 70
     6
  9
$SURFU
 70
     6
  9
$SURFV
 70
     6
  9
$UCSBASE
  2

  9
$UCSNAME
  2

  9
$UCSORG
 10
0.0
 20
0.0
 30
0.0
  9
$UCSXDIR
 10
1.0
 20
0.0
 30
0.0
  9
$UCSYDIR
 10
0.0
 20
1.0
 30
0.0
  9
$UCSORTHOREF
  2

  9
$UCSORTHOVIEW
 70
     0
  9
$UCSORGTOP
 10
0.0
 20
0.0
 30
0.0
  9
$UCSORGBOTTOM
 10
0.0
 20
0.0
 30
0.0
  9
$UCSORGLEFT
 10
0.0
 20
0.0
 30
0.0
  9
$UCSORGRIGHT
 10
0.0
 20
0.0
 30
0.0
  9
$UCSORGFRONT
 10
0.0
 20
0.0
 30
0.0
  9
$UCSORGBACK
 10
0.0
 20
0.0
 30
0.0
  9
$PUCSBASE
  2

  9
$PUCSNAME
  2

  9
$PUCSORG
 10
0.0
 20
0.0
 30
0.0
  9
$PUCSXDIR
 10
1.0
 20
0.0
 30
0.0
  9
$PUCSYDIR
 10
0.0
 20
1.0
 30
0.0
  9
$PUCSORTHOREF
  2

  9
$PUCSORTHOVIEW
 70
     0
  9
$PUCSORGTOP
 10
0.0
 20
0.0
 30
0.0
  9
$PUCSORGBOTTOM
 10
0.0
 20
0.0
 30
0.0
  9
$PUCSORGLEFT
 10
0.0
 20
0.0
 30
0.0
  9
$PUCSORGRIGHT
 10
0.0
 20
0.0
 30
0.0
  9
$PUCSORGFRONT
 10
0.0
 20
0.0
 30
0.0
  9
$PUCSORGBACK
 10
0.0
 20
0.0
 30
0.0
  9
$USERI1
 70
     0
  9
$USERI2
 70
     0
  9
$USERI3
 70
     0
  9
$USERI4
 70
     0
  9
$USERI5
 70
     0
  9
$USERR1
 40
0.0
  9
$USERR2
 40
0.0
  9
$USERR3
 40
0.0
  9
$USERR4
 40
0.0
  9
$USERR5
 40
0.0
  9
$WORLDVIEW
 70
     1
  9
$SHADEDGE
 70
     3
  9
$SHADEDIF
 70
    70
  9
$TILEMODE
 70
     1
  9
$MAXACTVP
 70
    64
  9
$PINSBASE
 10
0.0
 20
0.0
 30
0.0
  9
$PLIMCHECK
 70
     0
  9
$PEXTMIN
 10
1.0000000000E+20
 20
1.0000000000E+20
 30
1.0000000000E+20
  9
$PEXTMAX
 10
-1.0000000000E+20
 20
-1.0000000000E+20
 30
-1.0000000000E+20
  9
$PLIMMIN
 10
0.0
 20
0.0
  9
$PLIMMAX
 10
420.0
 20
297.0
  9
$UNITMODE
 70
     0
  9
$VISRETAIN
 70
     1
  9
$PLINEGEN
 70
     0
  9
$PSLTSCALE
 70
     1
  9
$TREEDEPTH
 70
  3020
  9
$CMLSTYLE
  2
Standard
  9
$CMLJUST
 70
     0
  9
$CMLSCALE
 40
20.0
  9
$PROXYGRAPHICS
 70
     1
  9
$MEASUREMENT
 70
     1
  9
$CELWEIGHT
370
    -1
  9
$ENDCAPS
280
     0
  9
$JOINSTYLE
280
     0
  9
$LWDISPLAY
290
     1
  9
$INSUNITS
 70
     4
  9
$HYPERLINKBASE
  1

  9
$STYLESHEET
  1

  9
$XEDIT
290
     1
  9
$CEPSNTYPE
380
     0
  9
$PSTYLEMODE
290
     1
  9
$FINGERPRINTGUID
  2
{C14D95DA-2538-44D1-875A-26DEEA43CA79}
  9
$VERSIONGUID
  2
{FAEB1C32-E019-11D5-929B-00C0DF256EC4}
  9
$EXTNAMES
290
     1
  9
$PSVPSCALE
 40
0.0
  9
$OLESTARTUP
290
     0
  0
ENDSEC
  0
SECTION
  2
CLASSES
  0
CLASS
  1
ACDBDICTIONARYWDFLT
  2
AcDbDictionaryWithDefault
  3
ObjectDBX Classes
 90
        0
280
     0
281
     0
  0
CLASS
  1
VISUALSTYLE
  2
AcDbVisualStyle
  3
ObjectDBX Classes
 90
     4095
280
     0
281
     0
  0
CLASS
  1
MATERIAL
  2
AcDbMaterial
  3
ObjectDBX Classes
 90
     1153
280
     0
281
     0
  0
CLASS
  1
SCALE
  2
AcDbScale
  3
ObjectDBX Classes
 90
     1153
280
     0
281
     0
  0
CLASS
  1
TABLESTYLE
  2
AcDbTableStyle
  3
ObjectDBX Classes
 90
     4095
280
     0
281
     0
  0
CLASS
  1
MLEADERSTYLE
  2
AcDbMLeaderStyle
  3
ACDB_MLEADERSTYLE_CLASS
 90
     4095
280
     0
281
     0
  0
CLASS
  1
SUN
  2
AcDbSun
  3
SCENEOE
 90
     1153
280
     0
281
     0
  0
CLASS
  1
ACDBPLACEHOLDER
  2
AcDbPlaceHolder
  3
ObjectDBX Classes
 90
        0
280
     0
281
     0
  0
CLASS
  1
LAYOUT
  2
AcDbLayout
  3
ObjectDBX Classes
 90
        0
280
     0
281
     0
  0
ENDSEC
  0
SECTION
  2
TABLES
  0
TABLE
  2
VPORT
  5
8
330
0
100
AcDbSymbolTable
 70
     1
  0
VPORT
  5
29
330
8
100
AcDbSymbolTableRecord
100
AcDbViewportTableRecord
  2
*Active
 70
     0
 10
0.0
 20
0.0
 11
1.0
 21
1.0
 12
10000.0
 22
5000.0
 13
0.0
 23
0.0
 14
10.0
 24
10.0
 15
10.0
 25
10.0
 16
0.0
 26
0.0
 36
1.0
 17
0.0
 27
0.0
 37
0.0
 40
10000.0
 41
2.0
 42
50.0
 43
0.0
 44
0.0
 50
0.0
 51
0.0
 71
     0
 72
  2000
 73
     1
 74
     3
 75
     0
 76
     0
 77
     0
 78
     0
281
     0
 65
     1
110
0.0
120
0.0
130
0.0
111
1.0
121
0.0
131
0.0
112
0.0
122
1.0
132
0.0
 79
     0
146
0.0
  0
ENDTAB
  0
TABLE
  2
LTYPE
  5
5
330
0
100
AcDbSymbolTable
 70
     6
  0
LTYPE
  5
14
330
5
100
AcDbSymbolTableRecord
100
AcDbLinetypeTableRecord
  2
ByBlock
 70
     0
  3

 72
    65
 73
     0
 40
0.0
  0
LTYPE
  5
15
330
5
100
AcDbSymbolTableRecord
100
AcDbLinetypeTableRecord
  2
ByLayer
 70
     0
  3

 72
    65
 73
     0
 40
0.0
  0
LTYPE
  5
16
330
5
100
AcDbSymbolTableRecord
100
AcDbLinetypeTableRecord
  2
Continuous
 70
     0
  3
Solid line
 72
    65
 73
     0
 40
0.0
  0
LTYPE
  5
6E
330
5
100
AcDbSymbolTableRecord
100
AcDbLinetypeTableRecord
  2
HIDDEN
 70
     0
  3
Hidden __ __ __ __ __ __ __ __ __ __ __ __ __ __
 72
    65
 73
     2
 40
1.905
 49
1.27
 74
     0
 49
-0.635
 74
     0
  0
LTYPE
  5
6F
330
5
100
AcDbSymbolTableRecord
100
AcDbLinetypeTableRecord
  2
PHANTOM
 70
     0
  3
Phantom ______  __  __  ______  __  __  ______
 72
    65
 73
     6
 40
12.7
 49
6.35
 74
     0
 49
-1.27
 74
     0
 49
1.27
 74
     0
 49
-1.27
 74
     0
 49
1.27
 74
     0
 49
-1.27
 74
     0
  0
LTYPE
  5
70
330
5
100
AcDbSymbolTableRecord
100
AcDbLinetypeTableRecord
  2
CENTER
 70
     0
  3
Center ____ _ ____ _ ____ _ ____ _ ____ _ ____
 72
    65
 73
     4
 40
10.16
 49
6.35
 74
     0
 49
-1.27
 74
     0
 49
1.27
 74
     0
 49
-1.27
 74
     0
  0
LTYPE
  5
71
330
5
100
AcDbSymbolTableRecord
100
AcDbLinetypeTableRecord
  2
CENTERX2
 70
     0
  3
Center (2x) ________  __  ________  __  _____
 72
    65
 73
     4
 40
20.32
 49
12.7
 74
     0
 49
-2.54
 74
     0
 49
2.54
 74
     0
 49
-2.54
 74
     0
  0
LTYPE
  5
72
330
5
100
AcDbSymbolTableRecord
100
AcDbLinetypeTableRecord
  2
DOT2
 70
     0
  3
Dot (.5x) ........................................
 72
    65
 73
     2
 40
0.635
 49
0.0
 74
     0
 49
-0.635
 74
     0
  0
ENDTAB
  0
TABLE
  2
LAYER
  5
2
330
0
100
AcDbSymbolTable
 70
    13
  0
LAYER
  5
10
330
2
100
AcDbSymbolTableRecord
100
AcDbLayerTableRecord
  2
0
 70
     0
 62
     7
  6
Continuous
370
    -3
390
F
  0
LAYER
  5
73
330
2
100
AcDbSymbolTableRecord
100
AcDbLayerTableRecord
  2
FORMAT
 70
     0
 62
     7
  6
Continuous
370
    -3
390
F
  0
LAYER
  5
74
330
2
100
AcDbSymbolTableRecord
100
AcDbLayerTableRecord
  2
OSA
 70
     0
 62
     7
  6
CENTER
370
    -3
390
F
  0
LAYER
  5
75
330
2
100
AcDbSymbolTableRecord
100
AcDbLayerTableRecord
  2
0_35
 70
     0
 62
     7
  6
Continuous
370
    35
390
F
  0
LAYER
  5
76
330
2
100
AcDbSymbolTableRecord
100
AcDbLayerTableRecord
  2
0_5
 70
     0
 62
     7
  6
Continuous
370
    50
390
F
  0
LAYER
  5
77
330
2
100
AcDbSymbolTableRecord
100
AcDbLayerTableRecord
  2
0_25
 70
     0
 62
     7
  6
Continuous
370
    25
390
F
  0
LAYER
  5
78
330
2
100
AcDbSymbolTableRecord
100
AcDbLayerTableRecord
  2
0_18
 70
     0
 62
     7
  6
Continuous
370
    -3
390
F
  0
LAYER
  5
79
330
2
100
AcDbSymbolTableRecord
100
AcDbLayerTableRecord
  2
SLD-0
 70
     0
 62
   179
  6
Continuous
370
    -3
390
F
  0
LAYER
  5
7A
330
2
100
AcDbSymbolTableRecord
100
AcDbLayerTableRecord
  2
KOTY
 70
     0
 62
     7
  6
Continuous
370
    -3
390
F
  0
LAYER
  5
7B
330
2
100
AcDbSymbolTableRecord
100
AcDbLayerTableRecord
  2
SILNA
 70
     0
 62
   179
  6
Continuous
370
    -3
390
F
  0
LAYER
  5
7C
330
2
100
AcDbSymbolTableRecord
100
AcDbLayerTableRecord
  2
0_18_1
 70
     0
 62
   179
  6
Continuous
370
    -3
390
F
  0
LAYER
  5
7D
330
2
100
AcDbSymbolTableRecord
100
AcDbLayerTableRecord
  2
0_35_1
 70
     0
 62
   179
  6
Continuous
370
    35
390
F
  0
LAYER
  5
7E
330
2
100
AcDbSymbolTableRecord
100
AcDbLayerTableRecord
  2
0_5_1
 70
     0
 62
   179
  6
Continuous
370
    50
390
F
  0
ENDTAB
  0
TABLE
  2
STYLE
  5
3
330
0
100
AcDbSymbolTable
 70
     1
  0
STYLE
  5
11
330
3
100
AcDbSymbolTableRecord
100
AcDbTextStyleTableRecord
  2
Standard
 70
     0
 40
0.0
 41
1.0
 50
0.0
 71
     0
 42
2.0
  3
txt
  4

  0
ENDTAB
  0
TABLE
  2
VIEW
  5
6
330
0
100
AcDbSymbolTable
 70
     0
  0
ENDTAB
  0
TABLE
  2
UCS
  5
7
330
0
100
AcDbSymbolTable
 70
     0
  0
ENDTAB
  0
TABLE
  2
APPID
  5
9
330
0
100
AcDbSymbolTable
 70
     1
  0
APPID
  5
12
330
9
100
AcDbSymbolTableRecord
100
AcDbRegAppTableRecord
  2
ACAD
 70
     0
  0
ENDTAB
  0
TABLE
  2
DIMSTYLE
  5
A
330
0
100
AcDbSymbolTable
 70
     1
100
AcDbDimStyleTable
  0
DIMSTYLE
105
27
330
A
100
AcDbSymbolTableRecord
100
AcDbDimStyleTableRecord
  2
ISO-25
 70
     0
 41
2.5
 42
0.625
 43
3.75
 44
1.25
 73
     0
 74
     0
 77
     1
 78
     8
140
2.5
141
2.5
143
0.0393700787
147
0.625
171
     3
172
     1
178
     0
271
     2
272
     2
274
     3
278
    44
283
     0
284
     8
340
11
  0
ENDTAB
  0
TABLE
  2
BLOCK_RECORD
  5
1
330
0
100
AcDbSymbolTable
 70
     1
  0
BLOCK_RECORD
  5
1F
330
1
100
AcDbSymbolTableRecord
100
AcDbBlockTableRecord
  2
*Model_Space
340
22
  0
BLOCK_RECORD
  5
1B
330
1
100
AcDbSymbolTableRecord
100
AcDbBlockTableRecord
  2
*Paper_Space
340
1E
  0
BLOCK_RECORD
  5
23
330
1
100
AcDbSymbolTableRecord
100
AcDbBlockTableRecord
  2
*Paper_Space0
340
26
  0
ENDTAB
  0
ENDSEC
  0
SECTION
  2
BLOCKS
  0
BLOCK
  5
20
330
1F
100
AcDbEntity
  8
0
100
AcDbBlockBegin
  2
*Model_Space
 70
     0
 10
0.0
 20
0.0
 30
0.0
  3
*Model_Space
  1

  0
ENDBLK
  5
21
330
1F
100
AcDbEntity
  8
0
100
AcDbBlockEnd
  0
BLOCK
  5
1C
330
1B
100
AcDbEntity
 67
     1
  8
0
100
AcDbBlockBegin
  2
*Paper_Space
 70
     0
 10
0.0
 20
0.0
 30
0.0
  3
*Paper_Space
  1

  0
ENDBLK
  5
1D
330
1B
100
AcDbEntity
 67
     1
  8
0
100
AcDbBlockEnd
  0
BLOCK
  5
24
330
23
100
AcDbEntity
  8
0
100
AcDbBlockBegin
  2
*Paper_Space0
 70
     0
 10
0.0
 20
0.0
 30
0.0
  3
*Paper_Space0
  1

  0
ENDBLK
  5
25
330
23
100
AcDbEntity
  8
0
100
AcDbBlockEnd
  0
ENDSEC
  0
SECTION
  2
ENTITIES
  0
LINE
  5
7F
330
1F
100
AcDbEntity
  8
0
  6
Continuous
 62
     7
370
    25
100
AcDbLine
 10
6287.2109599395
 20
5298.6249693262
 30
0.0
 11
6286.2536534651
 21
5299.582279526
 31
0.0
  0
LINE
  5
80
330
1F
100
AcDbEntity
  8
0
  6
Continuous
 62
     7
370
    25
100
AcDbLine
 10
6262.8126535548
 20
5299.582279526
 30
0.0
 11
6261.3663375361
 21
5298.1359579193
 31
0.0
  0
LINE
  5
81
330
1F
100
AcDbEntity
  8
0
  6
Continuous
 62
     7
370
    25
100
AcDbLine
 10
6286.886529064
 20
5298.4259047139
 30
0.0
 11
6287.1878957359
 21
5298.5999949801
 31
0.0
  0
SPLINE
  5
82
330
1F
100
AcDbEntity
  8
0
  6
Continuous
 62
     7
370
    25
100
AcDbSpline
210
0.0
220
0.0
230
1.0
 70
     8
 71
     3
 72
     9
 73
     5
 74
     0
 42
0.000000001
 43
0.00000001
 40
0.0
 40
0.0
 40
0.0
 40
0.0
 40
0.5872817229554499
 40
1.0
 40
1.0
 40
1.0
 40
1.0
 10
6261.320002375385
 20
5298.128850065454
 30
0.0
 10
6261.463301351519
 20
5298.046064376333
 30
0.0
 10
6261.707305158438
 20
5297.905100191881
 30
0.0
 10
6261.951308122772
 20
5297.764134307638
 30
0.0
 10
6262.052012605807
 20
5297.705955110772
 30
0.0
  0
LINE
  5
83
330
1F
100
AcDbEntity
  8
0
  6
Continuous
 62
     7
370
    25
100
AcDbLine
 10
6287.7536537109
 20
5297.7059551108
 30
0.0
 11
6287.7536537109
 21
5297.7403022873
 31
0.0
  0
SPLINE
  5
84
330
1F
100
AcDbEntity
  8
0
  6
Continuous
 62
     7
370
    25
100
AcDbSpline
210
0.0
220
0.0
230
1.0
 70
     8
 71
     3
 72
     9
 73
     5
 74
     0
 42
0.000000001
 43
0.00000001
 40
0.0
 40
0.0
 40
0.0
 40
0.0
 40
0.5045959627247238
 40
1.0
 40
1.0
 40
1.0
 40
1.0
 10
6287.74632420226
 20
5297.749079071267
 30
0.0
 10
6287.603025205739
 20
5297.831859229736
 30
0.0
 10
6287.319037605545
 20
5297.995911589614
 30
0.0
 10
6287.035055044641
 20
5298.159972892519
 30
0.0
 10
6286.894368937454
 20
5298.241249524339
 30
0.0
  0
LINE
  5
85
330
1F
100
AcDbEntity
  8
0
  6
Continuous
 62
     7
370
    25
100
AcDbLine
 10
6286.8943689375
 20
5298.2371666062
 30
0.0
 11
6286.8943689375
 21
5298.4304346669
 31
0.0
  0
SPLINE
  5
86
330
1F
100
AcDbEntity
  8
0
  6
Continuous
 62
     7
370
    25
100
AcDbSpline
210
0.0
220
0.0
230
1.0
 70
     8
 71
     3
 72
    26
 73
    22
 74
     0
 42
0.000000001
 43
0.00000001
 40
0.0
 40
0.0
 40
0.0
 40
0.0
 40
0.0349000567291449
 40
0.0884026867828541
 40
0.1424218551271983
 40
0.1980376133996914
 40
0.2515663286443269
 40
0.3066470758268103
 40
0.3601764269255481
 40
0.4152803778912039
 40
0.4684334853722716
 40
0.5231365649529133
 40
0.5761504107640295
 40
0.6307099559064505
 40
0.683514405503074
 40
0.7378691328403788
 40
0.7903683408344894
 40
0.844390506982493
 40
0.896843349988415
 40
0.950846568983651
 40
1.0
 40
1.0
 40
1.0
 40
1.0
 10
6261.385114861867
 20
5298.117182456239
 30
0.0
 10
6261.390917563049
 20
5298.123036641482
 30
0.0
 10
6261.405615945321
 20
5298.137865434123
 30
0.0
 10
6261.829317910398
 20
5298.160276287909
 30
0.0
 10
6262.616786919335
 20
5298.186629554841
 30
0.0
 10
6263.758206600414
 20
5298.214338282397
 30
0.0
 10
6265.20936919449
 20
5298.242330720227
 30
0.0
 10
6266.904500490995
 20
5298.269527536312
 30
0.0
 10
6268.829651768754
 20
5298.295227179579
 30
0.0
 10
6270.892682617562
 20
5298.322379885369
 30
0.0
 10
6273.069728107866
 20
5298.350375552727
 30
0.0
 10
6275.256818517756
 20
5298.378062093261
 30
0.0
 10
6277.436588033509
 20
5298.4048724985
 30
0.0
 10
6279.50525997835
 20
5298.430599553432
 30
0.0
 10
6281.442177751597
 20
5298.4584573726
 30
0.0
 10
6283.15463448475
 20
5298.486175108298
 30
0.0
 10
6284.627586613979
 20
5298.513991925589
 30
0.0
 10
6285.797674818224
 20
5298.539670708654
 30
0.0
 10
6286.643062757451
 20
5298.56657672206
 30
0.0
 10
6287.150221375901
 20
5298.593842259398
 30
0.0
 10
6287.188297311027
 20
5298.611855966339
 30
0.0
 10
6287.206440231046
 20
5298.620439373239
 30
0.0
  0
LINE
  5
87
330
1F
100
AcDbEntity
  8
0
  6
Continuous
 62
     7
370
    25
100
AcDbLine
 10
6263.1912874041
 20
5299.582279526
 30
0.0
 11
6286.2536534651
 21
5299.582279526
 31
0.0
  0
LINE
  5
88
330
1F
100
AcDbEntity
  8
0
  6
Continuous
 62
     7
370
    25
100
AcDbLine
 10
6262.8126535548
 20
5299.582279526
 30
0.0
 11
6263.1912874041
 21
5299.582279526
 31
0.0
  0
SPLINE
  5
89
330
1F
100
AcDbEntity
  8
0
  6
Continuous
 62
     7
370
    25
100
AcDbSpline
210
0.0
220
0.0
230
1.0
 70
     8
 71
     3
 72
    21
 73
    17
 74
     0
 42
0.000000001
 43
0.00000001
 40
0.0
 40
0.0
 40
0.0
 40
0.0
 40
0.0183785377179882
 40
0.0968104755454871
 40
0.1737582938956839
 40
0.2507060317040269
 40
0.3291381718076402
 40
0.407140418959708
 40
0.4834954365217315
 40
0.5613317302942357
 40
0.6398119523231381
 40
0.7170148056926197
 40
0.7937257429594848
 40
0.8720859682688804
 40
0.9502308856789351
 40
1.0
 40
1.0
 40
1.0
 40
1.0
 10
6286.831636911473
 20
5298.425710998757
 30
0.0
 10
6286.840602485549
 20
5298.421265331455
 30
0.0
 10
6286.887829392462
 20
5298.397847409294
 30
0.0
 10
6286.370646397897
 20
5298.354355060444
 30
0.0
 10
6285.28905325462
 20
5298.300272749154
 30
0.0
 10
6283.641026662722
 20
5298.246012199082
 30
0.0
 10
6281.553476898706
 20
5298.188139334025
 30
0.0
 10
6279.123851675074
 20
5298.131059029231
 30
0.0
 10
6276.481141136202
 20
5298.078589578477
 30
0.0
 10
6273.737687202982
 20
5298.021928087206
 30
0.0
 10
6271.022476951251
 20
5297.963972786132
 30
0.0
 10
6268.493817269005
 20
5297.909010418987
 30
0.0
 10
6266.251228395336
 20
5297.855506163355
 30
0.0
 10
6264.424712250408
 20
5297.797691624756
 30
0.0
 10
6263.172458347106
 20
5297.746888853139
 30
0.0
 10
6262.793754764431
 20
5297.717420667009
 30
0.0
 10
6262.646407818636
 20
5297.705955110772
 30
0.0
  0
SPLINE
  5
8A
330
1F
100
AcDbEntity
  8
0
  6
Continuous
 62
     7
370
    25
100
AcDbSpline
210
0.0
220
0.0
230
1.0
 70
     8
 71
     3
 72
     9
 73
     5
 74
     0
 42
0.000000001
 43
0.00000001
 40
0.0
 40
0.0
 40
0.0
 40
0.0
 40
0.657368968370318
 40
1.0
 40
1.0
 40
1.0
 40
1.0
 10
6287.675718775234
 20
5297.740302287324
 30
0.0
 10
6287.712784773874
 20
5297.732836714479
 30
0.0
 10
6287.769170153203
 20
5297.721479967804
 30
0.0
 10
6287.629915707323
 20
5297.709916957069
 30
0.0
 10
6287.582202812871
 20
5297.705955110772
 30
0.0
  0
SPLINE
  5
8B
330
1F
100
AcDbEntity
  8
0
  6
Continuous
 62
     7
370
    25
100
AcDbSpline
210
0.0
220
0.0
230
1.0
 70
     8
 71
     3
 72
    18
 73
    14
 74
     0
 42
0.000000001
 43
0.00000001
 40
0.0
 40
0.0
 40
0.0
 40
0.0
 40
0.0429455760405653
 40
0.1493618335798245
 40
0.2537644415154877
 40
0.3581669401721645
 40
0.4645834721591511
 40
0.5704167264621589
 40
0.6740150237675981
 40
0.7796231129393045
 40
0.8861048823625484
 40
0.9908535211760081
 40
1.0
 40
1.0
 40
1.0
 40
1.0
 10
6286.820940671703
 20
5298.236928187593
 30
0.0
 10
6286.839798522862
 20
5298.229279104629
 30
0.0
 10
6286.905384864608
 20
5298.202676107022
 30
0.0
 10
6286.378348038592
 20
5298.155935593071
 30
0.0
 10
6285.28701502382
 20
5298.101828848232
 30
0.0
 10
6283.641556581279
 20
5298.047574886633
 30
0.0
 10
6281.553441630295
 20
5297.989700010077
 30
0.0
 10
6279.123467600169
 20
5297.932621037874
 30
0.0
 10
6276.482686136504
 20
5297.880148311644
 30
0.0
 10
6273.731733692646
 20
5297.823498813314
 30
0.0
 10
6271.044743001589
 20
5297.765498572419
 30
0.0
 10
6269.204997698178
 20
5297.727199691892
 30
0.0
 10
6268.406748312435
 20
5297.707534358091
 30
0.0
 10
6268.342643974564
 20
5297.705955110772
 30
0.0
  0
ARC
  5
8C
330
1F
100
AcDbEntity
  8
0
  6
Continuous
 62
     7
370
    25
100
AcDbCircle
 10
6289.718757689
 20
5205.4559607401
 30
0.0
 40
1.0
100
AcDbArc
 50
0.0
 51
90.0
  0
LINE
  5
8D
330
1F
100
AcDbEntity
  8
0
  6
Continuous
 62
     7
370
    25
100
AcDbLine
 10
6290.7187575458
 20
5192.5559595752
 30
0.0
 11
6290.7187575458
 21
5205.4559618759
 31
0.0
  0
ARC
  5
8E
330
1F
100
AcDbEntity
  8
0
  6
Continuous
 62
     7
370
    25
100
AcDbCircle
 10
6289.718757689
 20
5192.5559607401
 30
0.0
 40
0.9999999999990905
100
AcDbArc
 50
270.0
 51
0.0
  0
LINE
  5
8F
330
1F
100
AcDbEntity
  8
0
  6
Continuous
 62
     7
370
    25
100
AcDbLine
 10
6258.3187576367
 20
5191.5559612739
 30
0.0
 11
6289.7187573819
 21
5191.5559612739
 31
0.0
  0
ARC
  5
90
330
1F
100
AcDbEntity
  8
0
  6
Continuous
 62
     7
370
    25
100
AcDbCircle
 10
6258.318757689
 20
5192.5559607401
 30
0.0
 40
1.0
100
AcDbArc
 50
180.0
 51
270.0
  0
LINE
  5
91
330
1F
100
AcDbEntity
  8
0
  6
Continuous
 62
     7
370
    25
100
AcDbLine
 10
6257.3187574728
 20
5205.4559618759
 30
0.0
 11
6257.3187574728
 21
5192.5559595752
 31
0.0
  0
ARC
  5
92
330
1F
100
AcDbEntity
  8
0
  6
Continuous
 62
     7
370
    25
100
AcDbCircle
 10
6258.318757689
 20
5205.4559607401
 30
0.0
 40
1.0
100
AcDbArc
 50
90.0
 51
180.0
  0
LINE
  5
93
330
1F
100
AcDbEntity
  8
0
  6
Continuous
 62
     7
370
    25
100
AcDbLine
 10
6289.7187573819
 20
5206.4559601772
 30
0.0
 11
6258.3187576367
 21
5206.4559601772
 31
0.0
  0
LINE
  5
94
330
1F
100
AcDbEntity
  8
0
  6
Continuous
 62
     7
370
    25
100
AcDbLine
 10
6257.21875578
 20
5205.4559618759
 30
0.0
 11
6257.21875578
 21
5192.5559595752
 31
0.0
  0
LINE
  5
95
330
1F
100
AcDbEntity
  8
0
  6
Continuous
 62
     7
370
    25
100
AcDbLine
 10
6258.318755774
 20
5191.4559595811
 30
0.0
 11
6289.7187555192
 21
5191.4559595811
 31
0.0
  0
LINE
  5
96
330
1F
100
AcDbEntity
  8
0
  6
Continuous
 62
     7
370
    25
100
AcDbLine
 10
6290.8187555133
 20
5192.5559595752
 30
0.0
 11
6290.8187555133
 21
5205.4559618759
 31
0.0
  0
ARC
  5
97
330
1F
100
AcDbEntity
  8
0
  6
Continuous
 62
     7
370
    25
100
AcDbCircle
 10
6289.7187553361
 20
5205.4559607401
 30
0.0
 40
1.100000000000364
100
AcDbArc
 50
0.0
 51
90.0
  0
LINE
  5
98
330
1F
100
AcDbEntity
  8
0
  6
Continuous
 62
     7
370
    25
100
AcDbLine
 10
6289.7187555192
 20
5206.5559618699
 30
0.0
 11
6258.318755774
 21
5206.5559618699
 31
0.0
  0
ARC
  5
99
330
1F
100
AcDbEntity
  8
0
  6
Continuous
 62
     7
370
    25
100
AcDbCircle
 10
6258.3187553361
 20
5205.4559607401
 30
0.0
 40
1.100000000000364
100
AcDbArc
 50
90.0
 51
180.0
  0
ARC
  5
9A
330
1F
100
AcDbEntity
  8
0
  6
Continuous
 62
     7
370
    25
100
AcDbCircle
 10
6289.7187553361
 20
5192.5559607401
 30
0.0
 40
1.100000000000364
100
AcDbArc
 50
270.0
 51
0.0
  0
ARC
  5
9B
330
1F
100
AcDbEntity
  8
0
  6
Continuous
 62
     7
370
    25
100
AcDbCircle
 10
6258.3187553361
 20
5192.5559607401
 30
0.0
 40
1.100000000000364
100
AcDbArc
 50
180.0
 51
270.0
  0
LINE
  5
9C
330
1F
100
AcDbEntity
  8
0
  6
Continuous
 62
     7
370
    25
100
AcDbLine
 10
6313.6844672246
 20
5152.5479403849
 30
0.0
 11
6313.9549940808
 21
5152.5479403849
 31
0.0
  0
LINE
  5
9D
330
1F
100
AcDbEntity
  8
0
  6
Continuous
 62
     7
370
    25
100
AcDbLine
 10
6313.2609538717
 20
5150.6332869235
 30
0.0
 11
6313.2609538717
 21
5150.3655205074
 31
0.0
  0
LINE
  5
9E
330
1F
100
AcDbEntity
  8
0
  6
Continuous
 62
     7
370
    25
100
AcDbLine
 10
6313.2609538717
 20
5150.3655205074
 30
0.0
 11
6314.3790326996
 21
5150.3655205074
 31
0.0
  0
LINE
  5
9F
330
1F
100
AcDbEntity
  8
0
  6
Continuous
 62
     7
370
    25
100
AcDbLine
 10
6314.3790326996
 20
5150.3655205074
 30
0.0
 11
6314.3790326996
 21
5150.6398387778
 31
0.0
  0
SPLINE
  5
A0
330
1F
100
AcDbEntity
  8
0
  6
Continuous
 62
     7
370
    25
100
AcDbSpline
210
0.0
220
0.0
230
1.0
 70
     8
 71
     3
 72
    12
 73
     8
 74
     0
 42
0.000000001
 43
0.00000001
 40
0.0
 40
0.0
 40
0.0
 40
0.0
 40
0.5919168264490192
 40
0.7068168850847766
 40
0.8064210039610283
 40
0.8986244415882706
 40
1.0
 40
1.0
 40
1.0
 40
1.0
 10
6314.379032699606
 20
5150.639838777764
 30
0.0
 10
6314.385491117315
 20
5150.920151916636
 30
0.0
 10
6314.393203212128
 20
5151.254878099121
 30
0.0
 10
6314.284252865542
 20
5151.619109872883
 30
0.0
 10
6314.209529672024
 20
5151.743952622462
 30
0.0
 10
6314.095101381929
 20
5151.830691370702
 30
0.0
 10
6314.003148807267
 20
5151.839021042395
 30
0.0
 10
6313.954994080803
 20
5151.84338321565
 30
0.0
  0
LINE
  5
A1
330
1F
100
AcDbEntity
  8
0
  6
Continuous
 62
     7
370
    25
100
AcDbLine
 10
6313.9549940808
 20
5151.8433832156
 30
0.0
 11
6313.6844672246
 21
5151.8433832156
 31
0.0
  0
SPLINE
  5
A2
330
1F
100
AcDbEntity
  8
0
  6
Continuous
 62
     7
370
    25
100
AcDbSpline
210
0.0
220
0.0
230
1.0
 70
     8
 71
     3
 72
    12
 73
     8
 74
     0
 42
0.000000001
 43
0.00000001
 40
0.0
 40
0.0
 40
0.0
 40
0.0
 40
0.1009565860503207
 40
0.1931118326535459
 40
0.2929537194799014
 40
0.4081873204290404
 40
1.0
 40
1.0
 40
1.0
 40
1.0
 10
6313.684467224619
 20
5151.84338321565
 30
0.0
 10
6313.636338967259
 20
5151.838845808589
 30
0.0
 10
6313.54427824745
 20
5151.830166563112
 30
0.0
 10
6313.43011590711
 20
5151.742336082674
 30
0.0
 10
6313.35561489918
 20
5151.616520251392
 30
0.0
 10
6313.247032374159
 20
5151.250519058432
 30
0.0
 10
6313.254610674338
 20
5150.91452285048
 30
0.0
 10
6313.260953871748
 20
5150.633286923452
 30
0.0
  0
SPLINE
  5
A3
330
1F
100
AcDbEntity
  8
0
  6
Continuous
 62
     7
370
    25
100
AcDbSpline
210
0.0
220
0.0
230
1.0
 70
     8
 71
     3
 72
    11
 73
     7
 74
     0
 42
0.000000001
 43
0.00000001
 40
0.0
 40
0.0
 40
0.0
 40
0.0
 40
0.2748947778020987
 40
0.5431560347387527
 40
0.7649547697620042
 40
1.0
 40
1.0
 40
1.0
 40
1.0
 10
6313.954994080803
 20
5152.547940384879
 30
0.0
 10
6314.131273487338
 20
5152.522314502421
 30
0.0
 10
6314.479578479619
 20
5152.471681118935
 30
0.0
 10
6314.84072659171
 20
5152.110465541072
 30
0.0
 10
6315.043180894141
 20
5151.691421901221
 30
0.0
 10
6315.066597929166
 20
5151.400848976847
 30
0.0
 10
6315.078645942947
 20
5151.25134983687
 30
0.0
  0
LINE
  5
A4
330
1F
100
AcDbEntity
  8
0
  6
Continuous
 62
     7
370
    25
100
AcDbLine
 10
6315.0786459429
 20
5151.2513498369
 30
0.0
 11
6315.0786459429
 21
5147.325961158
 31
0.0
  0
LINE
  5
A5
330
1F
100
AcDbEntity
  8
0
  6
Continuous
 62
     7
370
    25
100
AcDbLine
 10
6315.0786459429
 20
5147.325961158
 30
0.0
 11
6314.3790326996
 21
5147.325961158
 31
0.0
  0
LINE
  5
A6
330
1F
100
AcDbEntity
  8
0
  6
Continuous
 62
     7
370
    25
100
AcDbLine
 10
6314.3790326996
 20
5147.325961158
 30
0.0
 11
6314.3790326996
 21
5149.6330520663
 31
0.0
  0
LINE
  5
A7
330
1F
100
AcDbEntity
  8
0
  6
Continuous
 62
     7
370
    25
100
AcDbLine
 10
6314.3790326996
 20
5149.6330520663
 30
0.0
 11
6313.2612034662
 21
5149.6330520663
 31
0.0
  0
LINE
  5
A8
330
1F
100
AcDbEntity
  8
0
  6
Continuous
 62
     7
370
    25
100
AcDbLine
 10
6313.2612034662
 20
5149.6330520663
 30
0.0
 11
6313.2609538717
 21
5147.325961158
 31
0.0
  0
LINE
  5
A9
330
1F
100
AcDbEntity
  8
0
  6
Continuous
 62
     7
370
    25
100
AcDbLine
 10
6313.2609538717
 20
5147.325961158
 30
0.0
 11
6312.5749714656
 21
5147.325961158
 31
0.0
  0
LINE
  5
AA
330
1F
100
AcDbEntity
  8
0
  6
Continuous
 62
     7
370
    25
100
AcDbLine
 10
6312.5749714656
 20
5147.325961158
 30
0.0
 11
6312.5749714656
 21
5149.6330520663
 31
0.0
  0
LINE
  5
AB
330
1F
100
AcDbEntity
  8
0
  6
Continuous
 62
     7
370
    25
100
AcDbLine
 10
6312.5749714656
 20
5149.6330520663
 30
0.0
 11
6312.2744485719
 21
5149.6330520663
 31
0.0
  0
LINE
  5
AC
330
1F
100
AcDbEntity
  8
0
  6
Continuous
 62
     7
370
    25
100
AcDbLine
 10
6312.2744485719
 20
5149.6330520663
 30
0.0
 11
6312.0322599991
 21
5150.3653444874
 31
0.0
  0
LINE
  5
AD
330
1F
100
AcDbEntity
  8
0
  6
Continuous
 62
     7
370
    25
100
AcDbLine
 10
6312.0322599991
 20
5150.3653444874
 30
0.0
 11
6312.5749714656
 21
5150.3653444874
 31
0.0
  0
LINE
  5
AE
330
1F
100
AcDbEntity
  8
0
  6
Continuous
 62
     7
370
    25
100
AcDbLine
 10
6312.5749714656
 20
5150.3653444874
 30
0.0
 11
6312.5749714656
 21
5151.2608125399
 31
0.0
  0
SPLINE
  5
AF
330
1F
100
AcDbEntity
  8
0
  6
Continuous
 62
     7
370
    25
100
AcDbSpline
210
0.0
220
0.0
230
1.0
 70
     8
 71
     3
 72
    11
 73
     7
 74
     0
 42
0.000000001
 43
0.00000001
 40
0.0
 40
0.0
 40
0.0
 40
0.0
 40
0.2975695436733968
 40
0.5729145305264443
 40
0.7820977215107997
 40
0.9999999999999999
 40
0.9999999999999999
 40
0.9999999999999999
 40
0.9999999999999999
 10
6312.574971465609
 20
5151.260812539889
 30
0.0
 10
6312.593515571535
 20
5151.448907807614
 30
0.0
 10
6312.629218780977
 20
5151.811050084249
 30
0.0
 10
6312.905683778893
 20
5152.237378977575
 30
0.0
 10
6313.276119348399
 20
5152.502397605853
 30
0.0
 10
6313.546511220144
 20
5152.532554239406
 30
0.0
 10
6313.684467224619
 20
5152.547940384879
 30
0.0
  0
LINE
  5
B0
330
1F
100
AcDbEntity
  8
0
  6
Continuous
 62
     7
370
    25
100
AcDbLine
 10
6309.8459728046
 20
5150.776557863
 30
0.0
 11
6310.7903115435
 21
5149.7079760361
 31
0.0
  0
SPLINE
  5
B1
330
1F
100
AcDbEntity
  8
0
  6
Continuous
 62
     7
370
    25
100
AcDbSpline
210
0.0
220
0.0
230
1.0
 70
     8
 71
     3
 72
    10
 73
     6
 74
     0
 42
0.000000001
 43
0.00000001
 40
0.0
 40
0.0
 40
0.0
 40
0.0
 40
0.3303987469563777
 40
0.5904393150854104
 40
1.0
 40
1.0
 40
1.0
 40
1.0
 10
6309.293773023626
 20
5152.293551951929
 30
0.0
 10
6309.288446971367
 20
5152.108901930317
 30
0.0
 10
6309.278929045901
 20
5151.778922978233
 30
0.0
 10
6309.449755684623
 20
5151.23627970596
 30
0.0
 10
6309.695601530979
 20
5150.951030281159
 30
0.0
 10
6309.845972804567
 20
5150.776557863041
 30
0.0
  0
SPLINE
  5
B2
330
1F
100
AcDbEntity
  8
0
  6
Continuous
 62
     7
370
    25
100
AcDbSpline
210
0.0
220
0.0
230
1.0
 70
     8
 71
     3
 72
    11
 73
     7
 74
     0
 42
0.000000001
 43
0.00000001
 40
0.0
 40
0.0
 40
0.0
 40
0.0
 40
0.2749203023256956
 40
0.5425914406407364
 40
0.7577338053757076
 40
1.0
 40
1.0
 40
1.0
 40
1.0
 10
6310.955818740866
 20
5153.725004993661
 30
0.0
 10
6310.732212601399
 20
5153.705479136968
 30
0.0
 10
6310.290896422409
 20
5153.666942286021
 30
0.0
 10
6309.744009451255
 20
5153.345409206808
 30
0.0
 10
6309.380478359041
 20
5152.860948186195
 30
0.0
 10
6309.323795218289
 20
5152.490015988593
 30
0.0
 10
6309.293773023626
 20
5152.293551951929
 30
0.0
  0
LINE
  5
B3
330
1F
100
AcDbEntity
  8
0
  6
Continuous
 62
     7
370
    25
100
AcDbLine
 10
6327.3139670475
 20
5153.7250804308
 30
0.0
 11
6310.9558187409
 21
5153.7250049937
 31
0.0
  0
LINE
  5
B4
330
1F
100
AcDbEntity
  8
0
  6
Continuous
 62
     7
370
    25
100
AcDbLine
 10
6327.3139670475
 20
5152.9601325805
 30
0.0
 11
6327.3139670475
 21
5153.7250804308
 31
0.0
  0
LINE
  5
B5
330
1F
100
AcDbEntity
  8
0
  6
Continuous
 62
     7
370
    25
100
AcDbLine
 10
6311.0063709302
 20
5152.9601325805
 30
0.0
 11
6327.3139670475
 21
5152.9601325805
 31
0.0
  0
SPLINE
  5
B6
330
1F
100
AcDbEntity
  8
0
  6
Continuous
 62
     7
370
    25
100
AcDbSpline
210
0.0
220
0.0
230
1.0
 70
     8
 71
     3
 72
    12
 73
     8
 74
     0
 42
0.000000001
 43
0.00000001
 40
0.0
 40
0.0
 40
0.0
 40
0.0
 40
0.2019683279467574
 40
0.3744693079897191
 40
0.5436407262083409
 40
0.759804611478654
 40
1.0
 40
1.0
 40
1.0
 40
1.0
 10
6310.097802428743
 20
5152.241293579622
 30
0.0
 10
6310.104245980137
 20
5152.330078419574
 30
0.0
 10
6310.116192963392
 20
5152.494694317102
 30
0.0
 10
6310.241257517072
 20
5152.705980503227
 30
0.0
 10
6310.43969112457
 20
5152.853686050224
 30
0.0
 10
6310.702873065951
 20
5152.940386023583
 30
0.0
 10
6310.901714696662
 20
5152.953323306006
 30
0.0
 10
6311.006370930216
 20
5152.960132580532
 30
0.0
  0
SPLINE
  5
B7
330
1F
100
AcDbEntity
  8
0
  6
Continuous
 62
     7
370
    25
100
AcDbSpline
210
0.0
220
0.0
230
1.0
 70
     8
 71
     3
 72
    11
 73
     7
 74
     0
 42
0.000000001
 43
0.00000001
 40
0.0
 40
0.0
 40
0.0
 40
0.0
 40
0.3262861121298751
 40
0.5825877288570336
 40
0.7736227404014407
 40
1.0
 40
1.0
 40
1.0
 40
1.0
 10
6310.836445538542
 20
5150.842445675566
 30
0.0
 10
6310.717202368806
 20
5150.973741053861
 30
0.0
 10
6310.504292272867
 20
5151.208170511344
 30
0.0
 10
6310.240197096739
 20
5151.539862764098
 30
0.0
 10
6310.106260725773
 20
5151.888746278963
 30
0.0
 10
6310.100776640051
 20
5152.117326525187
 30
0.0
 10
6310.097802428743
 20
5152.241293579622
 30
0.0
  0
LINE
  5
B8
330
1F
100
AcDbEntity
  8
0
  6
Continuous
 62
     7
370
    25
100
AcDbLine
 10
6311.5290775879
 20
5150.0515446591
 30
0.0
 11
6310.8364455385
 21
5150.8424456756
 31
0.0
  0
SPLINE
  5
B9
330
1F
100
AcDbEntity
  8
0
  6
Continuous
 62
     7
370
    25
100
AcDbSpline
210
0.0
220
0.0
230
1.0
 70
     8
 71
     3
 72
    10
 73
     6
 74
     0
 42
0.000000001
 43
0.00000001
 40
0.0
 40
0.0
 40
0.0
 40
0.0
 40
0.3698937195287726
 40
0.6616425555184099
 40
0.9999999999999999
 40
0.9999999999999999
 40
0.9999999999999999
 40
0.9999999999999999
 10
6311.999905852816
 20
5148.528602212949
 30
0.0
 10
6312.013463181416
 20
5148.732784325204
 30
0.0
 10
6312.03771367573
 20
5149.098012409411
 30
0.0
 10
6311.862659157186
 20
5149.63358221431
 30
0.0
 10
6311.645622796955
 20
5149.905518844141
 30
0.0
 10
6311.529077587864
 20
5150.051544659122
 30
0.0
  0
SPLINE
  5
BA
330
1F
100
AcDbEntity
  8
0
  6
Continuous
 62
     7
370
    25
100
AcDbSpline
210
0.0
220
0.0
230
1.0
 70
     8
 71
     3
 72
    12
 73
     8
 74
     0
 42
0.000000001
 43
0.00000001
 40
0.0
 40
0.0
 40
0.0
 40
0.0
 40
0.2122051458430723
 40
0.3922551385395865
 40
0.5571620565332226
 40
0.7600200953487642
 40
1.0
 40
1.0
 40
1.0
 40
1.0
 10
6310.587979851505
 20
5147.325961157962
 30
0.0
 10
6310.734634828792
 20
5147.331988424408
 30
0.0
 10
6311.005722356877
 20
5147.343129653927
 30
0.0
 10
6311.376617032289
 20
5147.465612356546
 30
0.0
 10
6311.684152336884
 20
5147.69650355905
 30
0.0
 10
6311.907744095306
 20
5148.064517300879
 30
0.0
 10
6311.967515121025
 20
5148.3654971429
 30
0.0
 10
6311.999905852816
 20
5148.528602212949
 30
0.0
  0
LINE
  5
BB
330
1F
100
AcDbEntity
  8
0
  6
Continuous
 62
     7
370
    25
100
AcDbLine
 10
6309.0258315189
 20
5147.325961158
 30
0.0
 11
6310.5879798515
 21
5147.325961158
 31
0.0
  0
LINE
  5
BC
330
1F
100
AcDbEntity
  8
0
  6
Continuous
 62
     7
370
    25
100
AcDbLine
 10
6309.0258315189
 20
5148.1037598628
 30
0.0
 11
6309.0258315189
 21
5147.325961158
 31
0.0
  0
LINE
  5
BD
330
1F
100
AcDbEntity
  8
0
  6
Continuous
 62
     7
370
    25
100
AcDbLine
 10
6310.5226457103
 20
5148.1037598628
 30
0.0
 11
6309.0258315189
 21
5148.1037598628
 31
0.0
  0
SPLINE
  5
BE
330
1F
100
AcDbEntity
  8
0
  6
Continuous
 62
     7
370
    25
100
AcDbSpline
210
0.0
220
0.0
230
1.0
 70
     8
 71
     3
 72
    11
 73
     7
 74
     0
 42
0.000000001
 43
0.00000001
 40
0.0
 40
0.0
 40
0.0
 40
0.0
 40
0.2717730292528446
 40
0.515906722784941
 40
0.7284077801172065
 40
1.0
 40
1.0
 40
1.0
 40
1.0
 10
6311.200819907925
 20
5148.68038171558
 30
0.0
 10
6311.184934080143
 20
5148.590723924218
 30
0.0
 10
6311.154778014357
 20
5148.420526545028
 30
0.0
 10
6311.001548438477
 20
5148.218473479714
 30
0.0
 10
6310.774712746882
 20
5148.115944455317
 30
0.0
 10
6310.613238220363
 20
5148.10813898682
 30
0.0
 10
6310.522645710251
 20
5148.103759862764
 30
0.0
  0
SPLINE
  5
BF
330
1F
100
AcDbEntity
  8
0
  6
Continuous
 62
     7
370
    25
100
AcDbSpline
210
0.0
220
0.0
230
1.0
 70
     8
 71
     3
 72
    10
 73
     6
 74
     0
 42
0.000000001
 43
0.00000001
 40
0.0
 40
0.0
 40
0.0
 40
0.0
 40
0.5555106300127086
 40
0.7547930089076573
 40
1.0
 40
1.0
 40
1.0
 40
1.0
 10
6310.790311543486
 20
5149.707976036056
 30
0.0
 10
6310.939156814634
 20
5149.547007320757
 30
0.0
 10
6311.14139843523
 20
5149.328293124493
 30
0.0
 10
6311.22601216253
 20
5148.945161067207
 30
0.0
 10
6311.209776482584
 20
5148.774518428168
 30
0.0
 10
6311.200819907925
 20
5148.68038171558
 30
0.0
  0
LINE
  5
C0
330
1F
100
AcDbEntity
  8
0
  6
Continuous
 62
     7
370
    25
100
AcDbLine
 10
6315.6734146161
 20
5152.5479403849
 30
0.0
 11
6317.9545775039
 21
5150.7051989961
 31
0.0
  0
LINE
  5
C1
330
1F
100
AcDbEntity
  8
0
  6
Continuous
 62
     7
370
    25
100
AcDbLine
 10
6317.9545775039
 20
5150.7051989961
 30
0.0
 11
6317.9545775039
 21
5152.4570032547
 31
0.0
  0
LINE
  5
C2
330
1F
100
AcDbEntity
  8
0
  6
Continuous
 62
     7
370
    25
100
AcDbLine
 10
6317.9545775039
 20
5152.4570032547
 30
0.0
 11
6318.7456540747
 21
5152.4571033719
 31
0.0
  0
LINE
  5
C3
330
1F
100
AcDbEntity
  8
0
  6
Continuous
 62
     7
370
    25
100
AcDbLine
 10
6318.7456540747
 20
5152.4571033719
 30
0.0
 11
6318.7456540747
 21
5150.3655205074
 31
0.0
  0
LINE
  5
C4
330
1F
100
AcDbEntity
  8
0
  6
Continuous
 62
     7
370
    25
100
AcDbLine
 10
6318.7456540747
 20
5150.3655205074
 30
0.0
 11
6319.3401731534
 21
5150.3655205074
 31
0.0
  0
LINE
  5
C5
330
1F
100
AcDbEntity
  8
0
  6
Continuous
 62
     7
370
    25
100
AcDbLine
 10
6319.3401731534
 20
5150.3655205074
 30
0.0
 11
6319.3401731534
 21
5152.4571033719
 31
0.0
  0
LINE
  5
C6
330
1F
100
AcDbEntity
  8
0
  6
Continuous
 62
     7
370
    25
100
AcDbLine
 10
6319.3401731534
 20
5152.4571033719
 30
0.0
 11
6321.301236747
 21
5152.4571033719
 31
0.0
  0
LINE
  5
C7
330
1F
100
AcDbEntity
  8
0
  6
Continuous
 62
     7
370
    25
100
AcDbLine
 10
6321.301236747
 20
5152.4571033719
 30
0.0
 11
6321.301236747
 21
5151.8433832156
 31
0.0
  0
LINE
  5
C8
330
1F
100
AcDbEntity
  8
0
  6
Continuous
 62
     7
370
    25
100
AcDbLine
 10
6321.301236747
 20
5151.8433832156
 30
0.0
 11
6319.9811764045
 21
5151.8433832156
 31
0.0
  0
LINE
  5
C9
330
1F
100
AcDbEntity
  8
0
  6
Continuous
 62
     7
370
    25
100
AcDbLine
 10
6319.9811764045
 20
5151.8433832156
 30
0.0
 11
6319.9811764045
 21
5150.3655205074
 31
0.0
  0
LINE
  5
CA
330
1F
100
AcDbEntity
  8
0
  6
Continuous
 62
     7
370
    25
100
AcDbLine
 10
6319.9811764045
 20
5150.3655205074
 30
0.0
 11
6321.3113509102
 21
5150.3655205074
 31
0.0
  0
LINE
  5
CB
330
1F
100
AcDbEntity
  8
0
  6
Continuous
 62
     7
370
    25
100
AcDbLine
 10
6321.3113509102
 20
5150.3655205074
 30
0.0
 11
6321.5530663712
 21
5149.6330520663
 31
0.0
  0
LINE
  5
CC
330
1F
100
AcDbEntity
  8
0
  6
Continuous
 62
     7
370
    25
100
AcDbLine
 10
6321.5530663712
 20
5149.6330520663
 30
0.0
 11
6319.98092681
 21
5149.6330520663
 31
0.0
  0
LINE
  5
CD
330
1F
100
AcDbEntity
  8
0
  6
Continuous
 62
     7
370
    25
100
AcDbLine
 10
6319.98092681
 20
5149.6330520663
 30
0.0
 11
6319.9811764045
 21
5147.9862660694
 31
0.0
  0
LINE
  5
CE
330
1F
100
AcDbEntity
  8
0
  6
Continuous
 62
     7
370
    25
100
AcDbLine
 10
6319.9811764045
 20
5147.9862660694
 30
0.0
 11
6321.301236747
 21
5147.9862660694
 31
0.0
  0
LINE
  5
CF
330
1F
100
AcDbEntity
  8
0
  6
Continuous
 62
     7
370
    25
100
AcDbLine
 10
6321.301236747
 20
5147.9862660694
 30
0.0
 11
6321.301236747
 21
5147.325961158
 31
0.0
  0
LINE
  5
D0
330
1F
100
AcDbEntity
  8
0
  6
Continuous
 62
     7
370
    25
100
AcDbLine
 10
6321.301236747
 20
5147.325961158
 30
0.0
 11
6319.3401731534
 21
5147.325961158
 31
0.0
  0
LINE
  5
D1
330
1F
100
AcDbEntity
  8
0
  6
Continuous
 62
     7
370
    25
100
AcDbLine
 10
6319.3401731534
 20
5147.325961158
 30
0.0
 11
6319.3402476592
 21
5149.6330520663
 31
0.0
  0
LINE
  5
D2
330
1F
100
AcDbEntity
  8
0
  6
Continuous
 62
     7
370
    25
100
AcDbLine
 10
6319.3402476592
 20
5149.6330520663
 30
0.0
 11
6318.7456540747
 21
5149.6330520663
 31
0.0
  0
LINE
  5
D3
330
1F
100
AcDbEntity
  8
0
  6
Continuous
 62
     7
370
    25
100
AcDbLine
 10
6318.7456540747
 20
5149.6330520663
 30
0.0
 11
6318.7456540747
 21
5147.325961158
 31
0.0
  0
LINE
  5
D4
330
1F
100
AcDbEntity
  8
0
  6
Continuous
 62
     7
370
    25
100
AcDbLine
 10
6318.7456540747
 20
5147.325961158
 30
0.0
 11
6317.9545775039
 21
5147.325961158
 31
0.0
  0
LINE
  5
D5
330
1F
100
AcDbEntity
  8
0
  6
Continuous
 62
     7
370
    25
100
AcDbLine
 10
6317.9545775039
 20
5147.325961158
 30
0.0
 11
6317.9545775039
 21
5149.6330520663
 31
0.0
  0
LINE
  5
D6
330
1F
100
AcDbEntity
  8
0
  6
Continuous
 62
     7
370
    25
100
AcDbLine
 10
6317.9545775039
 20
5149.6330520663
 30
0.0
 11
6316.40518084
 21
5150.8097655664
 31
0.0
  0
LINE
  5
D7
330
1F
100
AcDbEntity
  8
0
  6
Continuous
 62
     7
370
    25
100
AcDbLine
 10
6316.40518084
 20
5150.8097655664
 30
0.0
 11
6316.4054565115
 21
5147.325961158
 31
0.0
  0
LINE
  5
D8
330
1F
100
AcDbEntity
  8
0
  6
Continuous
 62
     7
370
    25
100
AcDbLine
 10
6316.4054565115
 20
5147.325961158
 30
0.0
 11
6315.6733401103
 21
5147.325961158
 31
0.0
  0
LINE
  5
D9
330
1F
100
AcDbEntity
  8
0
  6
Continuous
 62
     7
370
    25
100
AcDbLine
 10
6315.6733401103
 20
5147.325961158
 30
0.0
 11
6315.6734146161
 21
5152.5479403849
 31
0.0
  0
SPLINE
  5
DA
330
1F
100
AcDbEntity
  8
0
  6
Continuous
 62
     7
370
    25
100
AcDbSpline
210
0.0
220
0.0
230
1.0
 70
     8
 71
     3
 72
     9
 73
     5
 74
     0
 42
0.000000001
 43
0.00000001
 40
0.0
 40
0.0
 40
0.0
 40
0.0
 40
0.5532707675772401
 40
1.0
 40
1.0
 40
1.0
 40
1.0
 10
6330.872569231531
 20
5151.826792169644
 30
0.0
 10
6331.08619635889
 20
5151.915718632196
 30
0.0
 10
6331.472313139097
 20
5152.076447280379
 30
0.0
 10
6331.885626018349
 20
5152.026542908654
 30
0.0
 10
6332.070264963648
 20
5152.004249166979
 30
0.0
  0
SPLINE
  5
DB
330
1F
100
AcDbEntity
  8
0
  6
Continuous
 62
     7
370
    25
100
AcDbSpline
210
0.0
220
0.0
230
1.0
 70
     8
 71
     3
 72
    14
 73
    10
 74
     0
 42
0.000000001
 43
0.00000001
 40
0.0
 40
0.0
 40
0.0
 40
0.0
 40
0.1729341271471034
 40
0.3107912760390368
 40
0.4227793673562169
 40
0.5213430997209785
 40
0.6548275946192588
 40
0.8116152206029815
 40
0.9999999999999999
 40
0.9999999999999999
 40
0.9999999999999999
 40
0.9999999999999999
 10
6329.688403753778
 20
5151.773580123021
 30
0.0
 10
6329.73696484972
 20
5151.846798936267
 30
0.0
 10
6329.82423718412
 20
5151.978385273645
 30
0.0
 10
6329.978137425671
 20
5152.130339963554
 30
0.0
 10
6330.133808907718
 20
5152.219710754693
 30
0.0
 10
6330.31075121098
 20
5152.247029177775
 30
0.0
 10
6330.5050958129
 20
5152.185436204702
 30
0.0
 10
6330.699872158168
 20
5152.035725279506
 30
0.0
 10
6330.811594511302
 20
5151.900560865733
 30
0.0
 10
6330.872569231531
 20
5151.826792169644
 30
0.0
  0
SPLINE
  5
DC
330
1F
100
AcDbEntity
  8
0
  6
Continuous
 62
     7
370
    25
100
AcDbSpline
210
0.0
220
0.0
230
1.0
 70
     8
 71
     3
 72
    10
 73
     6
 74
     0
 42
0.000000001
 43
0.00000001
 40
0.0
 40
0.0
 40
0.0
 40
0.0
 40
0.2049700726124767
 40
0.4719473922973545
 40
1.0
 40
1.0
 40
1.0
 40
1.0
 10
6328.35800200536
 20
5152.066321816577
 30
0.0
 10
6328.452166897317
 20
5152.079873302663
 30
0.0
 10
6328.668983306848
 20
5152.111075850617
 30
0.0
 10
6329.125855871617
 20
5152.0062012628
 30
0.0
 10
6329.463886485766
 20
5151.866421042774
 30
0.0
 10
6329.688403753778
 20
5151.773580123021
 30
0.0
  0
SPLINE
  5
DD
330
1F
100
AcDbEntity
  8
0
  6
Continuous
 62
     7
370
    25
100
AcDbSpline
210
0.0
220
0.0
230
1.0
 70
     8
 71
     3
 72
     9
 73
     5
 74
     0
 42
0.000000001
 43
0.00000001
 40
0.0
 40
0.0
 40
0.0
 40
0.0
 40
0.5722497717466736
 40
1.0
 40
1.0
 40
1.0
 40
1.0
 10
6329.26268130376
 20
5151.782415580286
 30
0.0
 10
6329.098278405534
 20
5151.864131728815
 30
0.0
 10
6328.810986201426
 20
5152.006929773592
 30
0.0
 10
6328.493714883864
 20
5152.048528116082
 30
0.0
 10
6328.35800200536
 20
5152.066321816577
 30
0.0
  0
SPLINE
  5
DE
330
1F
100
AcDbEntity
  8
0
  6
Continuous
 62
     7
370
    25
100
AcDbSpline
210
0.0
220
0.0
230
1.0
 70
     8
 71
     3
 72
    10
 73
     6
 74
     0
 42
0.000000001
 43
0.00000001
 40
0.0
 40
0.0
 40
0.0
 40
0.0
 40
0.2445684011244057
 40
0.5285798309086325
 40
1.0
 40
1.0
 40
1.0
 40
1.0
 10
6330.158524213573
 20
5151.409906573876
 30
0.0
 10
6330.079103076881
 20
5151.420892810979
 30
0.0
 10
6329.90745207532
 20
5151.444637102242
 30
0.0
 10
6329.611595044918
 20
5151.589129804285
 30
0.0
 10
6329.396752084885
 20
5151.708145146332
 30
0.0
 10
6329.26268130376
 20
5151.782415580286
 30
0.0
  0
SPLINE
  5
DF
330
1F
100
AcDbEntity
  8
0
  6
Continuous
 62
     7
370
    25
100
AcDbSpline
210
0.0
220
0.0
230
1.0
 70
     8
 71
     3
 72
    17
 73
    13
 74
     0
 42
0.000000001
 43
0.00000001
 40
0.0
 40
0.0
 40
0.0
 40
0.0
 40
0.0544845578359518
 40
0.1073564651849006
 40
0.2217244513397101
 40
0.3548577540729949
 40
0.4999988583818736
 40
0.6451422459270051
 40
0.7782755486602899
 40
0.8926435348150995
 40
0.9455154421640484
 40
1.0
 40
1.0
 40
1.0
 40
1.0
 10
6330.158524213573
 20
5151.569567393793
 30
0.0
 10
6330.162231966287
 20
5151.569227425437
 30
0.0
 10
6330.169537728525
 20
5151.568557551211
 30
0.0
 10
6330.182927407377
 20
5151.56097660161
 30
0.0
 10
6330.195322789947
 20
5151.544022888623
 30
0.0
 10
6330.203300869302
 20
5151.518432376275
 30
0.0
 10
6330.206006674111
 20
5151.489737064015
 30
0.0
 10
6330.203300915205
 20
5151.461041739582
 30
0.0
 10
6330.195322790056
 20
5151.435451079184
 30
0.0
 10
6330.182927407366
 20
5151.418497366044
 30
0.0
 10
6330.169537728527
 20
5151.41091641646
 30
0.0
 10
6330.162231966287
 20
5151.410246542233
 30
0.0
 10
6330.158524213573
 20
5151.409906573876
 30
0.0
  0
LINE
  5
E0
330
1F
100
AcDbEntity
  8
0
  6
Continuous
 62
     7
370
    25
100
AcDbLine
 10
6330.0609365089
 20
5151.5695673938
 30
0.0
 11
6330.1585242136
 21
5151.5695673938
 31
0.0
  0
SPLINE
  5
E1
330
1F
100
AcDbEntity
  8
0
  6
Continuous
 62
     7
370
    25
100
AcDbSpline
210
0.0
220
0.0
230
1.0
 70
     8
 71
     3
 72
    11
 73
     7
 74
     0
 42
0.000000001
 43
0.00000001
 40
0.0
 40
0.0
 40
0.0
 40
0.0
 40
0.2693093050414789
 40
0.5332135998912745
 40
0.7557133185393875
 40
1.0
 40
1.0
 40
1.0
 40
1.0
 10
6329.998861996672
 20
5151.622779440417
 30
0.0
 10
6330.000001415084
 20
5151.614525423838
 30
0.0
 10
6330.002257383899
 20
5151.59818304795
 30
0.0
 10
6330.019061587848
 20
5151.580863405343
 30
0.0
 10
6330.039312466532
 20
5151.57119109967
 30
0.0
 10
6330.053507644441
 20
5151.570125212294
 30
0.0
 10
6330.060936508915
 20
5151.569567393793
 30
0.0
  0
SPLINE
  5
E2
330
1F
100
AcDbEntity
  8
0
  6
Continuous
 62
     7
370
    25
100
AcDbSpline
210
0.0
220
0.0
230
1.0
 70
     8
 71
     3
 72
    12
 73
     8
 74
     0
 42
0.000000001
 43
0.00000001
 40
0.0
 40
0.0
 40
0.0
 40
0.0
 40
0.1614931418710061
 40
0.3549320980023764
 40
0.5609483755363343
 40
0.7935631252491554
 40
1.0
 40
1.0
 40
1.0
 40
1.0
 10
6330.060936508915
 20
5151.67599148704
 30
0.0
 10
6330.056245268523
 20
5151.675355634792
 30
0.0
 10
6330.045934788614
 20
5151.673958148991
 30
0.0
 10
6330.031086868054
 20
5151.666432933235
 30
0.0
 10
6330.01627523698
 20
5151.655677180688
 30
0.0
 10
6330.002757244866
 20
5151.641526505035
 30
0.0
 10
6330.000107755293
 20
5151.628775032028
 30
0.0
 10
6329.998861996672
 20
5151.622779440417
 30
0.0
  0
LINE
  5
E3
330
1F
100
AcDbEntity
  8
0
  6
Continuous
 62
     7
370
    25
100
AcDbLine
 10
6330.4690606876
 20
5151.675991487
 30
0.0
 11
6330.0609365089
 21
5151.675991487
 31
0.0
  0
SPLINE
  5
E4
330
1F
100
AcDbEntity
  8
0
  6
Continuous
 62
     7
370
    25
100
AcDbSpline
210
0.0
220
0.0
230
1.0
 70
     8
 71
     3
 72
    11
 73
     7
 74
     0
 42
0.000000001
 43
0.00000001
 40
0.0
 40
0.0
 40
0.0
 40
0.0
 40
0.2788572531095238
 40
0.564749687875469
 40
0.7904299223102244
 40
1.0
 40
1.0
 40
1.0
 40
1.0
 10
6330.531209705612
 20
5151.622779440417
 30
0.0
 10
6330.529569205736
 20
5151.631120871857
 30
0.0
 10
6330.52624681845
 20
5151.648014177484
 30
0.0
 10
6330.50750609274
 20
5151.66411653673
 30
0.0
 10
6330.488257721169
 20
5151.673910420196
 30
0.0
 10
6330.475299826225
 20
5151.675315129178
 30
0.0
 10
6330.469060687563
 20
5151.67599148704
 30
0.0
  0
SPLINE
  5
E5
330
1F
100
AcDbEntity
  8
0
  6
Continuous
 62
     7
370
    25
100
AcDbSpline
210
0.0
220
0.0
230
1.0
 70
     8
 71
     3
 72
    11
 73
     7
 74
     0
 42
0.000000001
 43
0.00000001
 40
0.0
 40
0.0
 40
0.0
 40
0.0
 40
0.2693084915398603
 40
0.5575932140275327
 40
0.7797220400367365
 40
1.0
 40
1.0
 40
1.0
 40
1.0
 10
6330.469060687563
 20
5151.569567393793
 30
0.0
 10
6330.477078218098
 20
5151.570662338164
 30
0.0
 10
6330.493678216838
 20
5151.57292937975
 30
0.0
 10
6330.513573418778
 20
5151.585885961217
 30
0.0
 10
6330.528223420985
 20
5151.602924796777
 30
0.0
 10
6330.530217057615
 20
5151.616179710419
 30
0.0
 10
6330.531209705612
 20
5151.622779440417
 30
0.0
  0
LINE
  5
E6
330
1F
100
AcDbEntity
  8
0
  6
Continuous
 62
     7
370
    25
100
AcDbLine
 10
6330.3670547886
 20
5151.5695673938
 30
0.0
 11
6330.4690606876
 21
5151.5695673938
 31
0.0
  0
SPLINE
  5
E7
330
1F
100
AcDbEntity
  8
0
  6
Continuous
 62
     7
370
    25
100
AcDbSpline
210
0.0
220
0.0
230
1.0
 70
     8
 71
     3
 72
    18
 73
    14
 74
     0
 42
0.000000001
 43
0.00000001
 40
0.0
 40
0.0
 40
0.0
 40
0.0
 40
0.0426976898054309
 40
0.0873747142411191
 40
0.1377374517222664
 40
0.1948261661816473
 40
0.3263744086486796
 40
0.4720020446013832
 40
0.6184837529552936
 40
0.7544061555167426
 40
0.8760397742201435
 40
0.9358572065633637
 40
1.0
 40
1.0
 40
1.0
 40
1.0
 10
6330.349259076855
 20
5151.405488845243
 30
0.0
 10
6330.346287706355
 20
5151.405866696009
 30
0.0
 10
6330.340207221688
 20
5151.406639913548
 30
0.0
 10
6330.332315424028
 20
5151.412539588744
 30
0.0
 10
6330.325780185592
 20
5151.420815135938
 30
0.0
 10
6330.318304425219
 20
5151.435654007926
 30
0.0
 10
6330.312542793141
 20
5151.458251110454
 30
0.0
 10
6330.310670447427
 20
5151.487605138793
 30
0.0
 10
6330.314193625166
 20
5151.517157043466
 30
0.0
 10
6330.323590689127
 20
5151.543808770887
 30
0.0
 10
6330.338357837862
 20
5151.561111797501
 30
0.0
 10
6330.353995110685
 20
5151.568583561386
 30
0.0
 10
6330.362601461774
 20
5151.5692319087
 30
0.0
 10
6330.36705478861
 20
5151.569567393793
 30
0.0
  0
SPLINE
  5
E8
330
1F
100
AcDbEntity
  8
0
  6
Continuous
 62
     7
370
    25
100
AcDbSpline
210
0.0
220
0.0
230
1.0
 70
     8
 71
     3
 72
    11
 73
     7
 74
     0
 42
0.000000001
 43
0.00000001
 40
0.0
 40
0.0
 40
0.0
 40
0.0
 40
0.3145971352866158
 40
0.5566779552751264
 40
0.7424870113152416
 40
1.0
 40
1.0
 40
1.0
 40
1.0
 10
6330.801811067602
 20
5151.542911544724
 30
0.0
 10
6330.759748280754
 20
5151.51385046325
 30
0.0
 10
6330.685318403463
 20
5151.462427034369
 30
0.0
 10
6330.572874553832
 20
5151.417318954215
 30
0.0
 10
6330.463021550397
 20
5151.395430172676
 30
0.0
 10
6330.391059662107
 20
5151.401792912946
 30
0.0
 10
6330.349259076855
 20
5151.405488845243
 30
0.0
  0
SPLINE
  5
E9
330
1F
100
AcDbEntity
  8
0
  6
Continuous
 62
     7
370
    25
100
AcDbSpline
210
0.0
220
0.0
230
1.0
 70
     8
 71
     3
 72
     9
 73
     5
 74
     0
 42
0.000000001
 43
0.00000001
 40
0.0
 40
0.0
 40
0.0
 40
0.0
 40
0.5550204309643645
 40
1.0
 40
1.0
 40
1.0
 40
1.0
 10
6330.863758919975
 20
5153.636452049299
 30
0.0
 10
6330.817310332366
 20
5153.651480372827
 30
0.0
 10
6330.733622264293
 20
5153.678557436462
 30
0.0
 10
6330.648729026228
 20
5153.701564771025
 30
0.0
 10
6330.610953269741
 20
5153.711802564843
 30
0.0
  0
SPLINE
  5
EA
330
1F
100
AcDbEntity
  8
0
  6
Continuous
 62
     7
370
    25
100
AcDbSpline
210
0.0
220
0.0
230
1.0
 70
     8
 71
     3
 72
     9
 73
     5
 74
     0
 42
0.000000001
 43
0.00000001
 40
0.0
 40
0.0
 40
0.0
 40
0.0
 40
0.580616115839389
 40
1.0
 40
1.0
 40
1.0
 40
1.0
 10
6331.657674161932
 20
5154.248490702643
 30
0.0
 10
6331.487424432171
 20
5154.150884889102
 30
0.0
 10
6331.194201896463
 20
5153.982777578819
 30
0.0
 10
6330.961394563524
 20
5153.738780494319
 30
0.0
 10
6330.863758919975
 20
5153.636452049299
 30
0.0
  0
SPLINE
  5
EB
330
1F
100
AcDbEntity
  8
0
  6
Continuous
 62
     7
370
    25
100
AcDbSpline
210
0.0
220
0.0
230
1.0
 70
     8
 71
     3
 72
    11
 73
     7
 74
     0
 42
0.000000001
 43
0.00000001
 40
0.0
 40
0.0
 40
0.0
 40
0.0
 40
0.3095260541146218
 40
0.5761963051758611
 40
0.7826949729281057
 40
1.0
 40
1.0
 40
1.0
 40
1.0
 10
6328.366685657045
 20
5152.314711135163
 30
0.0
 10
6328.46344657499
 20
5152.552679793064
 30
0.0
 10
6328.64357126131
 20
5152.995668871393
 30
0.0
 10
6329.147848119011
 20
5153.427635945613
 30
0.0
 10
6329.681444609813
 20
5153.637344399863
 30
0.0
 10
6330.029072252503
 20
5153.666023390509
 30
0.0
 10
6330.207318065903
 20
5153.68072852148
 30
0.0
  0
SPLINE
  5
EC
330
1F
100
AcDbEntity
  8
0
  6
Continuous
 62
     7
370
    25
100
AcDbSpline
210
0.0
220
0.0
230
1.0
 70
     8
 71
     3
 72
     9
 73
     5
 74
     0
 42
0.000000001
 43
0.00000001
 40
0.0
 40
0.0
 40
0.0
 40
0.0
 40
0.5027884671639758
 40
1.0
 40
1.0
 40
1.0
 40
1.0
 10
6329.568624494812
 20
5153.130762517734
 30
0.0
 10
6329.350645938453
 20
5153.018330549909
 30
0.0
 10
6328.917106645901
 20
5152.794713710684
 30
0.0
 10
6328.549475902492
 20
5152.474116009562
 30
0.0
 10
6328.366685657045
 20
5152.314711135163
 30
0.0
  0
SPLINE
  5
ED
330
1F
100
AcDbEntity
  8
0
  6
Continuous
 62
     7
370
    25
100
AcDbSpline
210
0.0
220
0.0
230
1.0
 70
     8
 71
     3
 72
    11
 73
     7
 74
     0
 42
0.000000001
 43
0.00000001
 40
0.0
 40
0.0
 40
0.0
 40
0.0
 40
0.28540926245774
 40
0.5577822273796043
 40
0.7737369907749602
 40
1.0
 40
1.0
 40
1.0
 40
1.0
 10
6330.97015693619
 20
5153.086410608425
 30
0.0
 10
6330.850368459203
 20
5152.992512202118
 30
0.0
 10
6330.616262940232
 20
5152.809004274707
 30
0.0
 10
6330.192961111393
 20
5152.776795491252
 30
0.0
 10
6329.825837139897
 20
5152.887444766023
 30
0.0
 10
6329.655684151077
 20
5153.048405914231
 30
0.0
 10
6329.568624494812
 20
5153.130762517734
 30
0.0
  0
SPLINE
  5
EE
330
1F
100
AcDbEntity
  8
0
  6
Continuous
 62
     7
370
    25
100
AcDbSpline
210
0.0
220
0.0
230
1.0
 70
     8
 71
     3
 72
    10
 73
     6
 74
     0
 42
0.000000001
 43
0.00000001
 40
0.0
 40
0.0
 40
0.0
 40
0.0
 40
0.2216702434746641
 40
0.4978780563084698
 40
1.0
 40
1.0
 40
1.0
 40
1.0
 10
6332.021269945642
 20
5152.429995365723
 30
0.0
 10
6331.955542074362
 20
5152.494913795094
 30
0.0
 10
6331.807915291964
 20
5152.640722546544
 30
0.0
 10
6331.453919320071
 20
5152.864027854564
 30
0.0
 10
6331.159861638395
 20
5152.999204460319
 30
0.0
 10
6330.97015693619
 20
5153.086410608425
 30
0.0
  0
SPLINE
  5
EF
330
1F
100
AcDbEntity
  8
0
  6
Continuous
 62
     7
370
    25
100
AcDbSpline
210
0.0
220
0.0
230
1.0
 70
     8
 71
     3
 72
     9
 73
     5
 74
     0
 42
0.000000001
 43
0.00000001
 40
0.0
 40
0.0
 40
0.0
 40
0.0
 40
0.5483243915942891
 40
0.9999999999999999
 40
0.9999999999999999
 40
0.9999999999999999
 40
0.9999999999999999
 10
6329.488858578941
 20
5153.623048920466
 30
0.0
 10
6329.343858723168
 20
5153.780062714107
 30
0.0
 10
6329.079416983943
 20
5154.06641472771
 30
0.0
 10
6328.725991267329
 20
5154.22847770823
 30
0.0
 10
6328.566357491753
 20
5154.301677603557
 30
0.0
  0
SPLINE
  5
F0
330
1F
100
AcDbEntity
  8
0
  6
Continuous
 62
     7
370
    25
100
AcDbSpline
210
0.0
220
0.0
230
1.0
 70
     8
 71
     3
 72
     9
 73
     5
 74
     0
 42
0.000000001
 43
0.00000001
 40
0.0
 40
0.0
 40
0.0
 40
0.0
 40
0.5794158001125979
 40
1.0
 40
1.0
 40
1.0
 40
1.0
 10
6329.777255652687
 20
5153.702916816159
 30
0.0
 10
6329.720246556254
 20
5153.692052868018
 30
0.0
 10
6329.621855907567
 20
5153.673303037348
 30
0.0
 10
6329.528234333684
 20
5153.637927368038
 30
0.0
 10
6329.488858578941
 20
5153.623048920466
 30
0.0
  0
SPLINE
  5
F1
330
1F
100
AcDbEntity
  8
0
  6
Continuous
 62
     7
370
    25
100
AcDbSpline
210
0.0
220
0.0
230
1.0
 70
     8
 71
     3
 72
     9
 73
     5
 74
     0
 42
0.000000001
 43
0.00000001
 40
0.0
 40
0.0
 40
0.0
 40
0.0
 40
0.5572853813352521
 40
1.0
 40
1.0
 40
1.0
 40
1.0
 10
6331.133786587259
 20
5150.949998997434
 30
0.0
 10
6331.233437174735
 20
5150.942450688474
 30
0.0
 10
6331.412251460581
 20
5150.928905906552
 30
0.0
 10
6331.584537367
 20
5150.977156431285
 30
0.0
 10
6331.660810856363
 20
5150.998517643942
 30
0.0
  0
SPLINE
  5
F2
330
1F
100
AcDbEntity
  8
0
  6
Continuous
 62
     7
370
    25
100
AcDbSpline
210
0.0
220
0.0
230
1.0
 70
     8
 71
     3
 72
     9
 73
     5
 74
     0
 42
0.000000001
 43
0.00000001
 40
0.0
 40
0.0
 40
0.0
 40
0.0
 40
0.5668423537107286
 40
1.0
 40
1.0
 40
1.0
 40
1.0
 10
6330.995809285185
 20
5150.488761492355
 30
0.0
 10
6331.019035186899
 20
5150.576771534147
 30
0.0
 10
6331.06000936881
 20
5150.732035235272
 30
0.0
 10
6331.111488156674
 20
5150.884121617901
 30
0.0
 10
6331.133786587259
 20
5150.949998997434
 30
0.0
  0
SPLINE
  5
F3
330
1F
100
AcDbEntity
  8
0
  6
Continuous
 62
     7
370
    25
100
AcDbSpline
210
0.0
220
0.0
230
1.0
 70
     8
 71
     3
 72
     9
 73
     5
 74
     0
 42
0.000000001
 43
0.00000001
 40
0.0
 40
0.0
 40
0.0
 40
0.0
 40
0.5771432927327804
 40
0.9999999999999999
 40
0.9999999999999999
 40
0.9999999999999999
 40
0.9999999999999999
 10
6331.953525541565
 20
5150.568629853709
 30
0.0
 10
6331.771917433552
 20
5150.505430539971
 30
0.0
 10
6331.457250157159
 20
5150.395926861189
 30
0.0
 10
6331.132944224159
 20
5150.461172103871
 30
0.0
 10
6330.995809285185
 20
5150.488761492355
 30
0.0
  0
SPLINE
  5
F4
330
1F
100
AcDbEntity
  8
0
  6
Continuous
 62
     7
370
    25
100
AcDbSpline
210
0.0
220
0.0
230
1.0
 70
     8
 71
     3
 72
     9
 73
     5
 74
     0
 42
0.000000001
 43
0.00000001
 40
0.0
 40
0.0
 40
0.0
 40
0.0
 40
0.5715658831260885
 40
1.0
 40
1.0
 40
1.0
 40
1.0
 10
6330.876961348793
 20
5149.895522982164
 30
0.0
 10
6331.138496839739
 20
5149.839470734639
 30
0.0
 10
6331.596073995175
 20
5149.741402866735
 30
0.0
 10
6332.037547564488
 20
5149.887164156514
 30
0.0
 10
6332.22668990328
 20
5149.949613265975
 30
0.0
  0
SPLINE
  5
F5
330
1F
100
AcDbEntity
  8
0
  6
Continuous
 62
     7
370
    25
100
AcDbSpline
210
0.0
220
0.0
230
1.0
 70
     8
 71
     3
 72
     9
 73
     5
 74
     0
 42
0.000000001
 43
0.00000001
 40
0.0
 40
0.0
 40
0.0
 40
0.0
 40
0.5669365608795356
 40
1.0
 40
1.0
 40
1.0
 40
1.0
 10
6330.812580881855
 20
5149.340235866888
 30
0.0
 10
6330.822046073547
 20
5149.445493174065
 30
0.0
 10
6330.838741401288
 20
5149.631152936442
 30
0.0
 10
6330.865411502877
 20
5149.81563189146
 30
0.0
 10
6330.876961348793
 20
5149.895522982164
 30
0.0
  0
SPLINE
  5
F6
330
1F
100
AcDbEntity
  8
0
  6
Continuous
 62
     7
370
    25
100
AcDbSpline
210
0.0
220
0.0
230
1.0
 70
     8
 71
     3
 72
     9
 73
     5
 74
     0
 42
0.000000001
 43
0.00000001
 40
0.0
 40
0.0
 40
0.0
 40
0.0
 40
0.5865726948577212
 40
1.0
 40
1.0
 40
1.0
 40
1.0
 10
6332.3461413367
 20
5149.378488078995
 30
0.0
 10
6332.045577105399
 20
5149.288674214859
 30
0.0
 10
6331.533169634111
 20
5149.135557874935
 30
0.0
 10
6331.0233529993
 20
5149.280367580541
 30
0.0
 10
6330.812580881855
 20
5149.340235866888
 30
0.0
  0
SPLINE
  5
F7
330
1F
100
AcDbEntity
  8
0
  6
Continuous
 62
     7
370
    25
100
AcDbSpline
210
0.0
220
0.0
230
1.0
 70
     8
 71
     3
 72
     9
 73
     5
 74
     0
 42
0.000000001
 43
0.00000001
 40
0.0
 40
0.0
 40
0.0
 40
0.0
 40
0.6064902850402897
 40
1.0
 40
1.0
 40
1.0
 40
1.0
 10
6331.080019472382
 20
5151.491807546749
 30
0.0
 10
6331.105468243844
 20
5151.469202247627
 30
0.0
 10
6331.147428967851
 20
5151.431929929042
 30
0.0
 10
6331.190108176655
 20
5151.395483692851
 30
0.0
 10
6331.206902859947
 20
5151.381141744836
 30
0.0
  0
SPLINE
  5
F8
330
1F
100
AcDbEntity
  8
0
  6
Continuous
 62
     7
370
    25
100
AcDbSpline
210
0.0
220
0.0
230
1.0
 70
     8
 71
     3
 72
     9
 73
     5
 74
     0
 42
0.000000001
 43
0.00000001
 40
0.0
 40
0.0
 40
0.0
 40
0.0
 40
0.5715466642403019
 40
1.0
 40
1.0
 40
1.0
 40
1.0
 10
6331.206902859947
 20
5151.381141744836
 30
0.0
 10
6331.222581030152
 20
5151.408321812736
 30
0.0
 10
6331.250012159026
 20
5151.45587710367
 30
0.0
 10
6331.280821943804
 20
5151.50130803971
 30
0.0
 10
6331.294022498867
 20
5151.520773075803
 30
0.0
  0
SPLINE
  5
F9
330
1F
100
AcDbEntity
  8
0
  6
Continuous
 62
     7
370
    25
100
AcDbSpline
210
0.0
220
0.0
230
1.0
 70
     8
 71
     3
 72
    11
 73
     7
 74
     0
 42
0.000000001
 43
0.00000001
 40
0.0
 40
0.0
 40
0.0
 40
0.0
 40
0.2505292319254156
 40
0.5190331153886375
 40
0.7465809086842246
 40
1.0
 40
1.0
 40
1.0
 40
1.0
 10
6331.294022498867
 20
5151.520773075803
 30
0.0
 10
6331.476450937721
 20
5151.342539717353
 30
0.0
 10
6331.854396458199
 20
5150.973285340962
 30
0.0
 10
6332.240909502174
 20
5150.310592963703
 30
0.0
 10
6332.462808716738
 20
5149.572786356449
 30
0.0
 10
6332.45134988955
 20
5149.082029086696
 30
0.0
 10
6332.445312289736
 20
5148.823451489492
 30
0.0
  0
SPLINE
  5
FA
330
1F
100
AcDbEntity
  8
0
  6
Continuous
 62
     7
370
    25
100
AcDbSpline
210
0.0
220
0.0
230
1.0
 70
     8
 71
     3
 72
    11
 73
     7
 74
     0
 42
0.000000001
 43
0.00000001
 40
0.0
 40
0.0
 40
0.0
 40
0.0
 40
0.2849800949997296
 40
0.5578969086478338
 40
0.7729696268247505
 40
1.0
 40
1.0
 40
1.0
 40
1.0
 10
6332.445312289736
 20
5148.823451489492
 30
0.0
 10
6332.384917091373
 20
5148.508716475782
 30
0.0
 10
6332.266683239063
 20
5147.892569263142
 30
0.0
 10
6331.7071441556
 20
5147.201618824822
 30
0.0
 10
6331.012187672425
 20
5146.779357488579
 30
0.0
 10
6330.518528467232
 20
5146.727732330356
 30
0.0
 10
6330.265022812626
 20
5146.701221593006
 30
0.0
  0
SPLINE
  5
FB
330
1F
100
AcDbEntity
  8
0
  6
Continuous
 62
     7
370
    25
100
AcDbSpline
210
0.0
220
0.0
230
1.0
 70
     8
 71
     3
 72
    12
 73
     8
 74
     0
 42
0.000000001
 43
0.00000001
 40
0.0
 40
0.0
 40
0.0
 40
0.0
 40
0.1882494995152562
 40
0.367396846635718
 40
0.5444202528629669
 40
0.7599950521558276
 40
1.0
 40
1.0
 40
1.0
 40
1.0
 10
6330.265022812626
 20
5146.701221593006
 30
0.0
 10
6330.054719341686
 20
5146.714422760428
 30
0.0
 10
6329.644280895589
 20
5146.740186798553
 30
0.0
 10
6329.095326463472
 20
5147.032078537541
 30
0.0
 10
6328.657142188319
 20
5147.501195136298
 30
0.0
 10
6328.388790116338
 20
5148.182295490057
 30
0.0
 10
6328.458565261718
 20
5148.68984945077
 30
0.0
 10
6328.495323656341
 20
5148.957235046013
 30
0.0
  0
SPLINE
  5
FC
330
1F
100
AcDbEntity
  8
0
  6
Continuous
 62
     7
370
    25
100
AcDbSpline
210
0.0
220
0.0
230
1.0
 70
     8
 71
     3
 72
    10
 73
     6
 74
     0
 42
0.000000001
 43
0.00000001
 40
0.0
 40
0.0
 40
0.0
 40
0.0
 40
0.3502426304126038
 40
0.6174532053587682
 40
1.0
 40
1.0
 40
1.0
 40
1.0
 10
6328.495323656341
 20
5148.957235046013
 30
0.0
 10
6328.562972856743
 20
5149.205397883761
 30
0.0
 10
6328.682233654833
 20
5149.64289157046
 30
0.0
 10
6329.01370364108
 20
5150.297980310332
 30
0.0
 10
6329.212312921708
 20
5150.729894573617
 30
0.0
 10
6329.329244790813
 20
5150.984185520841
 30
0.0
  0
SPLINE
  5
FD
330
1F
100
AcDbEntity
  8
0
  6
Continuous
 62
     7
370
    25
100
AcDbSpline
210
0.0
220
0.0
230
1.0
 70
     8
 71
     3
 72
    13
 73
     9
 74
     0
 42
0.000000001
 43
0.00000001
 40
0.0
 40
0.0
 40
0.0
 40
0.0
 40
0.1448901030726346
 40
0.2648168907800345
 40
0.3776524690014428
 40
0.4948140254105574
 40
0.7484862333073626
 40
1.0
 40
1.0
 40
1.0
 40
1.0
 10
6329.329244790813
 20
5150.984185520841
 30
0.0
 10
6329.353589482667
 20
5151.069153439814
 30
0.0
 10
6329.398084485896
 20
5151.224450038
 30
0.0
 10
6329.361482865238
 20
5151.457264470361
 30
0.0
 10
6329.248448639582
 20
5151.641017610556
 30
0.0
 10
6329.022049743495
 20
5151.830650754336
 30
0.0
 10
6328.667375355635
 20
5151.976223066281
 30
0.0
 10
6328.366002848125
 20
5152.024543890949
 30
0.0
 10
6328.21596041157
 20
5152.048601076289
 30
0.0
  0
SPLINE
  5
FE
330
1F
100
AcDbEntity
  8
0
  6
Continuous
 62
     7
370
    25
100
AcDbSpline
210
0.0
220
0.0
230
1.0
 70
     8
 71
     3
 72
     9
 73
     5
 74
     0
 42
0.000000001
 43
0.00000001
 40
0.0
 40
0.0
 40
0.0
 40
0.0
 40
0.5505344340312035
 40
1.0
 40
1.0
 40
1.0
 40
1.0
 10
6328.21596041157
 20
5152.048601076289
 30
0.0
 10
6328.255531540111
 20
5152.194136044784
 30
0.0
 10
6328.327409203152
 20
5152.458488207879
 30
0.0
 10
6328.452484247987
 20
5152.701993271156
 30
0.0
 10
6328.508701173803
 20
5152.811440412237
 30
0.0
  0
SPLINE
  5
FF
330
1F
100
AcDbEntity
  8
0
  6
Continuous
 62
     7
370
    25
100
AcDbSpline
210
0.0
220
0.0
230
1.0
 70
     8
 71
     3
 72
     9
 73
     5
 74
     0
 42
0.000000001
 43
0.00000001
 40
0.0
 40
0.0
 40
0.0
 40
0.0
 40
0.5139396248701485
 40
1.0
 40
1.0
 40
1.0
 40
1.0
 10
6328.508701173803
 20
5152.811440412237
 30
0.0
 10
6328.369349432936
 20
5153.077339418037
 30
0.0
 10
6328.09820524766
 20
5153.594713430338
 30
0.0
 10
6328.076019014773
 20
5154.177882867893
 30
0.0
 10
6328.065235166094
 20
5154.461338423474
 30
0.0
  0
SPLINE
  5
100
330
1F
100
AcDbEntity
  8
0
  6
Continuous
 62
     7
370
    25
100
AcDbSpline
210
0.0
220
0.0
230
1.0
 70
     8
 71
     3
 72
     9
 73
     5
 74
     0
 42
0.000000001
 43
0.00000001
 40
0.0
 40
0.0
 40
0.0
 40
0.0
 40
0.5494797401268185
 40
0.9999999999999999
 40
0.9999999999999999
 40
0.9999999999999999
 40
0.9999999999999999
 10
6328.065235166094
 20
5154.461338423474
 30
0.0
 10
6328.414233592194
 20
5154.384827655991
 30
0.0
 10
6329.049376984415
 20
5154.245585456696
 30
0.0
 10
6329.587779705583
 20
5153.883682272873
 30
0.0
 10
6329.83034103944
 20
5153.720637556447
 30
0.0
  0
SPLINE
  5
101
330
1F
100
AcDbEntity
  8
0
  6
Continuous
 62
     7
370
    25
100
AcDbSpline
210
0.0
220
0.0
230
1.0
 70
     8
 71
     3
 72
    12
 73
     8
 74
     0
 42
0.000000001
 43
0.00000001
 40
0.0
 40
0.0
 40
0.0
 40
0.0
 40
0.1051183706017334
 40
0.2604616137789199
 40
0.5553563961697962
 40
0.8115292643771157
 40
0.9999999999999999
 40
0.9999999999999999
 40
0.9999999999999999
 40
0.9999999999999999
 10
6329.83034103944
 20
5153.720637556447
 30
0.0
 10
6329.854519900589
 20
5153.726593904658
 30
0.0
 10
6329.914430125211
 20
5153.741352505447
 30
0.0
 10
6330.045906671416
 20
5153.751330288492
 30
0.0
 10
6330.212656144678
 20
5153.756105521594
 30
0.0
 10
6330.388333474976
 20
5153.753458163924
 30
0.0
 10
6330.49178007197
 20
5153.733510489987
 30
0.0
 10
6330.535627899906
 20
5153.72505528508
 30
0.0
  0
SPLINE
  5
102
330
1F
100
AcDbEntity
  8
0
  6
Continuous
 62
     7
370
    25
100
AcDbSpline
210
0.0
220
0.0
230
1.0
 70
     8
 71
     3
 72
    10
 73
     6
 74
     0
 42
0.000000001
 43
0.00000001
 40
0.0
 40
0.0
 40
0.0
 40
0.0
 40
0.2545813936102699
 40
0.5359893506128542
 40
1.0
 40
1.0
 40
1.0
 40
1.0
 10
6330.535627899906
 20
5153.72505528508
 30
0.0
 10
6330.671040868273
 20
5153.834626316184
 30
0.0
 10
6330.956135972635
 20
5154.065314446899
 30
0.0
 10
6331.590540767991
 20
5154.338906507387
 30
0.0
 10
6332.093853861019
 20
5154.419827227736
 30
0.0
 10
6332.407157866499
 20
5154.470199026449
 30
0.0
  0
SPLINE
  5
103
330
1F
100
AcDbEntity
  8
0
  6
Continuous
 62
     7
370
    25
100
AcDbSpline
210
0.0
220
0.0
230
1.0
 70
     8
 71
     3
 72
     9
 73
     5
 74
     0
 42
0.000000001
 43
0.00000001
 40
0.0
 40
0.0
 40
0.0
 40
0.0
 40
0.5513214405658519
 40
0.9999999999999999
 40
0.9999999999999999
 40
0.9999999999999999
 40
0.9999999999999999
 10
6332.407157866499
 20
5154.470199026449
 30
0.0
 10
6332.378481298872
 20
5154.146385609117
 30
0.0
 10
6332.326467055426
 20
5153.559045096838
 30
0.0
 10
6332.03938704191
 20
5153.046034521241
 30
0.0
 10
6331.910580395004
 20
5152.815857675208
 30
0.0
  0
SPLINE
  5
104
330
1F
100
AcDbEntity
  8
0
  6
Continuous
 62
     7
370
    25
100
AcDbSpline
210
0.0
220
0.0
230
1.0
 70
     8
 71
     3
 72
    10
 73
     6
 74
     0
 42
0.000000001
 43
0.00000001
 40
0.0
 40
0.0
 40
0.0
 40
0.0
 40
0.5754181254121888
 40
0.8047538115200159
 40
1.0
 40
1.0
 40
1.0
 40
1.0
 10
6331.910580395004
 20
5152.815857675208
 30
0.0
 10
6332.003571535329
 20
5152.659361331644
 30
0.0
 10
6332.133624745872
 20
5152.44049261095
 30
0.0
 10
6332.234255889794
 20
5152.131792843039
 30
0.0
 10
6332.213856680137
 20
5151.997109298636
 30
0.0
 10
6332.20447599723
 20
5151.935174368604
 30
0.0
  0
SPLINE
  5
105
330
1F
100
AcDbEntity
  8
0
  6
Continuous
 62
     7
370
    25
100
AcDbSpline
210
0.0
220
0.0
230
1.0
 70
     8
 71
     3
 72
    10
 73
     6
 74
     0
 42
0.000000001
 43
0.00000001
 40
0.0
 40
0.0
 40
0.0
 40
0.0
 40
0.2737308257405979
 40
0.5596238920161843
 40
1.0
 40
1.0
 40
1.0
 40
1.0
 10
6330.757308749697
 20
5150.842169538422
 30
0.0
 10
6330.696086056357
 20
5150.479763487673
 30
0.0
 10
6330.570920460432
 20
5149.738849182307
 30
0.0
 10
6330.563976784209
 20
5148.394473642992
 30
0.0
 10
6330.609688861946
 20
5147.422364126342
 30
0.0
 10
6330.63740655615
 20
5146.832921780928
 30
0.0
  0
SPLINE
  5
106
330
1F
100
AcDbEntity
  8
0
  6
Continuous
 62
     7
370
    25
100
AcDbSpline
210
0.0
220
0.0
230
1.0
 70
     8
 71
     3
 72
     9
 73
     5
 74
     0
 42
0.000000001
 43
0.00000001
 40
0.0
 40
0.0
 40
0.0
 40
0.0
 40
0.5274150469629862
 40
1.0
 40
1.0
 40
1.0
 40
1.0
 10
6330.63740655615
 20
5146.832921780928
 30
0.0
 10
6330.642288673423
 20
5146.833385818146
 30
0.0
 10
6330.651545362821
 20
5146.834265651253
 30
0.0
 10
6330.660780622806
 20
5146.835347143869
 30
0.0
 10
6330.665145067713
 20
5146.835858241006
 30
0.0
  0
SPLINE
  5
107
330
1F
100
AcDbEntity
  8
0
  6
Continuous
 62
     7
370
    25
100
AcDbSpline
210
0.0
220
0.0
230
1.0
 70
     8
 71
     3
 72
    11
 73
     7
 74
     0
 42
0.000000001
 43
0.00000001
 40
0.0
 40
0.0
 40
0.0
 40
0.0
 40
0.2658316130067016
 40
0.5199342297447022
 40
0.7395735569849677
 40
1.0
 40
1.0
 40
1.0
 40
1.0
 10
6330.665145067713
 20
5146.835858241006
 30
0.0
 10
6330.889225072255
 20
5146.910703918972
 30
0.0
 10
6331.327498245431
 20
5147.057092941267
 30
0.0
 10
6331.828252768647
 20
5147.502636463784
 30
0.0
 10
6332.158548234171
 20
5148.067951112807
 30
0.0
 10
6332.268498536111
 20
5148.478206905398
 30
0.0
 10
6332.328144459269
 20
5148.700762778803
 30
0.0
  0
SPLINE
  5
108
330
1F
100
AcDbEntity
  8
0
  6
Continuous
 62
     7
370
    25
100
AcDbSpline
210
0.0
220
0.0
230
1.0
 70
     8
 71
     3
 72
     9
 73
     5
 74
     0
 42
0.000000001
 43
0.00000001
 40
0.0
 40
0.0
 40
0.0
 40
0.0
 40
0.5734372027552199
 40
1.0
 40
1.0
 40
1.0
 40
1.0
 10
6332.328144459269
 20
5148.700762778803
 30
0.0
 10
6332.031862544779
 20
5148.630926436284
 30
0.0
 10
6331.515185368856
 20
5148.509140925714
 30
0.0
 10
6331.002311451506
 20
5148.634650392267
 30
0.0
 10
6330.783538518688
 20
5148.6881880614
 30
0.0
  0
SPLINE
  5
109
330
1F
100
AcDbEntity
  8
0
  6
Continuous
 62
     7
370
    25
100
AcDbSpline
210
0.0
220
0.0
230
1.0
 70
     8
 71
     3
 72
     9
 73
     5
 74
     0
 42
0.000000001
 43
0.00000001
 40
0.0
 40
0.0
 40
0.0
 40
0.0
 40
0.6446020169933867
 40
1.0
 40
1.0
 40
1.0
 40
1.0
 10
6330.783538518688
 20
5148.6881880614
 30
0.0
 10
6330.792932827572
 20
5148.40946494233
 30
0.0
 10
6330.807506639998
 20
5147.97706927536
 30
0.0
 10
6330.832603344148
 20
5147.545168979033
 30
0.0
 10
6330.841522662184
 20
5147.391672484859
 30
0.0
  0
SPLINE
  5
10A
330
1F
100
AcDbEntity
  8
0
  6
Continuous
 62
     7
370
    25
100
AcDbSpline
210
0.0
220
0.0
230
1.0
 70
     8
 71
     3
 72
    11
 73
     7
 74
     0
 42
0.000000001
 43
0.00000001
 40
0.0
 40
0.0
 40
0.0
 40
0.0
 40
0.3079498532078245
 40
0.6096101889994625
 40
0.8229963097133212
 40
1.0
 40
1.0
 40
1.0
 40
1.0
 10
6330.841522662184
 20
5147.391672484859
 30
0.0
 10
6330.77765447037
 20
5147.799799069522
 30
0.0
 10
6330.651222520243
 20
5148.60771672826
 30
0.0
 10
6330.724474030752
 20
5149.711636355486
 30
0.0
 10
6330.882258359252
 20
5150.628995438823
 30
0.0
 10
6331.086282879918
 20
5151.111237898991
 30
0.0
 10
6331.178788094065
 20
5151.329887803926
 30
0.0
  0
SPLINE
  5
10B
330
1F
100
AcDbEntity
  8
0
  6
Continuous
 62
     7
370
    25
100
AcDbSpline
210
0.0
220
0.0
230
1.0
 70
     8
 71
     3
 72
     9
 73
     5
 74
     0
 42
0.000000001
 43
0.00000001
 40
0.0
 40
0.0
 40
0.0
 40
0.0
 40
0.5183020237876583
 40
1.0
 40
1.0
 40
1.0
 40
1.0
 10
6331.178788094065
 20
5151.329887803926
 30
0.0
 10
6331.155037510076
 20
5151.349991565522
 30
0.0
 10
6331.109213679765
 20
5151.388779300613
 30
0.0
 10
6331.06427037974
 20
5151.428583691445
 30
0.0
 10
6331.042621283075
 20
5151.447757385953
 30
0.0
  0
SPLINE
  5
10C
330
1F
100
AcDbEntity
  8
0
  6
Continuous
 62
     7
370
    25
100
AcDbSpline
210
0.0
220
0.0
230
1.0
 70
     8
 71
     3
 72
     9
 73
     5
 74
     0
 42
0.000000001
 43
0.00000001
 40
0.0
 40
0.0
 40
0.0
 40
0.0
 40
0.5814131762708817
 40
1.0
 40
1.0
 40
1.0
 40
1.0
 10
6329.87476885154
 20
5146.823834866567
 30
0.0
 10
6329.934506057586
 20
5146.812759408703
 30
0.0
 10
6330.037250901502
 20
5146.793710205285
 30
0.0
 10
6330.141618446406
 20
5146.789980618788
 30
0.0
 10
6330.185305325529
 20
5146.788419463022
 30
0.0
  0
SPLINE
  5
10D
330
1F
100
AcDbEntity
  8
0
  6
Continuous
 62
     7
370
    25
100
AcDbSpline
210
0.0
220
0.0
230
1.0
 70
     8
 71
     3
 72
     9
 73
     5
 74
     0
 42
0.000000001
 43
0.00000001
 40
0.0
 40
0.0
 40
0.0
 40
0.0
 40
0.5818811744158422
 40
1.0
 40
1.0
 40
1.0
 40
1.0
 10
6330.185305325529
 20
5146.788419463022
 30
0.0
 10
6330.162433803586
 20
5147.136845358976
 30
0.0
 10
6330.123127630872
 20
5147.735637537296
 30
0.0
 10
6330.191894452071
 20
5148.331229716891
 30
0.0
 10
6330.220647154591
 20
5148.58025801955
 30
0.0
  0
SPLINE
  5
10E
330
1F
100
AcDbEntity
  8
0
  6
Continuous
 62
     7
370
    25
100
AcDbSpline
210
0.0
220
0.0
230
1.0
 70
     8
 71
     3
 72
     9
 73
     5
 74
     0
 42
0.000000001
 43
0.00000001
 40
0.0
 40
0.0
 40
0.0
 40
0.0
 40
0.5578692389400756
 40
1.0
 40
1.0
 40
1.0
 40
1.0
 10
6330.220647154591
 20
5148.58025801955
 30
0.0
 10
6330.225059157325
 20
5148.246163360682
 30
0.0
 10
6330.232967825571
 20
5147.647287072927
 30
0.0
 10
6330.252116186984
 20
5147.048668814785
 30
0.0
 10
6330.26058226659
 20
5146.784001268728
 30
0.0
  0
SPLINE
  5
10F
330
1F
100
AcDbEntity
  8
0
  6
Continuous
 62
     7
370
    25
100
AcDbSpline
210
0.0
220
0.0
230
1.0
 70
     8
 71
     3
 72
     9
 73
     5
 74
     0
 42
0.000000001
 43
0.00000001
 40
0.0
 40
0.0
 40
0.0
 40
0.0
 40
0.6227272320461132
 40
1.0
 40
1.0
 40
1.0
 40
1.0
 10
6330.26058226659
 20
5146.784001268728
 30
0.0
 10
6330.327542442436
 20
5146.785951054385
 30
0.0
 10
6330.435069739138
 20
5146.789082097251
 30
0.0
 10
6330.540210247468
 20
5146.811162649616
 30
0.0
 10
6330.579876898071
 20
5146.819493040724
 30
0.0
  0
SPLINE
  5
110
330
1F
100
AcDbEntity
  8
0
  6
Continuous
 62
     7
370
    25
100
AcDbSpline
210
0.0
220
0.0
230
1.0
 70
     8
 71
     3
 72
    12
 73
     8
 74
     0
 42
0.000000001
 43
0.00000001
 40
0.0
 40
0.0
 40
0.0
 40
0.0
 40
0.3969545911687636
 40
0.6998196084636144
 40
0.8215975170337854
 40
0.9200909044840894
 40
1.0
 40
1.0
 40
1.0
 40
1.0
 10
6330.579876898071
 20
5146.819493040724
 30
0.0
 10
6330.544890324504
 20
5147.470883180135
 30
0.0
 10
6330.483209994413
 20
5148.619265394277
 30
0.0
 10
6330.516741134776
 20
5149.977569237291
 30
0.0
 10
6330.669378854957
 20
5150.822664037903
 30
0.0
 10
6330.821406281904
 20
5151.301883232305
 30
0.0
 10
6331.009968917827
 20
5151.529663664206
 30
0.0
 10
6331.094428895256
 20
5151.631689869149
 30
0.0
  0
SPLINE
  5
111
330
1F
100
AcDbEntity
  8
0
  6
Continuous
 62
     7
370
    25
100
AcDbSpline
210
0.0
220
0.0
230
1.0
 70
     8
 71
     3
 72
    10
 73
     6
 74
     0
 42
0.000000001
 43
0.00000001
 40
0.0
 40
0.0
 40
0.0
 40
0.0
 40
0.5558808811601662
 40
0.7891659978710883
 40
0.9999999999999999
 40
0.9999999999999999
 40
0.9999999999999999
 40
0.9999999999999999
 10
6331.094428895256
 20
5151.631689869149
 30
0.0
 10
6330.946910138432
 20
5151.534700256257
 30
0.0
 10
6330.737482559829
 20
5151.397007259005
 30
0.0
 10
6330.456175737711
 20
5151.237888336969
 30
0.0
 10
6330.314542180161
 20
5151.219171359988
 30
0.0
 10
6330.247305331966
 20
5151.21028596191
 30
0.0
  0
SPLINE
  5
112
330
1F
100
AcDbEntity
  8
0
  6
Continuous
 62
     7
370
    25
100
AcDbSpline
210
0.0
220
0.0
230
1.0
 70
     8
 71
     3
 72
    10
 73
     6
 74
     0
 42
0.000000001
 43
0.00000001
 40
0.0
 40
0.0
 40
0.0
 40
0.0
 40
0.2674311030253155
 40
0.5687117156822341
 40
1.0
 40
1.0
 40
1.0
 40
1.0
 10
6330.247305331966
 20
5151.21028596191
 30
0.0
 10
6330.159246658367
 20
5151.228931538176
 30
0.0
 10
6329.971983476275
 20
5151.268582713931
 30
0.0
 10
6329.693013391536
 20
5151.459449782326
 30
0.0
 10
6329.48076200982
 20
5151.579001368945
 30
0.0
 10
6329.355802385351
 20
5151.649385463728
 30
0.0
  0
SPLINE
  5
113
330
1F
100
AcDbEntity
  8
0
  6
Continuous
 62
     7
370
    25
100
AcDbSpline
210
0.0
220
0.0
230
1.0
 70
     8
 71
     3
 72
     9
 73
     5
 74
     0
 42
0.000000001
 43
0.00000001
 40
0.0
 40
0.0
 40
0.0
 40
0.0
 40
0.4408124137376049
 40
1.0
 40
1.0
 40
1.0
 40
1.0
 10
6329.480022190353
 20
5151.307900209262
 30
0.0
 10
6329.471201768699
 20
5151.20647168873
 30
0.0
 10
6329.451192301226
 20
5150.976377169222
 30
0.0
 10
6329.350186635681
 20
5150.768004420795
 30
0.0
 10
6329.293705521366
 20
5150.65148496656
 30
0.0
  0
SPLINE
  5
114
330
1F
100
AcDbEntity
  8
0
  6
Continuous
 62
     7
370
    25
100
AcDbSpline
210
0.0
220
0.0
230
1.0
 70
     8
 71
     3
 72
    15
 73
    11
 74
     0
 42
0.000000001
 43
0.00000001
 40
0.0
 40
0.0
 40
0.0
 40
0.0
 40
0.0707011884824876
 40
0.187621325387962
 40
0.4147557819141663
 40
0.547399568147157
 40
0.6781799857083424
 40
0.7702548666218905
 40
0.8744891440853527
 40
1.0
 40
1.0
 40
1.0
 40
1.0
 10
6329.293705521366
 20
5150.65148496656
 30
0.0
 10
6329.243894124354
 20
5150.556629716503
 30
0.0
 10
6329.111708505877
 20
5150.304910217612
 30
0.0
 10
6328.825439525425
 20
5149.745909400664
 30
0.0
 10
6328.578252768288
 20
5149.058454057877
 30
0.0
 10
6328.509519769031
 20
5148.311548016204
 30
0.0
 10
6328.634104880587
 20
5147.772496718089
 30
0.0
 10
6328.91575880875
 20
5147.356435901995
 30
0.0
 10
6329.298780001509
 20
5147.041898919747
 30
0.0
 10
6329.622481101222
 20
5146.909544375995
 30
0.0
 10
6329.799320547125
 20
5146.837238461061
 30
0.0
  0
SPLINE
  5
115
330
1F
100
AcDbEntity
  8
0
  6
Continuous
 62
     7
370
    25
100
AcDbSpline
210
0.0
220
0.0
230
1.0
 70
     8
 71
     3
 72
    11
 73
     7
 74
     0
 42
0.000000001
 43
0.00000001
 40
0.0
 40
0.0
 40
0.0
 40
0.0
 40
0.2798515449274849
 40
0.5568505284176609
 40
0.7767506361416582
 40
1.0
 40
1.0
 40
1.0
 40
1.0
 10
6329.945653675339
 20
5152.341292012765
 30
0.0
 10
6329.942502408481
 20
5152.363023188752
 30
0.0
 10
6329.93623199602
 20
5152.406264032159
 30
0.0
 10
6329.895075438608
 20
5152.453233007356
 30
0.0
 10
6329.846478442162
 20
5152.482189620794
 30
0.0
 10
6329.812163447086
 20
5152.485820916463
 30
0.0
 10
6329.794876275799
 20
5152.487650286688
 30
0.0
  0
SPLINE
  5
116
330
1F
100
AcDbEntity
  8
0
  6
Continuous
 62
     7
370
    25
100
AcDbSpline
210
0.0
220
0.0
230
1.0
 70
     8
 71
     3
 72
    11
 73
     7
 74
     0
 42
0.000000001
 43
0.00000001
 40
0.0
 40
0.0
 40
0.0
 40
0.0
 40
0.2824028743735772
 40
0.5606627905724266
 40
0.7786375888233869
 40
1.0
 40
1.0
 40
1.0
 40
1.0
 10
6329.794876275799
 20
5152.487650286688
 30
0.0
 10
6329.77296736469
 20
5152.484697263711
 30
0.0
 10
6329.729470954578
 20
5152.478834539732
 30
0.0
 10
6329.68073605101
 20
5152.439963615846
 30
0.0
 10
6329.649873176979
 20
5152.392503119096
 30
0.0
 10
6329.646018649085
 20
5152.358449906644
 30
0.0
 10
6329.644076524517
 20
5152.341292012765
 30
0.0
  0
SPLINE
  5
117
330
1F
100
AcDbEntity
  8
0
  6
Continuous
 62
     7
370
    25
100
AcDbSpline
210
0.0
220
0.0
230
1.0
 70
     8
 71
     3
 72
    11
 73
     7
 74
     0
 42
0.000000001
 43
0.00000001
 40
0.0
 40
0.0
 40
0.0
 40
0.0
 40
0.2798670454925836
 40
0.5593280540042946
 40
0.7792157227558358
 40
1.0
 40
1.0
 40
1.0
 40
1.0
 10
6329.644076524517
 20
5152.341292012765
 30
0.0
 10
6329.647276088021
 20
5152.31931172539
 30
0.0
 10
6329.653670573039
 20
5152.275383040106
 30
0.0
 10
6329.694488722724
 20
5152.227062514697
 30
0.0
 10
6329.742998948026
 20
5152.196401003234
 30
0.0
 10
6329.777560393181
 20
5152.192463891386
 30
0.0
 10
6329.794876275799
 20
5152.190491330161
 30
0.0
  0
SPLINE
  5
118
330
1F
100
AcDbEntity
  8
0
  6
Continuous
 62
     7
370
    25
100
AcDbSpline
210
0.0
220
0.0
230
1.0
 70
     8
 71
     3
 72
    11
 73
     7
 74
     0
 42
0.000000001
 43
0.00000001
 40
0.0
 40
0.0
 40
0.0
 40
0.0
 40
0.2848322730584094
 40
0.557510733279361
 40
0.7738255026951724
 40
0.9999999999999999
 40
0.9999999999999999
 40
0.9999999999999999
 40
0.9999999999999999
 10
6330.948021261236
 20
5152.341292012765
 30
0.0
 10
6330.94519525318
 20
5152.363902210073
 30
0.0
 10
6330.939663823027
 20
5152.408157826004
 30
0.0
 10
6330.899553788688
 20
5152.457433675899
 30
0.0
 10
6330.850125083297
 20
5152.486867862593
 30
0.0
 10
6330.81511359765
 20
5152.4903090716
 30
0.0
 10
6330.797217784664
 20
5152.492068015321
 30
0.0
  0
SPLINE
  5
119
330
1F
100
AcDbEntity
  8
0
  6
Continuous
 62
     7
370
    25
100
AcDbSpline
210
0.0
220
0.0
230
1.0
 70
     8
 71
     3
 72
    11
 73
     7
 74
     0
 42
0.000000001
 43
0.00000001
 40
0.0
 40
0.0
 40
0.0
 40
0.0
 40
0.2779529063882088
 40
0.5508712204579819
 40
0.7700807997142407
 40
1.0
 40
1.0
 40
1.0
 40
1.0
 10
6330.797217784664
 20
5152.492068015321
 30
0.0
 10
6330.775533293405
 20
5152.489156077477
 30
0.0
 10
6330.732557084522
 20
5152.483384946046
 30
0.0
 10
6330.684990858665
 20
5152.443284468776
 30
0.0
 10
6330.656052564093
 20
5152.394130971696
 30
0.0
 10
6330.652619677268
 20
5152.359182782699
 30
0.0
 10
6330.650862304708
 20
5152.341292012765
 30
0.0
  0
SPLINE
  5
11A
330
1F
100
AcDbEntity
  8
0
  6
Continuous
 62
     7
370
    25
100
AcDbSpline
210
0.0
220
0.0
230
1.0
 70
     8
 71
     3
 72
    11
 73
     7
 74
     0
 42
0.000000001
 43
0.00000001
 40
0.0
 40
0.0
 40
0.0
 40
0.0
 40
0.2895426487908784
 40
0.5649834726953505
 40
0.7799446653841785
 40
1.0
 40
1.0
 40
1.0
 40
1.0
 10
6330.650862304708
 20
5152.341292012765
 30
0.0
 10
6330.653679462862
 20
5152.318692378421
 30
0.0
 10
6330.659176572885
 20
5152.274593797619
 30
0.0
 10
6330.69841441751
 20
5152.22548024396
 30
0.0
 10
6330.746244385855
 20
5152.195855863623
 30
0.0
 10
6330.780094520815
 20
5152.192293413679
 30
0.0
 10
6330.797217784664
 20
5152.190491330161
 30
0.0
  0
SPLINE
  5
11B
330
1F
100
AcDbEntity
  8
0
  6
Continuous
 62
     7
370
    25
100
AcDbSpline
210
0.0
220
0.0
230
1.0
 70
     8
 71
     3
 72
     9
 73
     5
 74
     0
 42
0.000000001
 43
0.00000001
 40
0.0
 40
0.0
 40
0.0
 40
0.0
 40
0.55226034345996
 40
1.0
 40
1.0
 40
1.0
 40
1.0
 10
6328.260336069605
 20
5154.252882819905
 30
0.0
 10
6328.47251960253
 20
5154.150414467304
 30
0.0
 10
6328.856728853546
 20
5153.964870902906
 30
0.0
 10
6329.161596364142
 20
5153.667475940239
 30
0.0
 10
6329.298097638628
 20
5153.534320421799
 30
0.0
  0
SPLINE
  5
11C
330
1F
100
AcDbEntity
  8
0
  6
Continuous
 62
     7
370
    25
100
AcDbSpline
210
0.0
220
0.0
230
1.0
 70
     8
 71
     3
 72
     9
 73
     5
 74
     0
 42
0.000000001
 43
0.00000001
 40
0.0
 40
0.0
 40
0.0
 40
0.0
 40
0.556886377485881
 40
1.0
 40
1.0
 40
1.0
 40
1.0
 10
6329.298097638628
 20
5153.534320421799
 30
0.0
 10
6329.324760117767
 20
5153.547812713786
 30
0.0
 10
6329.372637889999
 20
5153.572040801475
 30
0.0
 10
6329.422420044707
 20
5153.592045913768
 30
0.0
 10
6329.444479195616
 20
5153.600910451545
 30
0.0
  0
SPLINE
  5
11D
330
1F
100
AcDbEntity
  8
0
  6
Continuous
 62
     7
370
    25
100
AcDbSpline
210
0.0
220
0.0
230
1.0
 70
     8
 71
     3
 72
     9
 73
     5
 74
     0
 42
0.000000001
 43
0.00000001
 40
0.0
 40
0.0
 40
0.0
 40
0.0
 40
0.5864479201673666
 40
0.9999999999999999
 40
0.9999999999999999
 40
0.9999999999999999
 40
0.9999999999999999
 10
6329.444479195616
 20
5153.600910451545
 30
0.0
 10
6329.226696514986
 20
5153.817802296368
 30
0.0
 10
6328.855337570499
 20
5154.187642204336
 30
0.0
 10
6328.352802962533
 20
5154.321620606551
 30
0.0
 10
6328.144978730223
 20
5154.37702765344
 30
0.0
  0
SPLINE
  5
11E
330
1F
100
AcDbEntity
  8
0
  6
Continuous
 62
     7
370
    25
100
AcDbSpline
210
0.0
220
0.0
230
1.0
 70
     8
 71
     3
 72
     9
 73
     5
 74
     0
 42
0.000000001
 43
0.00000001
 40
0.0
 40
0.0
 40
0.0
 40
0.0
 40
0.5266536827280762
 40
1.0
 40
1.0
 40
1.0
 40
1.0
 10
6328.144978730223
 20
5154.37702765344
 30
0.0
 10
6328.162706512859
 20
5154.097663022059
 30
0.0
 10
6328.196367689487
 20
5153.567210771289
 30
0.0
 10
6328.435479613966
 20
5153.093363556094
 30
0.0
 10
6328.548662362835
 20
5152.869069721832
 30
0.0
  0
SPLINE
  5
11F
330
1F
100
AcDbEntity
  8
0
  6
Continuous
 62
     7
370
    25
100
AcDbSpline
210
0.0
220
0.0
230
1.0
 70
     8
 71
     3
 72
     9
 73
     5
 74
     0
 42
0.000000001
 43
0.00000001
 40
0.0
 40
0.0
 40
0.0
 40
0.0
 40
0.5803467950622982
 40
1.0
 40
1.0
 40
1.0
 40
1.0
 10
6332.070264963648
 20
5152.004249166979
 30
0.0
 10
6331.804407018029
 20
5151.967304283652
 30
0.0
 10
6331.346305159141
 20
5151.903644272705
 30
0.0
 10
6330.962764946894
 20
5151.649545083744
 30
0.0
 10
6330.801811067602
 20
5151.542911544724
 30
0.0
  0
SPLINE
  5
120
330
1F
100
AcDbEntity
  8
0
  6
Continuous
 62
     7
370
    25
100
AcDbSpline
210
0.0
220
0.0
230
1.0
 70
     8
 71
     3
 72
    13
 73
     9
 74
     0
 42
0.000000001
 43
0.00000001
 40
0.0
 40
0.0
 40
0.0
 40
0.0
 40
0.061452003545206
 40
0.1279900921262601
 40
0.2046077950267501
 40
0.4874873445896492
 40
0.7874736642835637
 40
0.9999999999999999
 40
0.9999999999999999
 40
0.9999999999999999
 40
0.9999999999999999
 10
6332.163788376591
 20
5151.993807643934
 30
0.0
 10
6332.168788817631
 20
5152.027506010986
 30
0.0
 10
6332.179203562026
 20
5152.097691795901
 30
0.0
 10
6332.136076547995
 20
5152.204944945276
 30
0.0
 10
6332.002683599243
 20
5152.395408673839
 30
0.0
 10
6331.709588772561
 20
5152.61706614892
 30
0.0
 10
6331.336590279489
 20
5152.836260441914
 30
0.0
 10
6331.083884677319
 20
5152.956628890858
 30
0.0
 10
6330.979093907616
 20
5153.006542712732
 30
0.0
  0
SPLINE
  5
121
330
1F
100
AcDbEntity
  8
0
  6
Continuous
 62
     7
370
    25
100
AcDbSpline
210
0.0
220
0.0
230
1.0
 70
     8
 71
     3
 72
     9
 73
     5
 74
     0
 42
0.000000001
 43
0.00000001
 40
0.0
 40
0.0
 40
0.0
 40
0.0
 40
0.5230472806667612
 40
1.0
 40
1.0
 40
1.0
 40
1.0
 10
6330.916970966598
 20
5153.614213463201
 30
0.0
 10
6330.941207861458
 20
5153.603952091984
 30
0.0
 10
6330.987545727568
 20
5153.584333652895
 30
0.0
 10
6331.032874230513
 20
5153.562486094514
 30
0.0
 10
6331.054493783256
 20
5153.552065842136
 30
0.0
  0
LINE
  5
122
330
1F
100
AcDbEntity
  8
0
  6
Continuous
 62
     7
370
    25
100
AcDbLine
 10
6328.5486623628
 20
5152.8690697218
 30
0.0
 11
6328.6018744095
 21
5152.9445203546
 31
0.0
  0
SPLINE
  5
123
330
1F
100
AcDbEntity
  8
0
  6
Continuous
 62
     7
370
    25
100
AcDbSpline
210
0.0
220
0.0
230
1.0
 70
     8
 71
     3
 72
    11
 73
     7
 74
     0
 42
0.000000001
 43
0.00000001
 40
0.0
 40
0.0
 40
0.0
 40
0.0
 40
0.2848326633068962
 40
0.5575009025257708
 40
0.7738089804972116
 40
1.0
 40
1.0
 40
1.0
 40
1.0
 10
6330.797217784664
 20
5152.190491330161
 30
0.0
 10
6330.819830818225
 20
5152.193314508274
 30
0.0
 10
6330.864091144525
 20
5152.198840294285
 30
0.0
 10
6330.913373136463
 20
5152.238949115015
 30
0.0
 10
6330.942821981762
 20
5152.288376326076
 30
0.0
 10
6330.946262553734
 20
5152.323392760457
 30
0.0
 10
6330.948021261236
 20
5152.341292012765
 30
0.0
  0
SPLINE
  5
124
330
1F
100
AcDbEntity
  8
0
  6
Continuous
 62
     7
370
    25
100
AcDbSpline
210
0.0
220
0.0
230
1.0
 70
     8
 71
     3
 72
    11
 73
     7
 74
     0
 42
0.000000001
 43
0.00000001
 40
0.0
 40
0.0
 40
0.0
 40
0.0
 40
0.2797917400084365
 40
0.5591919656031014
 40
0.77907564531114
 40
1.0
 40
1.0
 40
1.0
 40
1.0
 10
6329.794876275799
 20
5152.190491330161
 30
0.0
 10
6329.816849798945
 20
5152.193688486281
 30
0.0
 10
6329.860766097542
 20
5152.200078324721
 30
0.0
 10
6329.909088819718
 20
5152.240874828775
 30
0.0
 10
6329.93974685438
 20
5152.289393853927
 30
0.0
 10
6329.94368163856
 20
5152.323965420565
 30
0.0
 10
6329.945653675339
 20
5152.341292012765
 30
0.0
  0
SPLINE
  5
125
330
1F
100
AcDbEntity
  8
0
  6
Continuous
 62
     7
370
    25
100
AcDbSpline
210
0.0
220
0.0
230
1.0
 70
     8
 71
     3
 72
    11
 73
     7
 74
     0
 42
0.000000001
 43
0.00000001
 40
0.0
 40
0.0
 40
0.0
 40
0.0
 40
0.2680340259919133
 40
0.5585764943215723
 40
0.7854327459014098
 40
1.0
 40
1.0
 40
1.0
 40
1.0
 10
6329.799320547125
 20
5146.837238461061
 30
0.0
 10
6329.801827277296
 20
5147.239295426718
 30
0.0
 10
6329.807051242972
 20
5148.077172519237
 30
0.0
 10
6329.80635065695
 20
5149.254433922154
 30
0.0
 10
6329.729838956437
 20
5150.354190386381
 30
0.0
 10
6329.561734465606
 20
5150.995952373332
 30
0.0
 10
6329.480022190353
 20
5151.307900209262
 30
0.0
  0
SPLINE
  5
126
330
1F
100
AcDbEntity
  8
0
  6
Continuous
 62
     7
370
    25
100
AcDbSpline
210
0.0
220
0.0
230
1.0
 70
     8
 71
     3
 72
    13
 73
     9
 74
     0
 42
0.000000001
 43
0.00000001
 40
0.0
 40
0.0
 40
0.0
 40
0.0
 40
0.0408734368098104
 40
0.0926352417316179
 40
0.1575219610845194
 40
0.3707534460484445
 40
0.6424878459444562
 40
1.0
 40
1.0
 40
1.0
 40
1.0
 10
6329.355802385351
 20
5151.649385463728
 30
0.0
 10
6329.399122825059
 20
5151.597850143357
 30
0.0
 10
6329.497303935274
 20
5151.481050891009
 30
0.0
 10
6329.599400161357
 20
5151.240593938743
 30
0.0
 10
6329.754047237702
 20
5150.722559917069
 30
0.0
 10
6329.862025769251
 20
5149.821569737063
 30
0.0
 10
6329.916084644421
 20
5148.442107951704
 30
0.0
 10
6329.889737959984
 20
5147.410150742802
 30
0.0
 10
6329.87476885154
 20
5146.823834866567
 30
0.0
  0
SPLINE
  5
127
330
1F
100
AcDbEntity
  8
0
  6
Continuous
 62
     7
370
    25
100
AcDbSpline
210
0.0
220
0.0
230
1.0
 70
     8
 71
     3
 72
     9
 73
     5
 74
     0
 42
0.000000001
 43
0.00000001
 40
0.0
 40
0.0
 40
0.0
 40
0.0
 40
0.5576977636266152
 40
1.0
 40
1.0
 40
1.0
 40
1.0
 10
6331.042621283075
 20
5151.447757385953
 30
0.0
 10
6330.970963295104
 20
5151.34365349749
 30
0.0
 10
6330.842474366795
 20
5151.156986282282
 30
0.0
 10
6330.783425982239
 20
5150.938712514191
 30
0.0
 10
6330.757308749697
 20
5150.842169538422
 30
0.0
  0
SPLINE
  5
128
330
1F
100
AcDbEntity
  8
0
  6
Continuous
 62
     7
370
    25
100
AcDbSpline
210
0.0
220
0.0
230
1.0
 70
     8
 71
     3
 72
    10
 73
     6
 74
     0
 42
0.000000001
 43
0.00000001
 40
0.0
 40
0.0
 40
0.0
 40
0.0
 40
0.323078132046731
 40
0.6047090827408615
 40
1.0
 40
1.0
 40
1.0
 40
1.0
 10
6332.20447599723
 20
5151.935174368604
 30
0.0
 10
6332.070578091333
 20
5151.929074121938
 30
0.0
 10
6331.819959829603
 20
5151.917656219582
 30
0.0
 10
6331.41613028696
 20
5151.790512675831
 30
0.0
 10
6331.20393289146
 20
5151.601930673513
 30
0.0
 10
6331.080019472382
 20
5151.491807546749
 30
0.0
  0
SPLINE
  5
129
330
1F
100
AcDbEntity
  8
0
  6
Continuous
 62
     7
370
    25
100
AcDbSpline
210
0.0
220
0.0
230
1.0
 70
     8
 71
     3
 72
     9
 73
     5
 74
     0
 42
0.000000001
 43
0.00000001
 40
0.0
 40
0.0
 40
0.0
 40
0.0
 40
0.5603788817142976
 40
1.0
 40
1.0
 40
1.0
 40
1.0
 10
6332.22668990328
 20
5149.949613265975
 30
0.0
 10
6332.256871963057
 20
5149.844526296522
 30
0.0
 10
6332.310732058009
 20
5149.656997870877
 30
0.0
 10
6332.335328306453
 20
5149.463537391349
 30
0.0
 10
6332.3461413367
 20
5149.378488078995
 30
0.0
  0
SPLINE
  5
12A
330
1F
100
AcDbEntity
  8
0
  6
Continuous
 62
     7
370
    25
100
AcDbSpline
210
0.0
220
0.0
230
1.0
 70
     8
 71
     3
 72
     9
 73
     5
 74
     0
 42
0.000000001
 43
0.00000001
 40
0.0
 40
0.0
 40
0.0
 40
0.0
 40
0.560552230289521
 40
1.0
 40
1.0
 40
1.0
 40
1.0
 10
6331.660810856363
 20
5150.998517643942
 30
0.0
 10
6331.719966063704
 20
5150.921200179488
 30
0.0
 10
6331.825496296475
 20
5150.783269295838
 30
0.0
 10
6331.914439603612
 20
5150.634156944112
 30
0.0
 10
6331.953525541565
 20
5150.568629853709
 30
0.0
  0
SPLINE
  5
12B
330
1F
100
AcDbEntity
  8
0
  6
Continuous
 62
     7
370
    25
100
AcDbSpline
210
0.0
220
0.0
230
1.0
 70
     8
 71
     3
 72
    10
 73
     6
 74
     0
 42
0.000000001
 43
0.00000001
 40
0.0
 40
0.0
 40
0.0
 40
0.0
 40
0.2000569844287778
 40
0.4722288199502291
 40
1.0
 40
1.0
 40
1.0
 40
1.0
 10
6328.566357491753
 20
5154.301677603557
 30
0.0
 10
6328.653950138018
 20
5154.278254692639
 30
0.0
 10
6328.86071008744
 20
5154.22296557782
 30
0.0
 10
6329.272135502896
 20
5154.028908490189
 30
0.0
 10
6329.576468571852
 20
5153.832499682002
 30
0.0
 10
6329.777255652687
 20
5153.702916816159
 30
0.0
  0
SPLINE
  5
12C
330
1F
100
AcDbEntity
  8
0
  6
Continuous
 62
     7
370
    25
100
AcDbSpline
210
0.0
220
0.0
230
1.0
 70
     8
 71
     3
 72
    11
 73
     7
 74
     0
 42
0.000000001
 43
0.00000001
 40
0.0
 40
0.0
 40
0.0
 40
0.0
 40
0.2932382448670189
 40
0.5809870858054348
 40
0.7978106032723905
 40
1.0
 40
1.0
 40
1.0
 40
1.0
 10
6330.207318065903
 20
5153.68072852148
 30
0.0
 10
6330.438254937272
 20
5153.659717913062
 30
0.0
 10
6330.895805554394
 20
5153.61809001367
 30
0.0
 10
6331.439312692414
 20
5153.280577946202
 30
0.0
 10
6331.832976916308
 20
5152.881587100653
 30
0.0
 10
6331.959984188426
 20
5152.57697978424
 30
0.0
 10
6332.021269945642
 20
5152.429995365723
 30
0.0
  0
SPLINE
  5
12D
330
1F
100
AcDbEntity
  8
0
  6
Continuous
 62
     7
370
    25
100
AcDbSpline
210
0.0
220
0.0
230
1.0
 70
     8
 71
     3
 72
     9
 73
     5
 74
     0
 42
0.000000001
 43
0.00000001
 40
0.0
 40
0.0
 40
0.0
 40
0.0
 40
0.5857148943759419
 40
1.0
 40
1.0
 40
1.0
 40
1.0
 10
6330.610953269741
 20
5153.711802564843
 30
0.0
 10
6330.797457191615
 20
5153.853341749729
 30
0.0
 10
6331.115878190747
 20
5154.094993765489
 30
0.0
 10
6331.498966416049
 20
5154.203527000084
 30
0.0
 10
6331.657674161932
 20
5154.248490702643
 30
0.0
  0
SPLINE
  5
12E
330
1F
100
AcDbEntity
  8
0
  6
Continuous
 62
     7
370
    25
100
AcDbSpline
210
0.0
220
0.0
230
1.0
 70
     8
 71
     3
 72
    19
 73
    15
 74
     0
 42
0.000000001
 43
0.00000001
 40
0.0
 40
0.0
 40
0.0
 40
0.0
 40
0.2105223583567626
 40
0.385552570365725
 40
0.539273686323031
 40
0.6783877306988725
 40
0.8559789132742843
 40
0.9734499495321423
 40
0.9979897911489948
 40
0.9993569955475524
 40
0.9997493918790318
 40
0.9998442798961112
 40
0.9999249232965105
 40
1.0
 40
1.0
 40
1.0
 40
1.0
 10
6330.979093907616
 20
5153.006542712732
 30
0.0
 10
6330.889042994638
 20
5152.939077518992
 30
0.0
 10
6330.724122929932
 20
5152.815521146834
 30
0.0
 10
6330.445223335913
 20
5152.729613912456
 30
0.0
 10
6330.194091587108
 20
5152.724621386761
 30
0.0
 10
6329.949254160119
 20
5152.782414146362
 30
0.0
 10
6329.739505767052
 20
5152.885510700987
 30
0.0
 10
6329.606391481581
 20
5152.98968750397
 30
0.0
 10
6329.549516431291
 20
5153.042031735902
 30
0.0
 10
6329.542231497534
 20
5153.053917304362
 30
0.0
 10
6329.541927857741
 20
5153.054885287012
 30
0.0
 10
6329.541958066933
 20
5153.05518560205
 30
0.0
 10
6329.541989804229
 20
5153.055318155113
 30
0.0
 10
6329.542044334908
 20
5153.055381788529
 30
0.0
 10
6329.542070625565
 20
5153.055412467851
 30
0.0
  0
SPLINE
  5
12F
330
1F
100
AcDbEntity
  8
0
  6
Continuous
 62
     7
370
    25
100
AcDbSpline
210
0.0
220
0.0
230
1.0
 70
     8
 71
     3
 72
    13
 73
     9
 74
     0
 42
0.000000001
 43
0.00000001
 40
0.0
 40
0.0
 40
0.0
 40
0.0
 40
0.2413737733050073
 40
0.5925131755907109
 40
0.8684415208272374
 40
0.9534164206996449
 40
0.9788499292922774
 40
0.9999999999999999
 40
0.9999999999999999
 40
0.9999999999999999
 40
0.9999999999999999
 10
6329.542070625565
 20
5153.055412467851
 30
0.0
 10
6329.429327875078
 20
5152.991282796119
 30
0.0
 10
6329.152572185344
 20
5152.833860243838
 30
0.0
 10
6328.766525213897
 20
5152.572250173953
 30
0.0
 10
6328.46158490954
 20
5152.338071320012
 30
0.0
 10
6328.324906377307
 20
5152.180427162156
 30
0.0
 10
6328.290559801137
 20
5152.117853965055
 30
0.0
 10
6328.285309839448
 20
5152.093270901688
 30
0.0
 10
6328.282926229975
 20
5152.082109596862
 30
0.0
  0
SPLINE
  5
130
330
1F
100
AcDbEntity
  8
0
  6
Continuous
 62
     7
370
    25
100
AcDbSpline
210
0.0
220
0.0
230
1.0
 70
     8
 71
     3
 72
    10
 73
     6
 74
     0
 42
0.000000001
 43
0.00000001
 40
0.0
 40
0.0
 40
0.0
 40
0.0
 40
0.2880403563259554
 40
0.5382526599089786
 40
1.0
 40
1.0
 40
1.0
 40
1.0
 10
6328.282926229975
 20
5152.082109596862
 30
0.0
 10
6328.460887650471
 20
5152.171107010734
 30
0.0
 10
6328.793438995585
 20
5152.337413896868
 30
0.0
 10
6329.447103831593
 20
5152.57831594762
 30
0.0
 10
6329.943216434664
 20
5152.595989823843
 30
0.0
 10
6330.264974383852
 20
5152.607452363058
 30
0.0
  0
SPLINE
  5
131
330
1F
100
AcDbEntity
  8
0
  6
Continuous
 62
     7
370
    25
100
AcDbSpline
210
0.0
220
0.0
230
1.0
 70
     8
 71
     3
 72
    11
 73
     7
 74
     0
 42
0.000000001
 43
0.00000001
 40
0.0
 40
0.0
 40
0.0
 40
0.0
 40
0.3432445531654797
 40
0.6418067654686507
 40
0.8399947889898725
 40
1.0
 40
1.0
 40
1.0
 40
1.0
 10
6330.264974383852
 20
5152.607452363058
 30
0.0
 10
6330.498107473642
 20
5152.594799647754
 30
0.0
 10
6330.934025226457
 20
5152.571141302101
 30
0.0
 10
6331.48176946642
 20
5152.401908322265
 30
0.0
 10
6331.887440425613
 20
5152.212054918533
 30
0.0
 10
6332.078459845428
 20
5152.061196308499
 30
0.0
 10
6332.163788376591
 20
5151.993807643934
 30
0.0
  0
SPLINE
  5
132
330
1F
100
AcDbEntity
  8
0
  6
Continuous
 62
     7
370
    25
100
AcDbSpline
210
0.0
220
0.0
230
1.0
 70
     8
 71
     3
 72
     9
 73
     5
 74
     0
 42
0.000000001
 43
0.00000001
 40
0.0
 40
0.0
 40
0.0
 40
0.0
 40
0.5674920880758237
 40
1.0
 40
1.0
 40
1.0
 40
1.0
 10
6331.054493783256
 20
5153.552065842136
 30
0.0
 10
6331.24674686487
 20
5153.724233437264
 30
0.0
 10
6331.585523537981
 20
5154.0276166892
 30
0.0
 10
6332.016775286806
 20
5154.16627939793
 30
0.0
 10
6332.203295080206
 20
5154.226252116545
 30
0.0
  0
SPLINE
  5
133
330
1F
100
AcDbEntity
  8
0
  6
Continuous
 62
     7
370
    25
100
AcDbSpline
210
0.0
220
0.0
230
1.0
 70
     8
 71
     3
 72
     9
 73
     5
 74
     0
 42
0.000000001
 43
0.00000001
 40
0.0
 40
0.0
 40
0.0
 40
0.0
 40
0.5404789564967906
 40
1.0
 40
1.0
 40
1.0
 40
1.0
 10
6332.203295080206
 20
5154.226252116545
 30
0.0
 10
6332.169019855347
 20
5153.995351990777
 30
0.0
 10
6332.105603464301
 20
5153.568138085422
 30
0.0
 10
6331.883811871224
 20
5153.198577170419
 30
0.0
 10
6331.781893966934
 20
5153.02875615312
 30
0.0
  0
SPLINE
  5
134
330
1F
100
AcDbEntity
  8
0
  6
Continuous
 62
     7
370
    25
100
AcDbSpline
210
0.0
220
0.0
230
1.0
 70
     8
 71
     3
 72
     9
 73
     5
 74
     0
 42
0.000000001
 43
0.00000001
 40
0.0
 40
0.0
 40
0.0
 40
0.0
 40
0.5734531943485675
 40
1.0
 40
1.0
 40
1.0
 40
1.0
 10
6331.781893966934
 20
5153.02875615312
 30
0.0
 10
6331.800729076347
 20
5153.004553065841
 30
0.0
 10
6331.833574144784
 20
5152.96234720228
 30
0.0
 10
6331.859474594383
 20
5152.915593319
 30
0.0
 10
6331.870522348425
 20
5152.895650599434
 30
0.0
  0
SPLINE
  5
135
330
1F
100
AcDbEntity
  8
0
  6
Continuous
 62
     7
370
    25
100
AcDbSpline
210
0.0
220
0.0
230
1.0
 70
     8
 71
     3
 72
     9
 73
     5
 74
     0
 42
0.000000001
 43
0.00000001
 40
0.0
 40
0.0
 40
0.0
 40
0.0
 40
0.5892275140417204
 40
1.0
 40
1.0
 40
1.0
 40
1.0
 10
6331.870522348425
 20
5152.895650599434
 30
0.0
 10
6332.025685986947
 20
5153.171503379831
 30
0.0
 10
6332.289019987525
 20
5153.639663426373
 30
0.0
 10
6332.338226031122
 20
5154.171760023232
 30
0.0
 10
6332.358438519976
 20
5154.390330665095
 30
0.0
  0
SPLINE
  5
136
330
1F
100
AcDbEntity
  8
0
  6
Continuous
 62
     7
370
    25
100
AcDbSpline
210
0.0
220
0.0
230
1.0
 70
     8
 71
     3
 72
     9
 73
     5
 74
     0
 42
0.000000001
 43
0.00000001
 40
0.0
 40
0.0
 40
0.0
 40
0.0
 40
0.567401233062891
 40
1.0
 40
1.0
 40
1.0
 40
1.0
 10
6332.358438519976
 20
5154.390330665095
 30
0.0
 10
6332.05087655479
 20
5154.305199615345
 30
0.0
 10
6331.508822806467
 20
5154.155162842796
 30
0.0
 10
6331.095691193116
 20
5153.777562783323
 30
0.0
 10
6330.916970966598
 20
5153.614213463201
 30
0.0
  0
SPLINE
  5
137
330
1F
100
AcDbEntity
  8
0
  6
Continuous
 62
     7
370
    25
100
AcDbSpline
210
0.0
220
0.0
230
1.0
 70
     8
 71
     3
 72
     9
 73
     5
 74
     0
 42
0.000000001
 43
0.00000001
 40
0.0
 40
0.0
 40
0.0
 40
0.0
 40
0.5626917942840196
 40
1.0
 40
1.0
 40
1.0
 40
1.0
 10
6328.601874409458
 20
5152.944520354553
 30
0.0
 10
6328.490595548584
 20
5153.178435375132
 30
0.0
 10
6328.292833892907
 20
5153.594142557919
 30
0.0
 10
6328.270223694778
 20
5154.052457802601
 30
0.0
 10
6328.260336069605
 20
5154.252882819905
 30
0.0
  0
SPLINE
  5
138
330
1F
100
AcDbEntity
  8
0
  6
Continuous
 62
     7
370
    25
100
AcDbSpline
210
0.0
220
0.0
230
1.0
 70
     8
 71
     3
 72
    11
 73
     7
 74
     0
 42
0.000000001
 43
0.00000001
 40
0.0
 40
0.0
 40
0.0
 40
0.0
 40
0.2850557533013136
 40
0.5575521835402897
 40
0.7737099085518959
 40
1.0
 40
1.0
 40
1.0
 40
1.0
 10
6330.858815459749
 20
5152.341266867055
 30
0.0
 10
6330.857692452825
 20
5152.350311131015
 30
0.0
 10
6330.855495917742
 20
5152.368001176068
 30
0.0
 10
6330.839500970682
 20
5152.387720821939
 30
0.0
 10
6330.819749102659
 20
5152.399484574905
 30
0.0
 10
6330.805756426507
 20
5152.400856009964
 30
0.0
 10
6330.798599867365
 20
5152.401557430907
 30
0.0
  0
SPLINE
  5
139
330
1F
100
AcDbEntity
  8
0
  6
Continuous
 62
     7
370
    25
100
AcDbSpline
210
0.0
220
0.0
230
1.0
 70
     8
 71
     3
 72
    11
 73
     7
 74
     0
 42
0.000000001
 43
0.00000001
 40
0.0
 40
0.0
 40
0.0
 40
0.0
 40
0.2850024554100505
 40
0.5576378159741932
 40
0.7739113820148692
 40
1.0
 40
1.0
 40
1.0
 40
1.0
 10
6330.798599867365
 20
5152.280976768865
 30
0.0
 10
6330.807641460327
 20
5152.282106396565
 30
0.0
 10
6330.825332304942
 20
5152.284316634095
 30
0.0
 10
6330.845010330426
 20
5152.300371673708
 30
0.0
 10
6330.856744718828
 20
5152.320131583474
 30
0.0
 10
6330.858115077684
 20
5152.334118327415
 30
0.0
 10
6330.858815459749
 20
5152.341266867055
 30
0.0
  0
SPLINE
  5
13A
330
1F
100
AcDbEntity
  8
0
  6
Continuous
 62
     7
370
    25
100
AcDbSpline
210
0.0
220
0.0
230
1.0
 70
     8
 71
     3
 72
    11
 73
     7
 74
     0
 42
0.000000001
 43
0.00000001
 40
0.0
 40
0.0
 40
0.0
 40
0.0
 40
0.2891088397655268
 40
0.5646022947899499
 40
0.7797528650174634
 40
1.0
 40
1.0
 40
1.0
 40
1.0
 10
6330.739967523357
 20
5152.341266867055
 30
0.0
 10
6330.741098855836
 20
5152.332237643663
 30
0.0
 10
6330.743308241458
 20
5152.31460442203
 30
0.0
 10
6330.759033818263
 20
5152.294978971755
 30
0.0
 10
6330.778185769892
 20
5152.283125831637
 30
0.0
 10
6330.791742272816
 20
5152.281698691603
 30
0.0
 10
6330.798599867365
 20
5152.280976768865
 30
0.0
  0
SPLINE
  5
13B
330
1F
100
AcDbEntity
  8
0
  6
Continuous
 62
     7
370
    25
100
AcDbSpline
210
0.0
220
0.0
230
1.0
 70
     8
 71
     3
 72
    11
 73
     7
 74
     0
 42
0.000000001
 43
0.00000001
 40
0.0
 40
0.0
 40
0.0
 40
0.0
 40
0.2780994050919426
 40
0.5510264713327016
 40
0.7701485592252053
 40
1.0
 40
1.0
 40
1.0
 40
1.0
 10
6330.798599867365
 20
5152.401557430907
 30
0.0
 10
6330.789916231764
 20
5152.40039495884
 30
0.0
 10
6330.772710466505
 20
5152.39809163539
 30
0.0
 10
6330.753650023204
 20
5152.382068927187
 30
0.0
 10
6330.742047190547
 20
5152.362409314783
 30
0.0
 10
6330.740671702669
 20
5152.348425740536
 30
0.0
 10
6330.739967523357
 20
5152.341266867055
 30
0.0
  0
LINE
  5
13C
330
1F
100
AcDbEntity
  8
0
  6
Continuous
 62
     7
370
    25
100
AcDbLine
 10
6333.3287537081
 20
5153.892421868
 30
0.0
 11
6333.3287537081
 21
5154.1648574698
 31
0.0
  0
LINE
  5
13D
330
1F
100
AcDbEntity
  8
0
  6
Continuous
 62
     7
370
    25
100
AcDbLine
 10
6333.4148228152
 20
5153.892421868
 30
0.0
 11
6333.3287537081
 21
5153.892421868
 31
0.0
  0
SPLINE
  5
13E
330
1F
100
AcDbEntity
  8
0
  6
Continuous
 62
     7
370
    25
100
AcDbSpline
210
0.0
220
0.0
230
1.0
 70
     8
 71
     3
 72
     9
 73
     5
 74
     0
 42
0.000000001
 43
0.00000001
 40
0.0
 40
0.0
 40
0.0
 40
0.0
 40
0.5916213443575157
 40
1.0
 40
1.0
 40
1.0
 40
1.0
 10
6333.564646540424
 20
5154.032580327525
 30
0.0
 10
6333.563197920112
 20
5154.009224497525
 30
0.0
 10
6333.56074936019
 20
5153.969746831239
 30
0.0
 10
6333.53523253715
 20
5153.94016839593
 30
0.0
 10
6333.524812011263
 20
5153.928089194282
 30
0.0
  0
SPLINE
  5
13F
330
1F
100
AcDbEntity
  8
0
  6
Continuous
 62
     7
370
    25
100
AcDbSpline
210
0.0
220
0.0
230
1.0
 70
     8
 71
     3
 72
    12
 73
     8
 74
     0
 42
0.000000001
 43
0.00000001
 40
0.0
 40
0.0
 40
0.0
 40
0.0
 40
0.2243907876155794
 40
0.411716591184501
 40
0.5770263377658023
 40
0.7720330527102774
 40
1.0
 40
1.0
 40
1.0
 40
1.0
 10
6333.413217215082
 20
5154.164857469781
 30
0.0
 10
6333.43042252766
 20
5154.164160611875
 30
0.0
 10
6333.461991170564
 20
5154.162882003405
 30
0.0
 10
6333.504713799983
 20
5154.149213416044
 30
0.0
 10
6333.539079788592
 20
5154.123766408009
 30
0.0
 10
6333.561613806602
 20
5154.082748963125
 30
0.0
 10
6333.563584441883
 20
5154.050149965276
 30
0.0
 10
6333.564646540424
 20
5154.032580327525
 30
0.0
  0
SPLINE
  5
140
330
1F
100
AcDbEntity
  8
0
  6
Continuous
 62
     7
370
    25
100
AcDbSpline
210
0.0
220
0.0
230
1.0
 70
     8
 71
     3
 72
     9
 73
     5
 74
     0
 42
0.000000001
 43
0.00000001
 40
0.0
 40
0.0
 40
0.0
 40
0.0
 40
0.5472865747338829
 40
1.0
 40
1.0
 40
1.0
 40
1.0
 10
6333.615045992872
 20
5153.928892460002
 30
0.0
 10
6333.624574477647
 20
5153.947393780045
 30
0.0
 10
6333.641984889698
 20
5153.981199323423
 30
0.0
 10
6333.643794422278
 20
5154.019073698208
 30
0.0
 10
6333.644613621971
 20
5154.036219936146
 30
0.0
  0
SPLINE
  5
141
330
1F
100
AcDbEntity
  8
0
  6
Continuous
 62
     7
370
    25
100
AcDbSpline
210
0.0
220
0.0
230
1.0
 70
     8
 71
     3
 72
     9
 73
     5
 74
     0
 42
0.000000001
 43
0.00000001
 40
0.0
 40
0.0
 40
0.0
 40
0.0
 40
0.57244359551622
 40
0.9999999999999999
 40
0.9999999999999999
 40
0.9999999999999999
 40
0.9999999999999999
 10
6333.530284462711
 20
5153.856202733054
 30
0.0
 10
6333.549389875735
 20
5153.866795907991
 30
0.0
 10
6333.582765064441
 20
5153.885301093516
 30
0.0
 10
6333.605377781058
 20
5153.915836746153
 30
0.0
 10
6333.615045992872
 20
5153.928892460002
 30
0.0
  0
LINE
  5
142
330
1F
100
AcDbEntity
  8
0
  6
Continuous
 62
     7
370
    25
100
AcDbLine
 10
6333.7124101801
 20
5153.5537976365
 30
0.0
 11
6333.5302844627
 21
5153.8562027331
 31
0.0
  0
LINE
  5
143
330
1F
100
AcDbEntity
  8
0
  6
Continuous
 62
     7
370
    25
100
AcDbLine
 10
6333.6194641872
 20
5153.5537976365
 30
0.0
 11
6333.7124101801
 21
5153.5537976365
 31
0.0
  0
LINE
  5
144
330
1F
100
AcDbEntity
  8
0
  6
Continuous
 62
     7
370
    25
100
AcDbLine
 10
6333.4578685446
 20
5153.8310523669
 30
0.0
 11
6333.6194641872
 21
5153.5537976365
 31
0.0
  0
LINE
  5
145
330
1F
100
AcDbEntity
  8
0
  6
Continuous
 62
     7
370
    25
100
AcDbLine
 10
6333.3287537081
 20
5153.5537976365
 30
0.0
 11
6333.3287537081
 21
5153.8310523669
 31
0.0
  0
LINE
  5
146
330
1F
100
AcDbEntity
  8
0
  6
Continuous
 62
     7
370
    25
100
AcDbLine
 10
6333.2511223836
 20
5153.5537976365
 30
0.0
 11
6333.3287537081
 21
5153.5537976365
 31
0.0
  0
LINE
  5
147
330
1F
100
AcDbEntity
  8
0
  6
Continuous
 62
     7
370
    25
100
AcDbLine
 10
6333.2511223836
 20
5154.2310209538
 30
0.0
 11
6333.2511223836
 21
5153.5537976365
 31
0.0
  0
LINE
  5
148
330
1F
100
AcDbEntity
  8
0
  6
Continuous
 62
     7
370
    25
100
AcDbLine
 10
6333.4132172151
 20
5154.2310209538
 30
0.0
 11
6333.2511223836
 21
5154.2310209538
 31
0.0
  0
SPLINE
  5
149
330
1F
100
AcDbEntity
  8
0
  6
Continuous
 62
     7
370
    25
100
AcDbSpline
210
0.0
220
0.0
230
1.0
 70
     8
 71
     3
 72
     9
 73
     5
 74
     0
 42
0.000000001
 43
0.00000001
 40
0.0
 40
0.0
 40
0.0
 40
0.0
 40
0.5119106634460598
 40
1.0
 40
1.0
 40
1.0
 40
1.0
 10
6333.584148435137
 20
5154.183280892952
 30
0.0
 10
6333.5569452135
 20
5154.198566692529
 30
0.0
 10
6333.503804648985
 20
5154.228426980015
 30
0.0
 10
6333.442929651982
 20
5154.230170137304
 30
0.0
 10
6333.413217215082
 20
5154.231020953788
 30
0.0
  0
SPLINE
  5
14A
330
1F
100
AcDbEntity
  8
0
  6
Continuous
 62
     7
370
    25
100
AcDbSpline
210
0.0
220
0.0
230
1.0
 70
     8
 71
     3
 72
    10
 73
     6
 74
     0
 42
0.000000001
 43
0.00000001
 40
0.0
 40
0.0
 40
0.0
 40
0.0
 40
0.3157286251616834
 40
0.5946905651176295
 40
1.0
 40
1.0
 40
1.0
 40
1.0
 10
6333.644613621971
 20
5154.036219936146
 30
0.0
 10
6333.643779182382
 20
5154.053467430622
 30
0.0
 10
6333.642207473927
 20
5154.085953944098
 30
0.0
 10
6333.626163013748
 20
5154.139636632972
 30
0.0
 10
6333.599777294384
 20
5154.167045814112
 30
0.0
 10
6333.584148435137
 20
5154.183280892952
 30
0.0
  0
LINE
  5
14B
330
1F
100
AcDbEntity
  8
0
  6
Continuous
 62
     7
370
    25
100
AcDbLine
 10
6333.3287537081
 20
5154.1648574698
 30
0.0
 11
6333.4132172151
 21
5154.1648574698
 31
0.0
  0
LINE
  5
14C
330
1F
100
AcDbEntity
  8
0
  6
Continuous
 62
     7
370
    25
100
AcDbLine
 10
6333.3287537081
 20
5153.8310523669
 30
0.0
 11
6333.4578685446
 21
5153.8310523669
 31
0.0
  0
SPLINE
  5
14D
330
1F
100
AcDbEntity
  8
0
  6
Continuous
 62
     7
370
    25
100
AcDbSpline
210
0.0
220
0.0
230
1.0
 70
     8
 71
     3
 72
     9
 73
     5
 74
     0
 42
0.000000001
 43
0.00000001
 40
0.0
 40
0.0
 40
0.0
 40
0.0
 40
0.5211275487617272
 40
1.0
 40
1.0
 40
1.0
 40
1.0
 10
6333.524812011263
 20
5153.928089194282
 30
0.0
 10
6333.507361178543
 20
5153.916649461744
 30
0.0
 10
6333.473874496136
 20
5153.894697575751
 30
0.0
 10
6333.433944290602
 20
5153.89315876301
 30
0.0
 10
6333.414822815201
 20
5153.89242186798
 30
0.0
  0
CIRCLE
  5
14E
330
1F
100
AcDbEntity
  8
0
  6
Continuous
 62
     7
370
    25
100
AcDbCircle
 10
6333.4386933361
 20
5153.8923968401
 30
0.0
 40
0.5814415000004374
  0
CIRCLE
  5
14F
330
1F
100
AcDbEntity
  8
0
  6
Continuous
 62
     7
370
    25
100
AcDbCircle
 10
6333.4386933361
 20
5153.8923968401
 30
0.0
 40
0.505037099999754
  0
LINE
  5
150
330
1F
100
AcDbEntity
  8
0
  6
Continuous
 62
     7
370
    25
100
AcDbLine
 10
6321.8955546601
 20
5152.4571033719
 30
0.0
 11
6322.640396653
 21
5152.4571033719
 31
0.0
  0
LINE
  5
151
330
1F
100
AcDbEntity
  8
0
  6
Continuous
 62
     7
370
    25
100
AcDbLine
 10
6322.640396653
 20
5152.4571033719
 30
0.0
 11
6322.640396653
 21
5147.9862660694
 31
0.0
  0
LINE
  5
152
330
1F
100
AcDbEntity
  8
0
  6
Continuous
 62
     7
370
    25
100
AcDbLine
 10
6322.640396653
 20
5147.9862660694
 30
0.0
 11
6324.2155723257
 21
5147.9862660694
 31
0.0
  0
LINE
  5
153
330
1F
100
AcDbEntity
  8
0
  6
Continuous
 62
     7
370
    25
100
AcDbLine
 10
6324.2155723257
 20
5147.9862660694
 30
0.0
 11
6324.2155723257
 21
5147.325961158
 31
0.0
  0
LINE
  5
154
330
1F
100
AcDbEntity
  8
0
  6
Continuous
 62
     7
370
    25
100
AcDbLine
 10
6324.2155723257
 20
5147.325961158
 30
0.0
 11
6321.8955546601
 21
5147.325961158
 31
0.0
  0
LINE
  5
155
330
1F
100
AcDbEntity
  8
0
  6
Continuous
 62
     7
370
    25
100
AcDbLine
 10
6321.8955546601
 20
5147.325961158
 30
0.0
 11
6321.8955546601
 21
5152.4571033719
 31
0.0
  0
SPLINE
  5
156
330
1F
100
AcDbEntity
  8
0
  6
Continuous
 62
     7
370
    25
100
AcDbSpline
210
0.0
220
0.0
230
1.0
 70
     8
 71
     3
 72
    11
 73
     7
 74
     0
 42
0.000000001
 43
0.00000001
 40
0.0
 40
0.0
 40
0.0
 40
0.0
 40
0.2748902305692636
 40
0.5431606468712941
 40
0.764961068238053
 40
0.9999999999999999
 40
0.9999999999999999
 40
0.9999999999999999
 40
0.9999999999999999
 10
6326.190188525459
 20
5152.547940384879
 30
0.0
 10
6326.366469050139
 20
5152.522312389212
 30
0.0
 10
6326.714784971073
 20
5152.471673562669
 30
0.0
 10
6327.0759644263
 20
5152.110470756023
 30
0.0
 10
6327.278470689767
 20
5151.691429902471
 30
0.0
 10
6327.301891312198
 20
5151.400850046325
 30
0.0
 10
6327.313940970442
 20
5151.25134983687
 30
0.0
  0
LINE
  5
157
330
1F
100
AcDbEntity
  8
0
  6
Continuous
 62
     7
370
    25
100
AcDbLine
 10
6327.3139409704
 20
5151.2513498369
 30
0.0
 11
6327.3139409704
 21
5147.325961158
 31
0.0
  0
LINE
  5
158
330
1F
100
AcDbEntity
  8
0
  6
Continuous
 62
     7
370
    25
100
AcDbLine
 10
6327.3139409704
 20
5147.325961158
 30
0.0
 11
6326.6142308696
 21
5147.325961158
 31
0.0
  0
LINE
  5
159
330
1F
100
AcDbEntity
  8
0
  6
Continuous
 62
     7
370
    25
100
AcDbLine
 10
6326.6142308696
 20
5147.325961158
 30
0.0
 11
6326.6142308696
 21
5149.6330520663
 31
0.0
  0
LINE
  5
15A
330
1F
100
AcDbEntity
  8
0
  6
Continuous
 62
     7
370
    25
100
AcDbLine
 10
6326.6142308696
 20
5149.6330520663
 30
0.0
 11
6325.4964239879
 21
5149.6330520663
 31
0.0
  0
LINE
  5
15B
330
1F
100
AcDbEntity
  8
0
  6
Continuous
 62
     7
370
    25
100
AcDbLine
 10
6325.4964239879
 20
5149.6330520663
 30
0.0
 11
6325.4961743934
 21
5147.325961158
 31
0.0
  0
LINE
  5
15C
330
1F
100
AcDbEntity
  8
0
  6
Continuous
 62
     7
370
    25
100
AcDbLine
 10
6324.8101919873
 20
5147.325961158
 30
0.0
 11
6324.8101919873
 21
5149.6330520663
 31
0.0
  0
LINE
  5
15D
330
1F
100
AcDbEntity
  8
0
  6
Continuous
 62
     7
370
    25
100
AcDbLine
 10
6324.8101919873
 20
5149.6330520663
 30
0.0
 11
6324.5097435994
 21
5149.6330520663
 31
0.0
  0
LINE
  5
15E
330
1F
100
AcDbEntity
  8
0
  6
Continuous
 62
     7
370
    25
100
AcDbLine
 10
6324.5097435994
 20
5149.6330520663
 30
0.0
 11
6324.2675811036
 21
5150.3653444874
 31
0.0
  0
LINE
  5
15F
330
1F
100
AcDbEntity
  8
0
  6
Continuous
 62
     7
370
    25
100
AcDbLine
 10
6324.8101919873
 20
5150.3653444874
 30
0.0
 11
6324.8101919873
 21
5151.2608125399
 31
0.0
  0
SPLINE
  5
160
330
1F
100
AcDbEntity
  8
0
  6
Continuous
 62
     7
370
    25
100
AcDbSpline
210
0.0
220
0.0
230
1.0
 70
     8
 71
     3
 72
    11
 73
     7
 74
     0
 42
0.000000001
 43
0.00000001
 40
0.0
 40
0.0
 40
0.0
 40
0.0
 40
0.2975741471507561
 40
0.5729274387690848
 40
0.7821128653601944
 40
1.0
 40
1.0
 40
1.0
 40
1.0
 10
6324.810191987297
 20
5151.260812539889
 30
0.0
 10
6324.828740721618
 20
5151.448908636221
 30
0.0
 10
6324.864453094313
 20
5151.811055065088
 30
0.0
 10
6325.140938082276
 20
5152.237374736397
 30
0.0
 10
6325.511363329395
 20
5152.502391302624
 30
0.0
 10
6325.781743254932
 20
5152.53255251013
 30
0.0
 10
6325.919687746307
 20
5152.547940384879
 30
0.0
  0
LINE
  5
161
330
1F
100
AcDbEntity
  8
0
  6
Continuous
 62
     7
370
    25
100
AcDbLine
 10
6325.4961743934
 20
5150.6332869235
 30
0.0
 11
6325.4961743934
 21
5150.3655205074
 31
0.0
  0
LINE
  5
162
330
1F
100
AcDbEntity
  8
0
  6
Continuous
 62
     7
370
    25
100
AcDbLine
 10
6325.4961743934
 20
5150.3655205074
 30
0.0
 11
6326.6142308696
 21
5150.3655205074
 31
0.0
  0
LINE
  5
163
330
1F
100
AcDbEntity
  8
0
  6
Continuous
 62
     7
370
    25
100
AcDbLine
 10
6326.6142308696
 20
5150.3655205074
 30
0.0
 11
6326.6142308696
 21
5150.6398387778
 31
0.0
  0
SPLINE
  5
164
330
1F
100
AcDbEntity
  8
0
  6
Continuous
 62
     7
370
    25
100
AcDbSpline
210
0.0
220
0.0
230
1.0
 70
     8
 71
     3
 72
    12
 73
     8
 74
     0
 42
0.000000001
 43
0.00000001
 40
0.0
 40
0.0
 40
0.0
 40
0.0
 40
0.5919161125335635
 40
0.7068151702847083
 40
0.8064191405996118
 40
0.8986245927917529
 40
1.0
 40
1.0
 40
1.0
 40
1.0
 10
6326.614230869553
 20
5150.639838777764
 30
0.0
 10
6326.620684472613
 20
5150.920150979344
 30
0.0
 10
6326.628390808783
 20
5151.254875634235
 30
0.0
 10
6326.519451604366
 20
5151.61911032477
 30
0.0
 10
6326.44472750239
 20
5151.743954002089
 30
0.0
 10
6326.330296362506
 20
5151.830690485448
 30
0.0
 10
6326.238343084767
 20
5151.839020769964
 30
0.0
 10
6326.190188525459
 20
5151.84338321565
 30
0.0
  0
LINE
  5
165
330
1F
100
AcDbEntity
  8
0
  6
Continuous
 62
     7
370
    25
100
AcDbLine
 10
6326.1901885255
 20
5151.8433832156
 30
0.0
 11
6325.9196877463
 21
5151.8433832156
 31
0.0
  0
SPLINE
  5
166
330
1F
100
AcDbEntity
  8
0
  6
Continuous
 62
     7
370
    25
100
AcDbSpline
210
0.0
220
0.0
230
1.0
 70
     8
 71
     3
 72
    12
 73
     8
 74
     0
 42
0.000000001
 43
0.00000001
 40
0.0
 40
0.0
 40
0.0
 40
0.0
 40
0.1009565860503207
 40
0.1931118326535459
 40
0.2929537194799014
 40
0.4081873204290404
 40
1.0
 40
1.0
 40
1.0
 40
1.0
 10
6325.919687746307
 20
5151.84338321565
 30
0.0
 10
6325.871559488947
 20
5151.838845808589
 30
0.0
 10
6325.779498769139
 20
5151.830166563112
 30
0.0
 10
6325.665336428799
 20
5151.742336082674
 30
0.0
 10
6325.590835420869
 20
5151.616520251392
 30
0.0
 10
6325.482252895848
 20
5151.250519058432
 30
0.0
 10
6325.489831196026
 20
5150.91452285048
 30
0.0
 10
6325.496174393436
 20
5150.633286923452
 30
0.0
  0
LINE
  5
167
330
1F
100
AcDbEntity
  8
0
  6
Continuous
 62
     7
370
    25
100
AcDbLine
 10
6325.9196877463
 20
5152.5479403849
 30
0.0
 11
6326.1901885255
 21
5152.5479403849
 31
0.0
  0
LINE
  5
168
330
1F
100
AcDbEntity
  8
0
  6
Continuous
 62
     7
370
    25
100
AcDbLine
 10
6324.2675811036
 20
5150.3653444874
 30
0.0
 11
6324.8101919873
 21
5150.3653444874
 31
0.0
  0
LINE
  5
169
330
1F
100
AcDbEntity
  8
0
  6
Continuous
 62
     7
370
    25
100
AcDbLine
 10
6325.4961743934
 20
5147.325961158
 30
0.0
 11
6324.8101919873
 21
5147.325961158
 31
0.0
  0
SPLINE
  5
16A
330
1F
100
AcDbEntity
  8
0
  6
Continuous
 62
     7
370
    25
100
AcDbSpline
210
0.0
220
0.0
230
1.0
 70
     8
 71
     3
 72
    11
 73
     7
 74
     0
 42
0.000000001
 43
0.00000001
 40
0.0
 40
0.0
 40
0.0
 40
0.0
 40
0.2794412914083756
 40
0.5565539191454072
 40
0.7766386332041988
 40
1.0
 40
1.0
 40
1.0
 40
1.0
 10
6329.855266956827
 20
5152.339961618467
 30
0.0
 10
6329.853999990764
 20
5152.348643515127
 30
0.0
 10
6329.851476616626
 20
5152.365934959735
 30
0.0
 10
6329.834991021286
 20
5152.384708706789
 30
0.0
 10
6329.815537307233
 20
5152.396304512554
 30
0.0
 10
6329.801797128643
 20
5152.397761410667
 30
0.0
 10
6329.794876275799
 20
5152.398495242282
 30
0.0
  0
SPLINE
  5
16B
330
1F
100
AcDbEntity
  8
0
  6
Continuous
 62
     7
370
    25
100
AcDbSpline
210
0.0
220
0.0
230
1.0
 70
     8
 71
     3
 72
    11
 73
     7
 74
     0
 42
0.000000001
 43
0.00000001
 40
0.0
 40
0.0
 40
0.0
 40
0.0
 40
0.2798944144473434
 40
0.5593382520849988
 40
0.7791731970581744
 40
1.0
 40
1.0
 40
1.0
 40
1.0
 10
6329.794876275799
 20
5152.279671520277
 30
0.0
 10
6329.803672360707
 20
5152.280948656207
 30
0.0
 10
6329.8212503705
 20
5152.283500872121
 30
0.0
 10
6329.840606846867
 20
5152.299801927486
 30
0.0
 10
6329.852900810316
 20
5152.319200651348
 30
0.0
 10
6329.854477058697
 20
5152.333030919533
 30
0.0
 10
6329.855266956827
 20
5152.339961618467
 30
0.0
  0
SPLINE
  5
16C
330
1F
100
AcDbEntity
  8
0
  6
Continuous
 62
     7
370
    25
100
AcDbSpline
210
0.0
220
0.0
230
1.0
 70
     8
 71
     3
 72
    11
 73
     7
 74
     0
 42
0.000000001
 43
0.00000001
 40
0.0
 40
0.0
 40
0.0
 40
0.0
 40
0.2798342095176566
 40
0.5590885760302741
 40
0.7789442842560025
 40
1.0
 40
1.0
 40
1.0
 40
1.0
 10
6329.734560100576
 20
5152.339961618467
 30
0.0
 10
6329.735837042388
 20
5152.331171305692
 30
0.0
 10
6329.738388280068
 20
5152.313608894503
 30
0.0
 10
6329.754698161505
 20
5152.294278697709
 30
0.0
 10
6329.774110745425
 20
5152.282027944691
 30
0.0
 10
6329.78794188449
 20
5152.280458418983
 30
0.0
 10
6329.794876275799
 20
5152.279671520277
 30
0.0
  0
SPLINE
  5
16D
330
1F
100
AcDbEntity
  8
0
  6
Continuous
 62
     7
370
    25
100
AcDbSpline
210
0.0
220
0.0
230
1.0
 70
     8
 71
     3
 72
    11
 73
     7
 74
     0
 42
0.000000001
 43
0.00000001
 40
0.0
 40
0.0
 40
0.0
 40
0.0
 40
0.2827268767067361
 40
0.5610333969488297
 40
0.7789304480842416
 40
0.9999999999999999
 40
0.9999999999999999
 40
0.9999999999999999
 40
0.9999999999999999
 10
6329.794876275799
 20
5152.398495242282
 30
0.0
 10
6329.786103413624
 20
5152.397312573263
 30
0.0
 10
6329.768694850546
 20
5152.394965725928
 30
0.0
 10
6329.749206099093
 20
5152.379399212632
 30
0.0
 10
6329.736878509199
 20
5152.360421502445
 30
0.0
 10
6329.73533661797
 20
5152.34681436032
 30
0.0
 10
6329.734560100576
 20
5152.339961618467
 30
0.0
  0
LINE
  5
16E
330
1F
100
AcDbEntity
  8
0
  6
Continuous
 62
     7
370
    25
100
AcDbLine
 10
6349.0187525733
 20
5137.7059605497
 30
0.0
 11
6349.0187525733
 21
5287.7059646475
 31
0.0
  0
LINE
  5
16F
330
1F
100
AcDbEntity
  8
0
  6
Continuous
 62
     7
370
    25
100
AcDbLine
 10
6349.0187525733
 20
5287.7059646475
 30
0.0
 11
6359.0187579377
 21
5287.7059646475
 31
0.0
  0
LINE
  5
170
330
1F
100
AcDbEntity
  8
0
  6
Continuous
 62
     7
370
    25
100
AcDbLine
 10
6359.0187579377
 20
5137.7059605497
 30
0.0
 11
6359.0187579377
 21
5287.7059646475
 31
0.0
  0
LINE
  5
171
330
1F
100
AcDbEntity
  8
0
  6
Continuous
 62
     7
370
    25
100
AcDbLine
 10
6349.0187525733
 20
5137.7059605497
 30
0.0
 11
6359.0187579377
 21
5137.7059605497
 31
0.0
  0
LINE
  5
172
330
1F
100
AcDbEntity
  8
0
  6
Continuous
 62
     7
370
    25
100
AcDbLine
 10
6349.0187525733
 20
5297.7059551108
 30
0.0
 11
6199.0187540634
 21
5297.7059551108
 31
0.0
  0
LINE
  5
173
330
1F
100
AcDbEntity
  8
0
  6
Continuous
 62
     7
370
    25
100
AcDbLine
 10
6349.0187525733
 20
5297.7059551108
 30
0.0
 11
6349.0187525733
 21
5287.7059646475
 31
0.0
  0
LINE
  5
174
330
1F
100
AcDbEntity
  8
0
  6
Continuous
 62
     7
370
    25
100
AcDbLine
 10
6349.0187525733
 20
5287.7059646475
 30
0.0
 11
6199.0187540634
 21
5287.7059646475
 31
0.0
  0
LINE
  5
175
330
1F
100
AcDbEntity
  8
0
  6
Continuous
 62
     7
370
    25
100
AcDbLine
 10
6199.0187540634
 20
5297.7059551108
 30
0.0
 11
6199.0187540634
 21
5287.7059646475
 31
0.0
  0
LINE
  5
176
330
1F
100
AcDbEntity
  8
0
  6
Continuous
 62
     7
370
    25
100
AcDbLine
 10
6189.0187561496
 20
5287.7059646475
 30
0.0
 11
6189.0187561496
 21
5137.7059605497
 31
0.0
  0
LINE
  5
177
330
1F
100
AcDbEntity
  8
0
  6
Continuous
 62
     7
370
    25
100
AcDbLine
 10
6189.0187561496
 20
5287.7059646475
 30
0.0
 11
6199.0187540634
 21
5287.7059646475
 31
0.0
  0
LINE
  5
178
330
1F
100
AcDbEntity
  8
0
  6
Continuous
 62
     7
370
    25
100
AcDbLine
 10
6199.0187540634
 20
5287.7059646475
 30
0.0
 11
6199.0187540634
 21
5137.7059605497
 31
0.0
  0
LINE
  5
179
330
1F
100
AcDbEntity
  8
0
  6
Continuous
 62
     7
370
    25
100
AcDbLine
 10
6189.0187561496
 20
5137.7059605497
 30
0.0
 11
6199.0187540634
 21
5137.7059605497
 31
0.0
  0
ARC
  5
17A
330
1F
100
AcDbEntity
  8
0
  6
Continuous
 62
     7
370
    25
100
AcDbCircle
 10
6349.0187553361
 20
5287.7059607401
 30
0.0
 40
10.0
100
AcDbArc
 50
0.0
 51
90.0
  0
ARC
  5
17B
330
1F
100
AcDbEntity
  8
0
  6
Continuous
 62
     7
370
    25
100
AcDbCircle
 10
6199.0187553361
 20
5287.7059607401
 30
0.0
 40
10.0
100
AcDbArc
 50
90.0
 51
180.0
  0
LINE
  5
17C
330
1F
100
AcDbEntity
  8
0
  6
Continuous
 62
     7
370
    25
100
AcDbLine
 10
6199.0187540634
 20
5137.7059605497
 30
0.0
 11
6199.0187540634
 21
5127.7059607732
 31
0.0
  0
ARC
  5
17D
330
1F
100
AcDbEntity
  8
0
  6
Continuous
 62
     7
370
    25
100
AcDbCircle
 10
6199.0187553361
 20
5137.7059607401
 30
0.0
 40
10.0
100
AcDbArc
 50
180.0
 51
270.0
  0
LINE
  5
17E
330
1F
100
AcDbEntity
  8
0
  6
Continuous
 62
     7
370
    25
100
AcDbLine
 10
6199.0187540634
 20
5137.7059605497
 30
0.0
 11
6349.0187525733
 21
5137.7059605497
 31
0.0
  0
LINE
  5
17F
330
1F
100
AcDbEntity
  8
0
  6
Continuous
 62
     7
370
    25
100
AcDbLine
 10
6349.0187525733
 20
5137.7059605497
 30
0.0
 11
6349.0187525733
 21
5127.7059607732
 31
0.0
  0
LINE
  5
180
330
1F
100
AcDbEntity
  8
0
  6
Continuous
 62
     7
370
    25
100
AcDbLine
 10
6199.0187540634
 20
5127.7059607732
 30
0.0
 11
6349.0187525733
 21
5127.7059607732
 31
0.0
  0
SPLINE
  5
181
330
1F
100
AcDbEntity
  8
0
  6
Continuous
 62
     7
370
    25
100
AcDbSpline
210
0.0
220
0.0
230
1.0
 70
    11
 71
     3
 72
    26
 73
    22
 74
     0
 42
0.000000001
 43
0.00000001
 40
0.0
 40
0.0
 40
0.0
 40
0.0
 40
0.0432427131101928
 40
0.0862987934058108
 40
0.1336781170512005
 40
0.1911422855493368
 40
0.2557764607474963
 40
0.3192931246737057
 40
0.3764311562187995
 40
0.4285179396800304
 40
0.4784421247841663
 40
0.527773936959822
 40
0.5770142967888267
 40
0.6263576264483247
 40
0.6762974485912752
 40
0.7281314441079664
 40
0.7839067554316523
 40
0.8452662287234773
 40
0.9105219240350755
 40
0.9569963119839118
 40
1.0
 40
1.0
 40
1.0
 40
1.0
 10
6230.018753556749
 20
5129.940009914621
 30
0.0
 10
6229.826535997576
 20
5129.926523627597
 30
0.0
 10
6229.442930478059
 20
5129.899609259511
 30
0.0
 10
6228.924149290477
 20
5129.704959892842
 30
0.0
 10
6228.469215764546
 20
5129.425254917278
 30
0.0
 10
6228.117604463779
 20
5129.060918200841
 30
0.0
 10
6227.968903792083
 20
5128.673082777602
 30
0.0
 10
6228.109019212865
 20
5128.349619868281
 30
0.0
 10
6228.511325189908
 20
5128.136911038232
 30
0.0
 10
6229.076365509776
 20
5128.019850176808
 30
0.0
 10
6229.724800655795
 20
5127.970367307445
 30
0.0
 10
6230.394284879881
 20
5127.973583000457
 30
0.0
 10
6231.018641679097
 20
5128.028558826893
 30
0.0
 10
6231.532659787797
 20
5128.143388414798
 30
0.0
 10
6231.885942777672
 20
5128.328062395041
 30
0.0
 10
6232.047565574026
 20
5128.589101366167
 30
0.0
 10
6231.994088205707
 20
5128.926206780617
 30
0.0
 10
6231.700985439506
 20
5129.320746459163
 30
0.0
 10
6231.205279152059
 20
5129.668563576906
 30
0.0
 10
6230.60762847237
 20
5129.898662598275
 30
0.0
 10
6230.209902831871
 20
5129.926588542207
 30
0.0
 10
6230.018753556749
 20
5129.940009914621
 30
0.0
  0
SPLINE
  5
182
330
1F
100
AcDbEntity
  8
0
  6
Continuous
 62
     7
370
    25
100
AcDbSpline
210
0.0
220
0.0
230
1.0
 70
    11
 71
     3
 72
    26
 73
    22
 74
     0
 42
0.000000001
 43
0.00000001
 40
0.0
 40
0.0
 40
0.0
 40
0.0
 40
0.0432429898381061
 40
0.0862990708655688
 40
0.1336782008464996
 40
0.1911425008582182
 40
0.2557766771549957
 40
0.3192933421608282
 40
0.3764313746771244
 40
0.4285181590236994
 40
0.4784423449764205
 40
0.5277741579905926
 40
0.577014781422599
 40
0.6263578961405294
 40
0.6762977191323309
 40
0.7281317155300693
 40
0.783907027801795
 40
0.8452665021365762
 40
0.9105221985573567
 40
0.9569965872961403
 40
1.0
 40
1.0
 40
1.0
 40
1.0
 10
6318.018756805202
 20
5129.940009914621
 30
0.0
 10
6317.826538024756
 20
5129.926523707955
 30
0.0
 10
6317.44293128948
 20
5129.899609585943
 30
0.0
 10
6316.924148701806
 20
5129.704960591097
 30
0.0
 10
6316.469219916729
 20
5129.425253537137
 30
0.0
 10
6316.117602631402
 20
5129.060918977132
 30
0.0
 10
6315.968903720116
 20
5128.673082637841
 30
0.0
 10
6316.109018637545
 20
5128.349619902751
 30
0.0
 10
6316.511324743616
 20
5128.136911026067
 30
0.0
 10
6317.076364999636
 20
5128.019850193709
 30
0.0
 10
6317.72480027939
 20
5127.970367253561
 30
0.0
 10
6318.394285222344
 20
5127.973583203098
 30
0.0
 10
6319.018643833268
 20
5128.028558253964
 30
0.0
 10
6319.532659292502
 20
5128.143388856362
 30
0.0
 10
6319.885942447218
 20
5128.328062345287
 30
0.0
 10
6320.04756505416
 20
5128.589101380633
 30
0.0
 10
6319.994087741826
 20
5128.926206776927
 30
0.0
 10
6319.700984959785
 20
5129.320746457093
 30
0.0
 10
6319.205278672121
 20
5129.668563588624
 30
0.0
 10
6318.607629071123
 20
5129.898662158178
 30
0.0
 10
6318.2099047898
 20
5129.926588429574
 30
0.0
 10
6318.018756805202
 20
5129.940009914621
 30
0.0
  0
ARC
  5
183
330
1F
100
AcDbEntity
  8
0
  6
Continuous
 62
     7
370
    25
100
AcDbCircle
 10
6349.0187553361
 20
5137.7059607401
 30
0.0
 40
10.0
100
AcDbArc
 50
270.0
 51
0.0
  0
ARC
  5
184
330
1F
100
AcDbEntity
  8
0
  6
Continuous
 62
     7
370
    25
100
AcDbCircle
 10
6258.3187553361
 20
5205.4559607401
 30
0.0
 40
1.149999999999636
100
AcDbArc
 50
90.0
 51
180.0
  0
LINE
  5
185
330
1F
100
AcDbEntity
  8
0
  6
Continuous
 62
     7
370
    25
100
AcDbLine
 10
6257.1687549336
 20
5205.4559618759
 30
0.0
 11
6257.1687549336
 21
5192.5559595752
 31
0.0
  0
ARC
  5
186
330
1F
100
AcDbEntity
  8
0
  6
Continuous
 62
     7
370
    25
100
AcDbCircle
 10
6258.3187553361
 20
5192.5559607401
 30
0.0
 40
1.149999999999636
100
AcDbArc
 50
180.0
 51
270.0
  0
LINE
  5
187
330
1F
100
AcDbEntity
  8
0
  6
Continuous
 62
     7
370
    25
100
AcDbLine
 10
6258.318755774
 20
5191.40596246
 30
0.0
 11
6289.7187555192
 21
5191.40596246
 31
0.0
  0
ARC
  5
188
330
1F
100
AcDbEntity
  8
0
  6
Continuous
 62
     7
370
    25
100
AcDbCircle
 10
6289.7187553361
 20
5192.5559607401
 30
0.0
 40
1.149999999999636
100
AcDbArc
 50
270.0
 51
0.0
  0
LINE
  5
189
330
1F
100
AcDbEntity
  8
0
  6
Continuous
 62
     7
370
    25
100
AcDbLine
 10
6290.8687554283
 20
5192.5559595752
 30
0.0
 11
6290.8687554283
 21
5205.4559618759
 31
0.0
  0
ARC
  5
18A
330
1F
100
AcDbEntity
  8
0
  6
Continuous
 62
     7
370
    25
100
AcDbCircle
 10
6289.7187553361
 20
5205.4559607401
 30
0.0
 40
1.149999999999636
100
AcDbArc
 50
0.0
 51
90.0
  0
LINE
  5
18B
330
1F
100
AcDbEntity
  8
0
  6
Continuous
 62
     7
370
    25
100
AcDbLine
 10
6289.7187555192
 20
5206.605958991
 30
0.0
 11
6258.318755774
 21
5206.605958991
 31
0.0
  0
SPLINE
  5
18C
330
1F
100
AcDbEntity
  8
0
  6
Continuous
 62
     7
370
    25
100
AcDbSpline
210
0.0
220
0.0
230
1.0
 70
     8
 71
     3
 72
    14
 73
    10
 74
     0
 42
0.000000001
 43
0.00000001
 40
0.0
 40
0.0
 40
0.0
 40
0.0
 40
0.1221660745592214
 40
0.2945114159034277
 40
0.4596104147887934
 40
0.6229477065584675
 40
0.786091961504314
 40
0.9498905046331219
 40
1.0
 40
1.0
 40
1.0
 40
1.0
 10
6228.385146705648
 20
5129.299924947603
 30
0.0
 10
6228.470349742885
 20
5129.250351937852
 30
0.0
 10
6228.675752652217
 20
5129.130843986522
 30
0.0
 10
6229.213196203774
 20
5129.040903727923
 30
0.0
 10
6229.862949323032
 20
5128.9966148679
 30
0.0
 10
6230.529290668058
 20
5129.011293879425
 30
0.0
 10
6231.12119569288
 20
5129.088667393928
 30
0.0
 10
6231.518921109769
 20
5129.185203029045
 30
0.0
 10
6231.643791445907
 20
5129.281074346192
 30
0.0
 10
6231.673043219587
 20
5129.303532891257
 30
0.0
  0
SPLINE
  5
18D
330
1F
100
AcDbEntity
  8
0
  6
Continuous
 62
     7
370
    25
100
AcDbSpline
210
0.0
220
0.0
230
1.0
 70
     8
 71
     3
 72
    14
 73
    10
 74
     0
 42
0.000000001
 43
0.00000001
 40
0.0
 40
0.0
 40
0.0
 40
0.0
 40
0.1221661692785617
 40
0.2945108689151291
 40
0.459609995807131
 40
0.6229474142175323
 40
0.7860917956544383
 40
0.9498904657815964
 40
1.0
 40
1.0
 40
1.0
 40
1.0
 10
6316.385149954102
 20
5129.299924947603
 30
0.0
 10
6316.470353049698
 20
5129.250351962518
 30
0.0
 10
6316.675755558975
 20
5129.130844385269
 30
0.0
 10
6317.213196264567
 20
5129.040903445838
 30
0.0
 10
6317.862948967961
 20
5128.996614923412
 30
0.0
 10
6318.529290158715
 20
5129.011293864605
 30
0.0
 10
6319.121195225064
 20
5129.088667398041
 30
0.0
 10
6319.518920632363
 20
5129.185203028786
 30
0.0
 10
6319.643790968962
 20
5129.281074346142
 30
0.0
 10
6319.67304274275
 20
5129.303532891257
 30
0.0
  0
LINE
  5
18E
330
1F
100
AcDbEntity
  8
0
  6
Continuous
 62
     7
370
    25
100
AcDbLine
 10
6557.0953432842
 20
5149.0822725522
 30
0.0
 11
6626.6953442617
 21
5149.0822725522
 31
0.0
  0
LINE
  5
18F
330
1F
100
AcDbEntity
  8
0
  6
Continuous
 62
     7
370
    25
100
AcDbLine
 10
6626.6953442617
 20
5280.0822698104
 30
0.0
 11
6557.0953432842
 21
5280.0822698104
 31
0.0
  0
LINE
  5
190
330
1F
100
AcDbEntity
  8
0
  6
Continuous
 62
     7
370
    25
100
AcDbLine
 10
6608.0953423306
 20
5147.0822722244
 30
0.0
 11
6608.1016455217
 21
5147.3822726461
 31
0.0
  0
LINE
  5
191
330
1F
100
AcDbEntity
  8
0
  6
Continuous
 62
     7
370
    25
100
AcDbLine
 10
6605.0997767969
 20
5147.3822726461
 30
0.0
 11
6605.095351152
 21
5147.0822722244
 31
0.0
  0
LINE
  5
192
330
1F
100
AcDbEntity
  8
0
  6
Continuous
 62
     7
370
    25
100
AcDbLine
 10
6599.9953393265
 20
5149.0822725522
 30
0.0
 11
6599.9953393265
 21
5148.1822722184
 31
0.0
  0
LINE
  5
193
330
1F
100
AcDbEntity
  8
0
  6
Continuous
 62
     7
370
    25
100
AcDbLine
 10
6613.195339255
 20
5148.1822722184
 30
0.0
 11
6613.195339255
 21
5149.0822725522
 31
0.0
  0
ARC
  5
194
330
1F
100
AcDbEntity
  8
0
  6
Continuous
 62
     7
370
    25
100
AcDbCircle
 10
6600.7953441951
 20
5148.1822725696
 30
0.0
 40
0.8000000000001819
100
AcDbArc
 50
180.0
 51
270.0
  0
ARC
  5
195
330
1F
100
AcDbEntity
  8
0
  6
Continuous
 62
     7
370
    25
100
AcDbCircle
 10
6612.3953441951
 20
5148.1822725696
 30
0.0
 40
0.8000000000001819
100
AcDbArc
 50
270.0
 51
0.0
  0
LINE
  5
196
330
1F
100
AcDbEntity
  8
0
  6
Continuous
 62
     7
370
    25
100
AcDbLine
 10
6595.5080930515
 20
5298.3900227177
 30
0.0
 11
6594.3158511444
 21
5299.582279526
 31
0.0
  0
LINE
  5
197
330
1F
100
AcDbEntity
  8
0
  6
Continuous
 62
     7
370
    25
100
AcDbLine
 10
6569.5187244936
 20
5298.226154648
 30
0.0
 11
6569.3748388811
 21
5298.0822690356
 31
0.0
  0
LINE
  5
198
330
1F
100
AcDbEntity
  8
0
  6
Continuous
 62
     7
370
    25
100
AcDbLine
 10
6570.8748493715
 20
5299.582279526
 30
0.0
 11
6570.1786820217
 21
5298.8861121762
 31
0.0
  0
SPLINE
  5
199
330
1F
100
AcDbEntity
  8
0
  6
Continuous
 62
     7
370
    25
100
AcDbSpline
210
0.0
220
0.0
230
1.0
 70
     8
 71
     3
 72
     9
 73
     5
 74
     0
 42
0.000000001
 43
0.00000001
 40
0.0
 40
0.0
 40
0.0
 40
0.0
 40
0.4999934501146534
 40
1.0
 40
1.0
 40
1.0
 40
1.0
 10
6570.241952352148
 20
5297.055146895631
 30
0.0
 10
6570.098658122231
 20
5296.972365435954
 30
0.0
 10
6569.812065908104
 20
5296.806800347736
 30
0.0
 10
6569.525470055764
 20
5296.641241765983
 30
0.0
 10
6569.382170252425
 20
5296.558461390718
 30
0.0
  0
SPLINE
  5
19A
330
1F
100
AcDbEntity
  8
0
  6
Continuous
 62
     7
370
    25
100
AcDbSpline
210
0.0
220
0.0
230
1.0
 70
     8
 71
     3
 72
     9
 73
     5
 74
     0
 42
0.000000001
 43
0.00000001
 40
0.0
 40
0.0
 40
0.0
 40
0.0
 40
0.4999934501146534
 40
1.0
 40
1.0
 40
1.0
 40
1.0
 10
6570.241952352148
 20
5295.467636786683
 30
0.0
 10
6570.098658122231
 20
5295.384855327006
 30
0.0
 10
6569.812065908104
 20
5295.219290238788
 30
0.0
 10
6569.525470055764
 20
5295.053731657035
 30
0.0
 10
6569.382170252425
 20
5294.97095128177
 30
0.0
  0
SPLINE
  5
19B
330
1F
100
AcDbEntity
  8
0
  6
Continuous
 62
     7
370
    25
100
AcDbSpline
210
0.0
220
0.0
230
1.0
 70
     8
 71
     3
 72
     9
 73
     5
 74
     0
 42
0.000000001
 43
0.00000001
 40
0.0
 40
0.0
 40
0.0
 40
0.0
 40
0.4999934501146534
 40
1.0
 40
1.0
 40
1.0
 40
1.0
 10
6570.241952352148
 20
5293.880141578897
 30
0.0
 10
6570.098658122231
 20
5293.79736011922
 30
0.0
 10
6569.812065908104
 20
5293.631795031001
 30
0.0
 10
6569.525470055764
 20
5293.466236449249
 30
0.0
 10
6569.382170252425
 20
5293.383456073983
 30
0.0
  0
SPLINE
  5
19C
330
1F
100
AcDbEntity
  8
0
  6
Continuous
 62
     7
370
    25
100
AcDbSpline
210
0.0
220
0.0
230
1.0
 70
     8
 71
     3
 72
     9
 73
     5
 74
     0
 42
0.000000001
 43
0.00000001
 40
0.0
 40
0.0
 40
0.0
 40
0.0
 40
0.4999934501146534
 40
1.0
 40
1.0
 40
1.0
 40
1.0
 10
6570.241952352148
 20
5292.29264637111
 30
0.0
 10
6570.098658122231
 20
5292.209864911433
 30
0.0
 10
6569.812065908104
 20
5292.044299823215
 30
0.0
 10
6569.525470055764
 20
5291.878741241462
 30
0.0
 10
6569.382170252425
 20
5291.795960866197
 30
0.0
  0
LINE
  5
19D
330
1F
100
AcDbEntity
  8
0
  6
Continuous
 62
     7
370
    25
100
AcDbLine
 10
6570.2419523521
 20
5290.7051362622
 30
0.0
 11
6570.0519923492
 21
5290.5954041111
 31
0.0
  0
SPLINE
  5
19E
330
1F
100
AcDbEntity
  8
0
  6
Continuous
 62
     7
370
    25
100
AcDbSpline
210
0.0
220
0.0
230
1.0
 70
     8
 71
     3
 72
     9
 73
     5
 74
     0
 42
0.000000001
 43
0.00000001
 40
0.0
 40
0.0
 40
0.0
 40
0.0
 40
0.5045967639164869
 40
1.0
 40
1.0
 40
1.0
 40
1.0
 10
6595.808515362364
 20
5295.764706336244
 30
0.0
 10
6595.6652153952
 20
5295.847486427771
 30
0.0
 10
6595.381226322316
 20
5296.011538394503
 30
0.0
 10
6595.097242751998
 20
5296.175600092975
 30
0.0
 10
6594.956556372267
 20
5296.256876789315
 30
0.0
  0
SPLINE
  5
19F
330
1F
100
AcDbEntity
  8
0
  6
Continuous
 62
     7
370
    25
100
AcDbSpline
210
0.0
220
0.0
230
1.0
 70
     8
 71
     3
 72
     9
 73
     5
 74
     0
 42
0.000000001
 43
0.00000001
 40
0.0
 40
0.0
 40
0.0
 40
0.0
 40
0.5045967639164869
 40
1.0
 40
1.0
 40
1.0
 40
1.0
 10
6595.808515362364
 20
5294.177211128457
 30
0.0
 10
6595.6652153952
 20
5294.259991219985
 30
0.0
 10
6595.381226322316
 20
5294.424043186717
 30
0.0
 10
6595.097242751998
 20
5294.588104885189
 30
0.0
 10
6594.956556372267
 20
5294.669381581529
 30
0.0
  0
SPLINE
  5
1A0
330
1F
100
AcDbEntity
  8
0
  6
Continuous
 62
     7
370
    25
100
AcDbSpline
210
0.0
220
0.0
230
1.0
 70
     8
 71
     3
 72
     9
 73
     5
 74
     0
 42
0.000000001
 43
0.00000001
 40
0.0
 40
0.0
 40
0.0
 40
0.0
 40
0.5045967639164869
 40
1.0
 40
1.0
 40
1.0
 40
1.0
 10
6595.808515362364
 20
5292.589701019509
 30
0.0
 10
6595.6652153952
 20
5292.672481111037
 30
0.0
 10
6595.381226322316
 20
5292.836533077769
 30
0.0
 10
6595.097242751998
 20
5293.000594776241
 30
0.0
 10
6594.956556372267
 20
5293.081871472581
 30
0.0
  0
SPLINE
  5
1A1
330
1F
100
AcDbEntity
  8
0
  6
Continuous
 62
     7
370
    25
100
AcDbSpline
210
0.0
220
0.0
230
1.0
 70
     8
 71
     3
 72
     9
 73
     5
 74
     0
 42
0.000000001
 43
0.00000001
 40
0.0
 40
0.0
 40
0.0
 40
0.0
 40
0.5045967639164869
 40
1.0
 40
1.0
 40
1.0
 40
1.0
 10
6595.808515362364
 20
5291.002205811723
 30
0.0
 10
6595.6652153952
 20
5291.084985903251
 30
0.0
 10
6595.381226322316
 20
5291.249037869982
 30
0.0
 10
6595.097242751998
 20
5291.413099568455
 30
0.0
 10
6594.956556372267
 20
5291.494376264794
 30
0.0
  0
SPLINE
  5
1A2
330
1F
100
AcDbEntity
  8
0
  6
Continuous
 62
     7
370
    25
100
AcDbSpline
210
0.0
220
0.0
230
1.0
 70
     8
 71
     3
 72
     9
 73
     5
 74
     0
 42
0.000000001
 43
0.00000001
 40
0.0
 40
0.0
 40
0.0
 40
0.0
 40
0.5045967639164869
 40
1.0
 40
1.0
 40
1.0
 40
1.0
 10
6595.808515362364
 20
5297.35220154403
 30
0.0
 10
6595.6652153952
 20
5297.434981635558
 30
0.0
 10
6595.381226322316
 20
5297.59903360229
 30
0.0
 10
6595.097242751998
 20
5297.763095300762
 30
0.0
 10
6594.956556372267
 20
5297.844371997102
 30
0.0
  0
SPLINE
  5
1A3
330
1F
100
AcDbEntity
  8
0
  6
Continuous
 62
     7
370
    25
100
AcDbSpline
210
0.0
220
0.0
230
1.0
 70
     8
 71
     3
 72
     9
 73
     5
 74
     0
 42
0.000000001
 43
0.00000001
 40
0.0
 40
0.0
 40
0.0
 40
0.0
 40
0.6149596080984665
 40
1.0
 40
1.0
 40
1.0
 40
1.0
 10
6570.241952352148
 20
5298.642642103418
 30
0.0
 10
6570.098657760093
 20
5298.559861266607
 30
0.0
 10
6569.865643119508
 20
5298.425249438903
 30
0.0
 10
6569.632628946657
 20
5298.290636971216
 30
0.0
 10
6569.542909078223
 20
5298.238805733903
 30
0.0
  0
SPLINE
  5
1A4
330
1F
100
AcDbEntity
  8
0
  6
Continuous
 62
     7
370
    25
100
AcDbSpline
210
0.0
220
0.0
230
1.0
 70
     8
 71
     3
 72
     9
 73
     5
 74
     0
 42
0.000000001
 43
0.00000001
 40
0.0
 40
0.0
 40
0.0
 40
0.0
 40
0.5046044778985264
 40
1.0
 40
1.0
 40
1.0
 40
1.0
 10
6569.382200054747
 20
5297.731972538217
 30
0.0
 10
6569.525493962475
 20
5297.649185594496
 30
0.0
 10
6569.809466685673
 20
5297.485122556322
 30
0.0
 10
6570.093446776942
 20
5297.321071997422
 30
0.0
 10
6570.234129242522
 20
5297.239802085145
 30
0.0
  0
SPLINE
  5
1A5
330
1F
100
AcDbEntity
  8
0
  6
Continuous
 62
     7
370
    25
100
AcDbSpline
210
0.0
220
0.0
230
1.0
 70
     8
 71
     3
 72
     9
 73
     5
 74
     0
 42
0.000000001
 43
0.00000001
 40
0.0
 40
0.0
 40
0.0
 40
0.0
 40
0.5046007246304991
 40
1.0
 40
1.0
 40
1.0
 40
1.0
 10
6569.382200054747
 20
5296.144462429269
 30
0.0
 10
6569.525494505302
 20
5296.061681392214
 30
0.0
 10
6569.809470416474
 20
5295.897628839347
 30
0.0
 10
6570.093447300134
 20
5295.733577695261
 30
0.0
 10
6570.234129242522
 20
5295.652306877359
 30
0.0
  0
SPLINE
  5
1A6
330
1F
100
AcDbEntity
  8
0
  6
Continuous
 62
     7
370
    25
100
AcDbSpline
210
0.0
220
0.0
230
1.0
 70
     8
 71
     3
 72
     9
 73
     5
 74
     0
 42
0.000000001
 43
0.00000001
 40
0.0
 40
0.0
 40
0.0
 40
0.0
 40
0.5045969016702938
 40
1.0
 40
1.0
 40
1.0
 40
1.0
 10
6569.382200054747
 20
5294.556967221482
 30
0.0
 10
6569.525495058192
 20
5294.474187141465
 30
0.0
 10
6569.809474216547
 20
5294.310135242329
 30
0.0
 10
6570.093447833058
 20
5294.146073475845
 30
0.0
 10
6570.234129242522
 20
5294.064796768411
 30
0.0
  0
SPLINE
  5
1A7
330
1F
100
AcDbEntity
  8
0
  6
Continuous
 62
     7
370
    25
100
AcDbSpline
210
0.0
220
0.0
230
1.0
 70
     8
 71
     3
 72
     9
 73
     5
 74
     0
 42
0.000000001
 43
0.00000001
 40
0.0
 40
0.0
 40
0.0
 40
0.0
 40
0.5046044778985264
 40
1.0
 40
1.0
 40
1.0
 40
1.0
 10
6569.382200054747
 20
5292.969472013696
 30
0.0
 10
6569.525493962475
 20
5292.886685069975
 30
0.0
 10
6569.809466685673
 20
5292.722622031801
 30
0.0
 10
6570.093446776942
 20
5292.558571472901
 30
0.0
 10
6570.234129242522
 20
5292.477301560624
 30
0.0
  0
SPLINE
  5
1A8
330
1F
100
AcDbEntity
  8
0
  6
Continuous
 62
     7
370
    25
100
AcDbSpline
210
0.0
220
0.0
230
1.0
 70
     8
 71
     3
 72
     9
 73
     5
 74
     0
 42
0.000000001
 43
0.00000001
 40
0.0
 40
0.0
 40
0.0
 40
0.0
 40
0.5046007246304991
 40
1.0
 40
1.0
 40
1.0
 40
1.0
 10
6569.382200054747
 20
5291.381961904748
 30
0.0
 10
6569.525494505302
 20
5291.299180867693
 30
0.0
 10
6569.809470416474
 20
5291.135128314826
 30
0.0
 10
6570.093447300134
 20
5290.971077170741
 30
0.0
 10
6570.234129242522
 20
5290.889806352838
 30
0.0
  0
SPLINE
  5
1A9
330
1F
100
AcDbEntity
  8
0
  6
Continuous
 62
     7
370
    25
100
AcDbSpline
210
0.0
220
0.0
230
1.0
 70
     8
 71
     3
 72
     9
 73
     5
 74
     0
 42
0.000000001
 43
0.00000001
 40
0.0
 40
0.0
 40
0.0
 40
0.0
 40
0.4999971864634432
 40
1.0
 40
1.0
 40
1.0
 40
1.0
 10
6594.948718361479
 20
5296.441517077668
 30
0.0
 10
6595.092012055991
 20
5296.524304436868
 30
0.0
 10
6595.37860105767
 20
5296.689880086976
 30
0.0
 10
6595.665200122454
 20
5296.855438040951
 30
0.0
 10
6595.808500461203
 20
5296.938217483743
 30
0.0
  0
SPLINE
  5
1AA
330
1F
100
AcDbEntity
  8
0
  6
Continuous
 62
     7
370
    25
100
AcDbSpline
210
0.0
220
0.0
230
1.0
 70
     8
 71
     3
 72
     9
 73
     5
 74
     0
 42
0.000000001
 43
0.00000001
 40
0.0
 40
0.0
 40
0.0
 40
0.0
 40
0.4999896794842673
 40
1.0
 40
1.0
 40
1.0
 40
1.0
 10
6594.948718361479
 20
5294.854021869882
 30
0.0
 10
6595.0920131317
 20
5294.936802399987
 30
0.0
 10
6595.378608587765
 20
5295.10236687762
 30
0.0
 10
6595.665201198201
 20
5295.267936004005
 30
0.0
 10
6595.808500461203
 20
5295.350722275956
 30
0.0
  0
SPLINE
  5
1AB
330
1F
100
AcDbEntity
  8
0
  6
Continuous
 62
     7
370
    25
100
AcDbSpline
210
0.0
220
0.0
230
1.0
 70
     8
 71
     3
 72
     9
 73
     5
 74
     0
 42
0.000000001
 43
0.00000001
 40
0.0
 40
0.0
 40
0.0
 40
0.0
 40
0.4999934328752578
 40
1.0
 40
1.0
 40
1.0
 40
1.0
 10
6594.948718361479
 20
5293.266526662095
 30
0.0
 10
6595.092012593867
 20
5293.349308123199
 30
0.0
 10
6595.378604822816
 20
5293.51487321998
 30
0.0
 10
6595.665200660334
 20
5293.680431793169
 30
0.0
 10
6595.808500461203
 20
5293.763212167009
 30
0.0
  0
SPLINE
  5
1AC
330
1F
100
AcDbEntity
  8
0
  6
Continuous
 62
     7
370
    25
100
AcDbSpline
210
0.0
220
0.0
230
1.0
 70
     8
 71
     3
 72
     9
 73
     5
 74
     0
 42
0.000000001
 43
0.00000001
 40
0.0
 40
0.0
 40
0.0
 40
0.0
 40
0.4999971864634432
 40
1.0
 40
1.0
 40
1.0
 40
1.0
 10
6594.948718361479
 20
5291.679016553147
 30
0.0
 10
6595.092012055991
 20
5291.761803912347
 30
0.0
 10
6595.37860105767
 20
5291.927379562455
 30
0.0
 10
6595.665200122454
 20
5292.09293751643
 30
0.0
 10
6595.808500461203
 20
5292.175716959222
 30
0.0
  0
SPLINE
  5
1AD
330
1F
100
AcDbEntity
  8
0
  6
Continuous
 62
     7
370
    25
100
AcDbSpline
210
0.0
220
0.0
230
1.0
 70
     8
 71
     3
 72
     9
 73
     5
 74
     0
 42
0.000000001
 43
0.00000001
 40
0.0
 40
0.0
 40
0.0
 40
0.0
 40
0.7917040564987069
 40
1.0
 40
1.0
 40
1.0
 40
1.0
 10
6594.948718361479
 20
5298.029027186616
 30
0.0
 10
6595.092013799686
 20
5298.111806574014
 30
0.0
 10
6595.273010015419
 20
5298.216365072507
 30
0.0
 10
6595.454001899055
 20
5298.320930894382
 30
0.0
 10
6595.491701774222
 20
5298.342711530908
 30
0.0
  0
LINE
  5
1AE
330
1F
100
AcDbEntity
  8
0
  6
Continuous
 62
     7
370
    25
100
AcDbLine
 10
6595.8158467337
 20
5296.9467409479
 30
0.0
 11
6595.8158467337
 21
5297.3434396612
 31
0.0
  0
LINE
  5
1AF
330
1F
100
AcDbEntity
  8
0
  6
Continuous
 62
     7
370
    25
100
AcDbLine
 10
6595.8158467337
 20
5295.3592457402
 30
0.0
 11
6595.8158467337
 21
5295.7559295523
 31
0.0
  0
LINE
  5
1B0
330
1F
100
AcDbEntity
  8
0
  6
Continuous
 62
     7
370
    25
100
AcDbLine
 10
6595.8158467337
 20
5293.7717505324
 30
0.0
 11
6595.8158467337
 21
5294.1684343445
 31
0.0
  0
LINE
  5
1B1
330
1F
100
AcDbEntity
  8
0
  6
Continuous
 62
     7
370
    25
100
AcDbLine
 10
6595.8158467337
 20
5292.1842404234
 30
0.0
 11
6595.8158467337
 21
5292.5809391367
 31
0.0
  0
LINE
  5
1B2
330
1F
100
AcDbEntity
  8
0
  6
Continuous
 62
     7
370
    25
100
AcDbLine
 10
6595.8158467337
 20
5290.5822761881
 30
0.0
 11
6595.8158467337
 21
5290.9934290278
 31
0.0
  0
LINE
  5
1B3
330
1F
100
AcDbEntity
  8
0
  6
Continuous
 62
     7
370
    25
100
AcDbLine
 10
6569.3748388811
 20
5291.7873330939
 30
0.0
 11
6569.3748388811
 21
5291.3904704678
 31
0.0
  0
LINE
  5
1B4
330
1F
100
AcDbEntity
  8
0
  6
Continuous
 62
     7
370
    25
100
AcDbLine
 10
6569.3748388811
 20
5293.3748432028
 30
0.0
 11
6569.3748388811
 21
5292.9779656756
 31
0.0
  0
LINE
  5
1B5
330
1F
100
AcDbEntity
  8
0
  6
Continuous
 62
     7
370
    25
100
AcDbLine
 10
6569.3748388811
 20
5294.9623384106
 30
0.0
 11
6569.3748388811
 21
5294.5654608834
 31
0.0
  0
LINE
  5
1B6
330
1F
100
AcDbEntity
  8
0
  6
Continuous
 62
     7
370
    25
100
AcDbLine
 10
6569.3748388811
 20
5296.5498336184
 30
0.0
 11
6569.3748388811
 21
5296.1529709923
 31
0.0
  0
LINE
  5
1B7
330
1F
100
AcDbEntity
  8
0
  6
Continuous
 62
     7
370
    25
100
AcDbLine
 10
6569.3748388811
 20
5298.0822690356
 30
0.0
 11
6569.3748388811
 21
5297.7404662001
 31
0.0
  0
LINE
  5
1B8
330
1F
100
AcDbEntity
  8
0
  6
Continuous
 62
     7
370
    25
100
AcDbLine
 10
6570.2341292425
 20
5297.2449727881
 30
0.0
 11
6570.2341292425
 21
5297.0506318438
 31
0.0
  0
LINE
  5
1B9
330
1F
100
AcDbEntity
  8
0
  6
Continuous
 62
     7
370
    25
100
AcDbLine
 10
6570.2341292425
 20
5295.6574775803
 30
0.0
 11
6570.2341292425
 21
5295.4631217348
 31
0.0
  0
LINE
  5
1BA
330
1F
100
AcDbEntity
  8
0
  6
Continuous
 62
     7
370
    25
100
AcDbLine
 10
6570.2341292425
 20
5294.0699674713
 30
0.0
 11
6570.2341292425
 21
5293.8756265271
 31
0.0
  0
LINE
  5
1BB
330
1F
100
AcDbEntity
  8
0
  6
Continuous
 62
     7
370
    25
100
AcDbLine
 10
6570.2341292425
 20
5292.4824722636
 30
0.0
 11
6570.2341292425
 21
5292.2881313193
 31
0.0
  0
LINE
  5
1BC
330
1F
100
AcDbEntity
  8
0
  6
Continuous
 62
     7
370
    25
100
AcDbLine
 10
6570.2341292425
 20
5290.8949770558
 30
0.0
 11
6570.2341292425
 21
5290.7006212103
 31
0.0
  0
LINE
  5
1BD
330
1F
100
AcDbEntity
  8
0
  6
Continuous
 62
     7
370
    25
100
AcDbLine
 10
6594.9565563723
 20
5296.2527938711
 30
0.0
 11
6594.9565563723
 21
5296.4460470307
 31
0.0
  0
LINE
  5
1BE
330
1F
100
AcDbEntity
  8
0
  6
Continuous
 62
     7
370
    25
100
AcDbLine
 10
6594.9565563723
 20
5294.6652837622
 30
0.0
 11
6594.9565563723
 21
5294.8585518229
 31
0.0
  0
LINE
  5
1BF
330
1F
100
AcDbEntity
  8
0
  6
Continuous
 62
     7
370
    25
100
AcDbLine
 10
6594.9565563723
 20
5293.0777885544
 30
0.0
 11
6594.9565563723
 21
5293.2710566151
 31
0.0
  0
LINE
  5
1C0
330
1F
100
AcDbEntity
  8
0
  6
Continuous
 62
     7
370
    25
100
AcDbLine
 10
6594.9565563723
 20
5291.4902933466
 30
0.0
 11
6594.9565563723
 21
5291.6835465062
 31
0.0
  0
LINE
  5
1C1
330
1F
100
AcDbEntity
  8
0
  6
Continuous
 62
     7
370
    25
100
AcDbLine
 10
6594.9565563723
 20
5297.8402890789
 30
0.0
 11
6594.9565563723
 21
5298.0335571396
 31
0.0
  0
LINE
  5
1C2
330
1F
100
AcDbEntity
  8
0
  6
Continuous
 62
     7
370
    25
100
AcDbLine
 10
6570.2341292425
 20
5298.8324679959
 30
0.0
 11
6570.2341292425
 21
5298.6381270516
 31
0.0
  0
LINE
  5
1C3
330
1F
100
AcDbEntity
  8
0
  6
Continuous
 62
     7
370
    25
100
AcDbLine
 10
6569.9744467064
 20
5130.4826636392
 30
0.0
 11
6570.8748493715
 21
5129.5822721499
 31
0.0
  0
LINE
  5
1C4
330
1F
100
AcDbEntity
  8
0
  6
Continuous
 62
     7
370
    25
100
AcDbLine
 10
6594.3158511444
 20
5129.5822721499
 30
0.0
 11
6595.7310740276
 21
5130.9975099343
 31
0.0
  0
SPLINE
  5
1C5
330
1F
100
AcDbEntity
  8
0
  6
Continuous
 62
     7
370
    25
100
AcDbSpline
210
0.0
220
0.0
230
1.0
 70
     8
 71
     3
 72
     9
 73
     5
 74
     0
 42
0.000000001
 43
0.00000001
 40
0.0
 40
0.0
 40
0.0
 40
0.0
 40
0.5040607922564494
 40
1.0
 40
1.0
 40
1.0
 40
1.0
 10
6595.809394530875
 20
5132.559319265469
 30
0.0
 10
6595.666104720497
 20
5132.642090395685
 30
0.0
 10
6595.381833829804
 20
5132.806299021883
 30
0.0
 10
6595.097565824118
 20
5132.970513245314
 30
0.0
 10
6594.95658617459
 20
5133.051953517182
 30
0.0
  0
SPLINE
  5
1C6
330
1F
100
AcDbEntity
  8
0
  6
Continuous
 62
     7
370
    25
100
AcDbSpline
210
0.0
220
0.0
230
1.0
 70
     8
 71
     3
 72
     9
 73
     5
 74
     0
 42
0.000000001
 43
0.00000001
 40
0.0
 40
0.0
 40
0.0
 40
0.0
 40
0.5040598462462443
 40
1.0
 40
1.0
 40
1.0
 40
1.0
 10
6595.809394530875
 20
5134.146820061191
 30
0.0
 10
6595.666104583835
 20
5134.229590333948
 30
0.0
 10
6595.381832888506
 20
5134.393797567224
 30
0.0
 10
6595.097565691822
 20
5134.558013191134
 30
0.0
 10
6594.95658617459
 20
5134.639454312904
 30
0.0
  0
SPLINE
  5
1C7
330
1F
100
AcDbEntity
  8
0
  6
Continuous
 62
     7
370
    25
100
AcDbSpline
210
0.0
220
0.0
230
1.0
 70
     8
 71
     3
 72
     9
 73
     5
 74
     0
 42
0.000000001
 43
0.00000001
 40
0.0
 40
0.0
 40
0.0
 40
0.0
 40
0.5040603154035322
 40
1.0
 40
1.0
 40
1.0
 40
1.0
 10
6595.809394530875
 20
5135.734318994268
 30
0.0
 10
6595.66610465161
 20
5135.817090005236
 30
0.0
 10
6595.381833355326
 20
5135.981298550201
 30
0.0
 10
6595.097565757431
 20
5136.145514100437
 30
0.0
 10
6594.95658617459
 20
5136.226955108626
 30
0.0
  0
SPLINE
  5
1C8
330
1F
100
AcDbEntity
  8
0
  6
Continuous
 62
     7
370
    25
100
AcDbSpline
210
0.0
220
0.0
230
1.0
 70
     8
 71
     3
 72
     9
 73
     5
 74
     0
 42
0.000000001
 43
0.00000001
 40
0.0
 40
0.0
 40
0.0
 40
0.0
 40
0.5040598462462443
 40
1.0
 40
1.0
 40
1.0
 40
1.0
 10
6595.809394530875
 20
5137.32181978999
 30
0.0
 10
6595.666104583835
 20
5137.404590062747
 30
0.0
 10
6595.381832888506
 20
5137.568797296023
 30
0.0
 10
6595.097565691822
 20
5137.733012919933
 30
0.0
 10
6594.95658617459
 20
5137.814454041703
 30
0.0
  0
SPLINE
  5
1C9
330
1F
100
AcDbEntity
  8
0
  6
Continuous
 62
     7
370
    25
100
AcDbSpline
210
0.0
220
0.0
230
1.0
 70
     8
 71
     3
 72
     9
 73
     5
 74
     0
 42
0.000000001
 43
0.00000001
 40
0.0
 40
0.0
 40
0.0
 40
0.0
 40
0.5000003161276286
 40
1.0
 40
1.0
 40
1.0
 40
1.0
 10
6570.241013578993
 20
5132.262197561844
 30
0.0
 10
6570.097729025304
 20
5132.17942582853
 30
0.0
 10
6569.811160099109
 20
5132.013882466567
 30
0.0
 10
6569.524590629358
 20
5131.848340653255
 30
0.0
 10
6569.381305985075
 20
5131.76556979893
 30
0.0
  0
SPLINE
  5
1CA
330
1F
100
AcDbEntity
  8
0
  6
Continuous
 62
     7
370
    25
100
AcDbSpline
210
0.0
220
0.0
230
1.0
 70
     8
 71
     3
 72
     9
 73
     5
 74
     0
 42
0.000000001
 43
0.00000001
 40
0.0
 40
0.0
 40
0.0
 40
0.0
 40
0.4999993777018231
 40
1.0
 40
1.0
 40
1.0
 40
1.0
 10
6570.241013578993
 20
5133.849696494921
 30
0.0
 10
6570.097728890842
 20
5133.766925615254
 30
0.0
 10
6569.811159157874
 20
5133.601383649889
 30
0.0
 10
6569.524590494896
 20
5133.435840439979
 30
0.0
 10
6569.381305985075
 20
5133.353068732007
 30
0.0
  0
SPLINE
  5
1CB
330
1F
100
AcDbEntity
  8
0
  6
Continuous
 62
     7
370
    25
100
AcDbSpline
210
0.0
220
0.0
230
1.0
 70
     8
 71
     3
 72
     9
 73
     5
 74
     0
 42
0.000000001
 43
0.00000001
 40
0.0
 40
0.0
 40
0.0
 40
0.0
 40
0.5000003161276286
 40
1.0
 40
1.0
 40
1.0
 40
1.0
 10
6570.241013578993
 20
5135.437197290643
 30
0.0
 10
6570.097729025304
 20
5135.354425557329
 30
0.0
 10
6569.811160099109
 20
5135.188882195366
 30
0.0
 10
6569.524590629358
 20
5135.023340382054
 30
0.0
 10
6569.381305985075
 20
5134.940569527729
 30
0.0
  0
SPLINE
  5
1CC
330
1F
100
AcDbEntity
  8
0
  6
Continuous
 62
     7
370
    25
100
AcDbSpline
210
0.0
220
0.0
230
1.0
 70
     8
 71
     3
 72
     9
 73
     5
 74
     0
 42
0.000000001
 43
0.00000001
 40
0.0
 40
0.0
 40
0.0
 40
0.0
 40
0.5000003161276286
 40
1.0
 40
1.0
 40
1.0
 40
1.0
 10
6570.241013578993
 20
5137.024698086365
 30
0.0
 10
6570.097729025304
 20
5136.941926353051
 30
0.0
 10
6569.811160099109
 20
5136.776382991088
 30
0.0
 10
6569.524590629358
 20
5136.610841177776
 30
0.0
 10
6569.381305985075
 20
5136.528070323451
 30
0.0
  0
SPLINE
  5
1CD
330
1F
100
AcDbEntity
  8
0
  6
Continuous
 62
     7
370
    25
100
AcDbSpline
210
0.0
220
0.0
230
1.0
 70
     8
 71
     3
 72
     9
 73
     5
 74
     0
 42
0.000000001
 43
0.00000001
 40
0.0
 40
0.0
 40
0.0
 40
0.0
 40
0.4679424379007384
 40
1.0
 40
1.0
 40
1.0
 40
1.0
 10
6570.189217142683
 20
5138.582271762474
 30
0.0
 10
6570.063197810809
 20
5138.509476189467
 30
0.0
 10
6569.793892610709
 20
5138.353910959408
 30
0.0
 10
6569.524590310431
 20
5138.198341280581
 30
0.0
 10
6569.381305985075
 20
5138.115569256528
 30
0.0
  0
LINE
  5
1CE
330
1F
100
AcDbEntity
  8
0
  6
Continuous
 62
     7
370
    25
100
AcDbLine
 10
6570.241013579
 20
5130.6746967661
 30
0.0
 11
6569.9780080839
 21
5130.5227645266
 31
0.0
  0
SPLINE
  5
1CF
330
1F
100
AcDbEntity
  8
0
  6
Continuous
 62
     7
370
    25
100
AcDbSpline
210
0.0
220
0.0
230
1.0
 70
     8
 71
     3
 72
     9
 73
     5
 74
     0
 42
0.000000001
 43
0.00000001
 40
0.0
 40
0.0
 40
0.0
 40
0.0
 40
0.4387582715458103
 40
1.0
 40
1.0
 40
1.0
 40
1.0
 10
6595.710167698485
 20
5131.029137648924
 30
0.0
 10
6595.599953516682
 20
5131.092802433745
 30
0.0
 10
6595.348757837988
 20
5131.237904620868
 30
0.0
 10
6595.097565689936
 20
5131.383013452581
 30
0.0
 10
6594.95658617459
 20
5131.464454584106
 30
0.0
  0
LINE
  5
1D0
330
1F
100
AcDbEntity
  8
0
  6
Continuous
 62
     7
370
    25
100
AcDbLine
 10
6569.3748388811
 20
5131.75791619
 30
0.0
 11
6569.3748388811
 21
5131.3612174767
 31
0.0
  0
LINE
  5
1D1
330
1F
100
AcDbEntity
  8
0
  6
Continuous
 62
     7
370
    25
100
AcDbLine
 10
6569.3748388811
 20
5133.3454169857
 30
0.0
 11
6569.3748388811
 21
5132.9487164098
 31
0.0
  0
LINE
  5
1D2
330
1F
100
AcDbEntity
  8
0
  6
Continuous
 62
     7
370
    25
100
AcDbLine
 10
6569.3748388811
 20
5134.9329177815
 30
0.0
 11
6569.3748388811
 21
5134.5362172055
 31
0.0
  0
LINE
  5
1D3
330
1F
100
AcDbEntity
  8
0
  6
Continuous
 62
     7
370
    25
100
AcDbLine
 10
6569.3748388811
 20
5136.5204167145
 30
0.0
 11
6569.3748388811
 21
5136.1237161386
 31
0.0
  0
LINE
  5
1D4
330
1F
100
AcDbEntity
  8
0
  6
Continuous
 62
     7
370
    25
100
AcDbLine
 10
6569.3748388811
 20
5138.1079175103
 30
0.0
 11
6569.3748388811
 21
5137.7112169343
 31
0.0
  0
LINE
  5
1D5
330
1F
100
AcDbEntity
  8
0
  6
Continuous
 62
     7
370
    25
100
AcDbLine
 10
6595.8158467337
 20
5138.5047913122
 30
0.0
 11
6595.8158467337
 21
5138.5822717625
 31
0.0
  0
LINE
  5
1D6
330
1F
100
AcDbEntity
  8
0
  6
Continuous
 62
     7
370
    25
100
AcDbLine
 10
6595.8158467337
 20
5136.9172923791
 30
0.0
 11
6595.8158467337
 21
5137.3144306767
 31
0.0
  0
LINE
  5
1D7
330
1F
100
AcDbEntity
  8
0
  6
Continuous
 62
     7
370
    25
100
AcDbLine
 10
6595.8158467337
 20
5135.3297915834
 30
0.0
 11
6595.8158467337
 21
5135.7269317436
 31
0.0
  0
LINE
  5
1D8
330
1F
100
AcDbEntity
  8
0
  6
Continuous
 62
     7
370
    25
100
AcDbLine
 10
6595.8158467337
 20
5133.7422926503
 30
0.0
 11
6595.8158467337
 21
5134.1394309479
 31
0.0
  0
LINE
  5
1D9
330
1F
100
AcDbEntity
  8
0
  6
Continuous
 62
     7
370
    25
100
AcDbLine
 10
6595.8158467337
 20
5132.1547918546
 30
0.0
 11
6595.8158467337
 21
5132.5519301522
 31
0.0
  0
SPLINE
  5
1DA
330
1F
100
AcDbEntity
  8
0
  6
Continuous
 62
     7
370
    25
100
AcDbSpline
210
0.0
220
0.0
230
1.0
 70
     8
 71
     3
 72
     9
 73
     5
 74
     0
 42
0.000000001
 43
0.00000001
 40
0.0
 40
0.0
 40
0.0
 40
0.0
 40
0.499993384771071
 40
1.0
 40
1.0
 40
1.0
 40
1.0
 10
6594.949672035796
 20
5133.238251559718
 30
0.0
 10
6595.092956340904
 20
5133.321023090631
 30
0.0
 10
6595.379528742603
 20
5133.486568342695
 30
0.0
 10
6595.666104670941
 20
5133.652107024172
 30
0.0
 10
6595.809394530875
 20
5133.734877459987
 30
0.0
  0
SPLINE
  5
1DB
330
1F
100
AcDbEntity
  8
0
  6
Continuous
 62
     7
370
    25
100
AcDbSpline
210
0.0
220
0.0
230
1.0
 70
     8
 71
     3
 72
     9
 73
     5
 74
     0
 42
0.000000001
 43
0.00000001
 40
0.0
 40
0.0
 40
0.0
 40
0.0
 40
0.499993384771071
 40
1.0
 40
1.0
 40
1.0
 40
1.0
 10
6594.949672035796
 20
5134.82575235544
 30
0.0
 10
6595.092956340904
 20
5134.908523886353
 30
0.0
 10
6595.379528742603
 20
5135.074069138417
 30
0.0
 10
6595.666104670941
 20
5135.239607819894
 30
0.0
 10
6595.809394530875
 20
5135.322378255709
 30
0.0
  0
SPLINE
  5
1DC
330
1F
100
AcDbEntity
  8
0
  6
Continuous
 62
     7
370
    25
100
AcDbSpline
210
0.0
220
0.0
230
1.0
 70
     8
 71
     3
 72
     9
 73
     5
 74
     0
 42
0.000000001
 43
0.00000001
 40
0.0
 40
0.0
 40
0.0
 40
0.0
 40
0.4999929155596842
 40
1.0
 40
1.0
 40
1.0
 40
1.0
 10
6594.949672035796
 20
5136.413253151162
 30
0.0
 10
6595.092956408134
 20
5136.49602394481
 30
0.0
 10
6595.379529213226
 20
5136.661567877677
 30
0.0
 10
6595.666104738174
 20
5136.827106636583
 30
0.0
 10
6595.809394530875
 20
5136.909877188786
 30
0.0
  0
SPLINE
  5
1DD
330
1F
100
AcDbEntity
  8
0
  6
Continuous
 62
     7
370
    25
100
AcDbSpline
210
0.0
220
0.0
230
1.0
 70
     8
 71
     3
 72
     9
 73
     5
 74
     0
 42
0.000000001
 43
0.00000001
 40
0.0
 40
0.0
 40
0.0
 40
0.0
 40
0.499993384771071
 40
1.0
 40
1.0
 40
1.0
 40
1.0
 10
6594.949672035796
 20
5138.000752084239
 30
0.0
 10
6595.092956340904
 20
5138.083523615152
 30
0.0
 10
6595.379528742603
 20
5138.249068867216
 30
0.0
 10
6595.666104670941
 20
5138.414607548693
 30
0.0
 10
6595.809394530875
 20
5138.497377984508
 30
0.0
  0
SPLINE
  5
1DE
330
1F
100
AcDbEntity
  8
0
  6
Continuous
 62
     7
370
    25
100
AcDbSpline
210
0.0
220
0.0
230
1.0
 70
     8
 71
     3
 72
     9
 73
     5
 74
     0
 42
0.000000001
 43
0.00000001
 40
0.0
 40
0.0
 40
0.0
 40
0.0
 40
0.5040537897325799
 40
1.0
 40
1.0
 40
1.0
 40
1.0
 10
6569.381305985075
 20
5132.941127993448
 30
0.0
 10
6569.524590588136
 20
5132.858357056233
 30
0.0
 10
6569.808855097158
 20
5132.69414653168
 30
0.0
 10
6570.093119558088
 20
5132.529935462047
 30
0.0
 10
6570.234099440199
 20
5132.44849560438
 30
0.0
  0
SPLINE
  5
1DF
330
1F
100
AcDbEntity
  8
0
  6
Continuous
 62
     7
370
    25
100
AcDbSpline
210
0.0
220
0.0
230
1.0
 70
     8
 71
     3
 72
     9
 73
     5
 74
     0
 42
0.000000001
 43
0.00000001
 40
0.0
 40
0.0
 40
0.0
 40
0.0
 40
0.5040533205524723
 40
1.0
 40
1.0
 40
1.0
 40
1.0
 10
6569.381305985075
 20
5134.528626926525
 30
0.0
 10
6569.52459065591
 20
5134.445856727518
 30
0.0
 10
6569.808855563992
 20
5134.281647514659
 30
0.0
 10
6570.093119623702
 20
5134.117436371354
 30
0.0
 10
6570.234099440199
 20
5134.035996400102
 30
0.0
  0
SPLINE
  5
1E0
330
1F
100
AcDbEntity
  8
0
  6
Continuous
 62
     7
370
    25
100
AcDbSpline
210
0.0
220
0.0
230
1.0
 70
     8
 71
     3
 72
     9
 73
     5
 74
     0
 42
0.000000001
 43
0.00000001
 40
0.0
 40
0.0
 40
0.0
 40
0.0
 40
0.5040537897325799
 40
1.0
 40
1.0
 40
1.0
 40
1.0
 10
6569.381305985075
 20
5136.116127722247
 30
0.0
 10
6569.524590588136
 20
5136.033356785032
 30
0.0
 10
6569.808855097158
 20
5135.869146260478
 30
0.0
 10
6570.093119558088
 20
5135.704935190846
 30
0.0
 10
6570.234099440199
 20
5135.623495333179
 30
0.0
  0
SPLINE
  5
1E1
330
1F
100
AcDbEntity
  8
0
  6
Continuous
 62
     7
370
    25
100
AcDbSpline
210
0.0
220
0.0
230
1.0
 70
     8
 71
     3
 72
     9
 73
     5
 74
     0
 42
0.000000001
 43
0.00000001
 40
0.0
 40
0.0
 40
0.0
 40
0.0
 40
0.5040537897325799
 40
1.0
 40
1.0
 40
1.0
 40
1.0
 10
6569.381305985075
 20
5137.703628517969
 30
0.0
 10
6569.524590588136
 20
5137.620857580754
 30
0.0
 10
6569.808855097158
 20
5137.4566470562
 30
0.0
 10
6570.093119558088
 20
5137.292435986568
 30
0.0
 10
6570.234099440199
 20
5137.210996128901
 30
0.0
  0
SPLINE
  5
1E2
330
1F
100
AcDbEntity
  8
0
  6
Continuous
 62
     7
370
    25
100
AcDbSpline
210
0.0
220
0.0
230
1.0
 70
     8
 71
     3
 72
     9
 73
     5
 74
     0
 42
0.000000001
 43
0.00000001
 40
0.0
 40
0.0
 40
0.0
 40
0.0
 40
0.504054266583736
 40
1.0
 40
1.0
 40
1.0
 40
1.0
 10
6569.381305985075
 20
5131.353627197726
 30
0.0
 10
6569.524590519251
 20
5131.270856141266
 30
0.0
 10
6569.80885462269
 20
5131.106645535488
 30
0.0
 10
6570.093119491402
 20
5130.942435792649
 30
0.0
 10
6570.234099440199
 20
5130.860996671303
 30
0.0
  0
SPLINE
  5
1E3
330
1F
100
AcDbEntity
  8
0
  6
Continuous
 62
     7
370
    25
100
AcDbSpline
210
0.0
220
0.0
230
1.0
 70
     8
 71
     3
 72
     9
 73
     5
 74
     0
 42
0.000000001
 43
0.00000001
 40
0.0
 40
0.0
 40
0.0
 40
0.0
 40
0.499993384771071
 40
1.0
 40
1.0
 40
1.0
 40
1.0
 10
6594.949672035796
 20
5131.650752626641
 30
0.0
 10
6595.092956340904
 20
5131.733524157554
 30
0.0
 10
6595.379528742603
 20
5131.899069409618
 30
0.0
 10
6595.666104670941
 20
5132.064608091096
 30
0.0
 10
6595.809394530875
 20
5132.14737852691
 30
0.0
  0
LINE
  5
1E4
330
1F
100
AcDbEntity
  8
0
  6
Continuous
 62
     7
370
    25
100
AcDbLine
 10
6594.9565861746
 20
5133.0477458018
 30
0.0
 11
6594.9565861746
 21
5133.2422450709
 31
0.0
  0
LINE
  5
1E5
330
1F
100
AcDbEntity
  8
0
  6
Continuous
 62
     7
370
    25
100
AcDbLine
 10
6594.9565861746
 20
5134.6352465975
 30
0.0
 11
6594.9565861746
 21
5134.8297458666
 31
0.0
  0
LINE
  5
1E6
330
1F
100
AcDbEntity
  8
0
  6
Continuous
 62
     7
370
    25
100
AcDbLine
 10
6594.9565861746
 20
5136.2227455306
 30
0.0
 11
6594.9565861746
 21
5136.4172447997
 31
0.0
  0
LINE
  5
1E7
330
1F
100
AcDbEntity
  8
0
  6
Continuous
 62
     7
370
    25
100
AcDbLine
 10
6594.9565861746
 20
5137.8102463263
 30
0.0
 11
6594.9565861746
 21
5138.0047455954
 31
0.0
  0
LINE
  5
1E8
330
1F
100
AcDbEntity
  8
0
  6
Continuous
 62
     7
370
    25
100
AcDbLine
 10
6570.2340994402
 20
5132.4525524455
 30
0.0
 11
6570.2340994402
 21
5132.2582040506
 31
0.0
  0
LINE
  5
1E9
330
1F
100
AcDbEntity
  8
0
  6
Continuous
 62
     7
370
    25
100
AcDbLine
 10
6570.2340994402
 20
5134.0400513786
 30
0.0
 11
6570.2340994402
 21
5133.8457029837
 31
0.0
  0
LINE
  5
1EA
330
1F
100
AcDbEntity
  8
0
  6
Continuous
 62
     7
370
    25
100
AcDbLine
 10
6570.2340994402
 20
5135.6275521743
 30
0.0
 11
6570.2340994402
 21
5135.4332037794
 31
0.0
  0
LINE
  5
1EB
330
1F
100
AcDbEntity
  8
0
  6
Continuous
 62
     7
370
    25
100
AcDbLine
 10
6570.2340994402
 20
5137.2150511074
 30
0.0
 11
6570.2340994402
 21
5137.0207027125
 31
0.0
  0
LINE
  5
1EC
330
1F
100
AcDbEntity
  8
0
  6
Continuous
 62
     7
370
    25
100
AcDbLine
 10
6570.2340994402
 20
5130.8650516498
 30
0.0
 11
6570.2340994402
 21
5130.6707032549
 31
0.0
  0
LINE
  5
1ED
330
1F
100
AcDbEntity
  8
0
  6
Continuous
 62
     7
370
    25
100
AcDbLine
 10
6594.9565861746
 20
5131.4602468687
 30
0.0
 11
6594.9565861746
 21
5131.6547442752
 31
0.0
  0
LINE
  5
1EE
330
1F
100
AcDbEntity
  8
0
  6
Continuous
 62
     7
370
    25
100
AcDbLine
 10
6626.6953442617
 20
5265.4597305286
 30
0.0
 11
6629.5953411981
 21
5265.4597305286
 31
0.0
  0
LINE
  5
1EF
330
1F
100
AcDbEntity
  8
0
  6
Continuous
 62
     7
370
    25
100
AcDbLine
 10
6626.6953442617
 20
5284.5822789299
 30
0.0
 11
6626.6953442617
 21
5265.4597305286
 31
0.0
  0
LINE
  5
1F0
330
1F
100
AcDbEntity
  8
0
  6
Continuous
 62
     7
370
    25
100
AcDbLine
 10
6626.6953442617
 20
5284.5822789299
 30
0.0
 11
6629.5953411981
 21
5284.5822789299
 31
0.0
  0
LINE
  5
1F1
330
1F
100
AcDbEntity
  8
0
  6
Continuous
 62
     7
370
    25
100
AcDbLine
 10
6629.5953411981
 20
5284.5822789299
 30
0.0
 11
6629.5953411981
 21
5267.3117064464
 31
0.0
  0
LINE
  5
1F2
330
1F
100
AcDbEntity
  8
0
  6
Continuous
 62
     7
370
    25
100
AcDbLine
 10
6626.6953442617
 20
5144.582272746
 30
0.0
 11
6629.5953411981
 21
5144.582272746
 31
0.0
  0
LINE
  5
1F3
330
1F
100
AcDbEntity
  8
0
  6
Continuous
 62
     7
370
    25
100
AcDbLine
 10
6626.6953442617
 20
5144.582272746
 30
0.0
 11
6626.6953442617
 21
5163.7048122997
 31
0.0
  0
LINE
  5
1F4
330
1F
100
AcDbEntity
  8
0
  6
Continuous
 62
     7
370
    25
100
AcDbLine
 10
6626.6953442617
 20
5163.7048122997
 30
0.0
 11
6629.5953411981
 21
5163.7048122997
 31
0.0
  0
LINE
  5
1F5
330
1F
100
AcDbEntity
  8
0
  6
Continuous
 62
     7
370
    25
100
AcDbLine
 10
6629.5953411981
 20
5265.4597305286
 30
0.0
 11
6629.5953411981
 21
5163.7048122997
 31
0.0
  0
LINE
  5
1F6
330
1F
100
AcDbEntity
  8
0
  6
Continuous
 62
     7
370
    25
100
AcDbLine
 10
6626.6953442617
 20
5265.4597305286
 30
0.0
 11
6626.6953442617
 21
5163.7048122997
 31
0.0
  0
LINE
  5
1F7
330
1F
100
AcDbEntity
  8
0
  6
Continuous
 62
     7
370
    25
100
AcDbLine
 10
6626.6953442617
 20
5160.1533404377
 30
0.0
 11
6557.0953432842
 21
5160.1533404377
 31
0.0
  0
LINE
  5
1F8
330
1F
100
AcDbEntity
  8
0
  6
Continuous
 62
     7
370
    25
100
AcDbLine
 10
6626.6953442617
 20
5165.5675538409
 30
0.0
 11
6557.0953432842
 21
5165.5675538409
 31
0.0
  0
LINE
  5
1F9
330
1F
100
AcDbEntity
  8
0
  6
Continuous
 62
     7
370
    25
100
AcDbLine
 10
6557.0953432842
 20
5165.5675538409
 30
0.0
 11
6557.0953432842
 21
5160.1533404377
 31
0.0
  0
LINE
  5
1FA
330
1F
100
AcDbEntity
  8
0
  6
Continuous
 62
     7
370
    25
100
AcDbLine
 10
6626.6953442617
 20
5155.9106996342
 30
0.0
 11
6557.0953432842
 21
5155.9106996342
 31
0.0
  0
LINE
  5
1FB
330
1F
100
AcDbEntity
  8
0
  6
Continuous
 62
     7
370
    25
100
AcDbLine
 10
6557.0953432842
 20
5155.9106996342
 30
0.0
 11
6557.0953432842
 21
5149.0822725522
 31
0.0
  0
LINE
  5
1FC
330
1F
100
AcDbEntity
  8
0
  6
Continuous
 62
     7
370
    25
100
AcDbLine
 10
6626.6953442617
 20
5273.2538424957
 30
0.0
 11
6557.0953432842
 21
5273.2538424957
 31
0.0
  0
LINE
  5
1FD
330
1F
100
AcDbEntity
  8
0
  6
Continuous
 62
     7
370
    25
100
AcDbLine
 10
6557.0953432842
 20
5273.2538424957
 30
0.0
 11
6557.0953432842
 21
5280.0822698104
 31
0.0
  0
LINE
  5
1FE
330
1F
100
AcDbEntity
  8
0
  6
Continuous
 62
     7
370
    25
100
AcDbLine
 10
6626.6953442617
 20
5263.5969885218
 30
0.0
 11
6557.0953432842
 21
5263.5969885218
 31
0.0
  0
LINE
  5
1FF
330
1F
100
AcDbEntity
  8
0
  6
Continuous
 62
     7
370
    25
100
AcDbLine
 10
6557.0953432842
 20
5165.5675538409
 30
0.0
 11
6557.0953432842
 21
5263.5969885218
 31
0.0
  0
LINE
  5
200
330
1F
100
AcDbEntity
  8
0
  6
Continuous
 62
     7
370
    25
100
AcDbLine
 10
6626.6953442617
 20
5269.0112062323
 30
0.0
 11
6557.0953432842
 21
5269.0112062323
 31
0.0
  0
LINE
  5
201
330
1F
100
AcDbEntity
  8
0
  6
Continuous
 62
     7
370
    25
100
AcDbLine
 10
6557.0953432842
 20
5263.5969885218
 30
0.0
 11
6557.0953432842
 21
5269.0112062323
 31
0.0
  0
LINE
  5
202
330
1F
100
AcDbEntity
  8
0
  6
Continuous
 62
     7
370
    25
100
AcDbLine
 10
6557.0953432842
 20
5269.0112062323
 30
0.0
 11
6557.0953432842
 21
5273.2538424957
 31
0.0
  0
LINE
  5
203
330
1F
100
AcDbEntity
  8
0
  6
Continuous
 62
     7
370
    25
100
AcDbLine
 10
6557.0953432842
 20
5160.1533404377
 30
0.0
 11
6557.0953432842
 21
5155.9106996342
 31
0.0
  0
LINE
  5
204
330
1F
100
AcDbEntity
  8
0
  6
Continuous
 62
     7
370
    25
100
AcDbLine
 10
6626.6953442617
 20
5149.0822725522
 30
0.0
 11
6557.0953432842
 21
5149.0822725522
 31
0.0
  0
LINE
  5
205
330
1F
100
AcDbEntity
  8
0
  6
Continuous
 62
     7
370
    25
100
AcDbLine
 10
6626.6953442617
 20
5280.0822698104
 30
0.0
 11
6557.0953432842
 21
5280.0822698104
 31
0.0
  0
LINE
  5
206
330
1F
100
AcDbEntity
  8
0
  6
Continuous
 62
     7
370
    25
100
AcDbLine
 10
6608.0950592085
 20
5147.0822722244
 30
0.0
 11
6605.095351152
 21
5147.0822722244
 31
0.0
  0
LINE
  5
207
330
1F
100
AcDbEntity
  8
0
  6
Continuous
 62
     7
370
    25
100
AcDbLine
 10
6603.4230683371
 20
5147.3822726461
 30
0.0
 11
6612.3953406139
 21
5147.3822726461
 31
0.0
  0
LINE
  5
208
330
1F
100
AcDbEntity
  8
0
  6
Continuous
 62
     7
370
    25
100
AcDbLine
 10
6600.7953379675
 20
5147.3822726461
 30
0.0
 11
6603.4230683371
 21
5147.3822726461
 31
0.0
  0
SPLINE
  5
209
330
1F
100
AcDbEntity
  8
0
  6
Continuous
 62
     7
370
    25
100
AcDbSpline
210
0.0
220
0.0
230
1.0
 70
     8
 71
     3
 72
    18
 73
    14
 74
     0
 42
0.000000001
 43
0.00000001
 40
0.0
 40
0.0
 40
0.0
 40
0.0
 40
0.090744643737006
 40
0.1814898654136826
 40
0.2746720891009378
 40
0.3687539356009906
 40
0.4656164640912975
 40
0.5588441187432245
 40
0.6547748514878946
 40
0.7480036135676082
 40
0.843974758907169
 40
0.9365482407341656
 40
1.0
 40
1.0
 40
1.0
 40
1.0
 10
6579.797694496733
 20
5298.082269035562
 30
0.0
 10
6580.495732911476
 20
5298.091043703713
 30
0.0
 10
6581.891814186667
 20
5298.108593095901
 30
0.0
 10
6584.036826111739
 20
5298.135101078584
 30
0.0
 10
6586.161252694396
 20
5298.160291965851
 30
0.0
 10
6588.230356486362
 20
5298.18662521449
 30
0.0
 10
6590.134596254045
 20
5298.214339326887
 30
0.0
 10
6591.830052998397
 20
5298.242330732736
 30
0.0
 10
6593.238880514159
 20
5298.269526393134
 30
0.0
 10
6594.35779560879
 20
5298.295231634225
 30
0.0
 10
6595.110403590951
 20
5298.322362878796
 30
0.0
 10
6595.510170709224
 20
5298.347289583807
 30
0.0
 10
6595.49360903677
 20
5298.362573114227
 30
0.0
 10
6595.486873797995
 20
5298.368788562997
 30
0.0
  0
SPLINE
  5
20A
330
1F
100
AcDbEntity
  8
0
  6
Continuous
 62
     7
370
    25
100
AcDbSpline
210
0.0
220
0.0
230
1.0
 70
     8
 71
     3
 72
    10
 73
     6
 74
     0
 42
0.000000001
 43
0.00000001
 40
0.0
 40
0.0
 40
0.0
 40
0.0
 40
0.3007700127563411
 40
0.6907296125042635
 40
1.0
 40
1.0
 40
1.0
 40
1.0
 10
6570.19279342137
 20
5298.872015677674
 30
0.0
 10
6570.2104164698
 20
5298.879203655932
 30
0.0
 10
6570.250888461345
 20
5298.895711117533
 30
0.0
 10
6570.681992776812
 20
5298.917888107275
 30
0.0
 10
6571.19054503555
 20
5298.934279610268
 30
0.0
 10
6571.415478400809
 20
5298.941529594644
 30
0.0
  0
LINE
  5
20B
330
1F
100
AcDbEntity
  8
0
  6
Continuous
 62
     7
370
    25
100
AcDbLine
 10
6579.7976944967
 20
5298.0822690356
 30
0.0
 11
6569.3748388811
 21
5298.0822690356
 31
0.0
  0
SPLINE
  5
20C
330
1F
100
AcDbEntity
  8
0
  6
Continuous
 62
     7
370
    25
100
AcDbSpline
210
0.0
220
0.0
230
1.0
 70
     8
 71
     3
 72
    15
 73
    11
 74
     0
 42
0.000000001
 43
0.00000001
 40
0.0
 40
0.0
 40
0.0
 40
0.0
 40
0.1354914103674043
 40
0.2702817424253773
 40
0.408968227975868
 40
0.5439871860437135
 40
0.6829070679511413
 40
0.8181614877986594
 40
0.9571792152727462
 40
1.0
 40
1.0
 40
1.0
 40
1.0
 10
6578.418979458434
 20
5298.941529594644
 30
0.0
 10
6577.754631426966
 20
5298.907986412401
 30
0.0
 10
6576.429372925078
 20
5298.841073611669
 30
0.0
 10
6574.617984414316
 20
5298.743965956839
 30
0.0
 10
6573.012404223724
 20
5298.640848814274
 30
0.0
 10
6571.656539159246
 20
5298.537255776586
 30
0.0
 10
6570.602811580877
 20
5298.436231628321
 30
0.0
 10
6569.891176340269
 20
5298.341716849679
 30
0.0
 10
6569.551993397567
 20
5298.267057598322
 30
0.0
 10
6569.535944632371
 20
5298.223071903313
 30
0.0
 10
6569.532165341002
 20
5298.212713800653
 30
0.0
  0
SPLINE
  5
20D
330
1F
100
AcDbEntity
  8
0
  6
Continuous
 62
     7
370
    25
100
AcDbSpline
210
0.0
220
0.0
230
1.0
 70
    24
 71
     3
 72
    13
 73
     9
 74
     0
 42
0.000000001
 43
0.00000001
 40
0.0
 40
0.0
 40
0.0
 40
0.0
 40
0.0409237822044779
 40
0.2049395970570146
 40
0.41965768921613
 40
0.6343765159489341
 40
0.8171889578846723
 40
1.0
 40
1.0
 40
1.0
 40
1.0
 10
6571.415478400809
 20
5298.941529594644
 30
0.0
 10
6571.473132557777
 20
5298.941529594644
 30
0.0
 10
6571.761855130841
 20
5298.941529594644
 30
0.0
 10
6572.461497472203
 20
5298.941529594644
 30
0.0
 10
6573.682646410209
 20
5298.941529594644
 30
0.0
 10
6575.183135850421
 20
5298.941529594644
 30
0.0
 10
6576.77410708816
 20
5298.941529594644
 30
0.0
 10
6577.870690067796
 20
5298.941529594644
 30
0.0
 10
6578.418979458434
 20
5298.941529594644
 30
0.0
  0
LINE
  5
20E
330
1F
100
AcDbEntity
  8
0
  6
Continuous
 62
     7
370
    25
100
AcDbLine
 10
6585.5503771826
 20
5299.582279526
 30
0.0
 11
6594.3158511444
 21
5299.582279526
 31
0.0
  0
LINE
  5
20F
330
1F
100
AcDbEntity
  8
0
  6
Continuous
 62
     7
370
    25
100
AcDbLine
 10
6570.8748493715
 20
5299.582279526
 30
0.0
 11
6585.5503771826
 21
5299.582279526
 31
0.0
  0
LINE
  5
210
330
1F
100
AcDbEntity
  8
0
  6
Continuous
 62
     7
370
    25
100
AcDbLine
 10
6579.2679582163
 20
5290.5822761881
 30
0.0
 11
6579.2679582163
 21
5280.0822698104
 31
0.0
  0
LINE
  5
211
330
1F
100
AcDbEntity
  8
0
  6
Continuous
 62
     7
370
    25
100
AcDbLine
 10
6568.3218483254
 20
5290.5822761881
 30
0.0
 11
6568.3218483254
 21
5280.0822698104
 31
0.0
  0
LINE
  5
212
330
1F
100
AcDbEntity
  8
0
  6
Continuous
 62
     7
370
    25
100
AcDbLine
 10
6568.3218483254
 20
5290.5822761881
 30
0.0
 11
6572.5191329046
 21
5290.5822761881
 31
0.0
  0
LINE
  5
213
330
1F
100
AcDbEntity
  8
0
  6
Continuous
 62
     7
370
    25
100
AcDbLine
 10
6575.1036797091
 20
5290.5822761881
 30
0.0
 11
6579.2679582163
 21
5290.5822761881
 31
0.0
  0
SPLINE
  5
214
330
1F
100
AcDbEntity
  8
0
  6
Continuous
 62
     7
370
    25
100
AcDbSpline
210
0.0
220
0.0
230
1.0
 70
    24
 71
     3
 72
    10
 73
     6
 74
     0
 42
0.000000001
 43
0.00000001
 40
0.0
 40
0.0
 40
0.0
 40
0.0
 40
0.0685895853039497
 40
0.5300998784205074
 40
1.0
 40
1.0
 40
1.0
 40
1.0
 10
6572.519132904631
 20
5290.582276188119
 30
0.0
 10
6572.569607798916
 20
5290.582276188119
 30
0.0
 10
6572.959706896396
 20
5290.582276188119
 30
0.0
 10
6573.769585429753
 20
5290.582276188119
 30
0.0
 10
6574.656319150627
 20
5290.582276188119
 30
0.0
 10
6575.103679709059
 20
5290.582276188119
 30
0.0
  0
SPLINE
  5
215
330
1F
100
AcDbEntity
  8
0
  6
Continuous
 62
     7
370
    25
100
AcDbSpline
210
0.0
220
0.0
230
1.0
 70
     8
 71
     3
 72
    14
 73
    10
 74
     0
 42
0.000000001
 43
0.00000001
 40
0.0
 40
0.0
 40
0.0
 40
0.0
 40
0.0991138079780378
 40
0.1967365959270332
 40
0.3818923595930521
 40
0.5696019443907997
 40
0.7552628179811549
 40
0.9379753567688873
 40
0.9999999999999999
 40
0.9999999999999999
 40
0.9999999999999999
 40
0.9999999999999999
 10
6578.418979458434
 20
5298.941529594644
 30
0.0
 10
6577.967517651924
 20
5298.931615719409
 30
0.0
 10
6577.071385611236
 20
5298.911937108469
 30
0.0
 10
6575.449402106282
 20
5298.875895276152
 30
0.0
 10
6573.655357139444
 20
5298.82842408952
 30
0.0
 10
6571.956460091144
 20
5298.770629870229
 30
0.0
 10
6570.826213051875
 20
5298.714239871492
 30
0.0
 10
6570.270408665314
 20
5298.673899941746
 30
0.0
 10
6570.30179761798
 20
5298.648807626075
 30
0.0
 10
6570.30975263558
 20
5298.642448388322
 30
0.0
  0
SPLINE
  5
216
330
1F
100
AcDbEntity
  8
0
  6
Continuous
 62
     7
370
    25
100
AcDbSpline
210
0.0
220
0.0
230
1.0
 70
     8
 71
     3
 72
    24
 73
    20
 74
     0
 42
0.000000001
 43
0.00000001
 40
0.0
 40
0.0
 40
0.0
 40
0.0
 40
0.020994668527016
 40
0.0928835159777883
 40
0.1636022780449885
 40
0.2338704389193615
 40
0.3056493679009931
 40
0.3772310722019281
 40
0.4472278069915393
 40
0.5183539108613374
 40
0.5902646833753163
 40
0.616903271457753
 40
0.6548734549509437
 40
0.6922724256866549
 40
0.763204985172236
 40
0.8351159131036454
 40
0.9062419864729085
 40
0.9762385701340842
 40
1.0
 40
1.0
 40
1.0
 40
1.0
 10
6594.893584065062
 20
5297.840050660356
 30
0.0
 10
6594.912286307765
 20
5297.834539649463
 30
0.0
 10
6594.995027793139
 20
5297.810158122908
 30
0.0
 10
6594.525705333815
 20
5297.765421887882
 30
0.0
 10
6593.501285946109
 20
5297.710601633193
 30
0.0
 10
6591.908687925461
 20
5297.657057803276
 30
0.0
 10
6589.867405026069
 20
5297.599260780376
 30
0.0
 10
6587.468902637916
 20
5297.54186593605
 30
0.0
 10
6584.844229718634
 20
5297.489240231622
 30
0.0
 10
6582.106737981644
 20
5297.433034628551
 30
0.0
 10
6579.942488959208
 20
5297.387088175506
 30
0.0
 10
6578.276032503358
 20
5297.350992434637
 30
0.0
 10
6577.073809840071
 20
5297.324447726834
 30
0.0
 10
6575.448090209122
 20
5297.288371417924
 30
0.0
 10
6573.655803176096
 20
5297.24093941076
 30
0.0
 10
6571.95634101682
 20
5297.183129020655
 30
0.0
 10
6570.826245107847
 20
5297.126756512015
 30
0.0
 10
6570.270406425058
 20
5297.086375187964
 30
0.0
 10
6570.301797167151
 20
5297.061306442636
 30
0.0
 10
6570.30975263558
 20
5297.054953180535
 30
0.0
  0
SPLINE
  5
217
330
1F
100
AcDbEntity
  8
0
  6
Continuous
 62
     7
370
    25
100
AcDbSpline
210
0.0
220
0.0
230
1.0
 70
     8
 71
     3
 72
    24
 73
    20
 74
     0
 42
0.000000001
 43
0.00000001
 40
0.0
 40
0.0
 40
0.0
 40
0.0
 40
0.0209946763799363
 40
0.0928835151647524
 40
0.163602276716387
 40
0.2338704448517414
 40
0.3056493651936039
 40
0.3772310689726821
 40
0.4472278109626651
 40
0.5183539063457973
 40
0.5902646783355203
 40
0.616903266223752
 40
0.6548734494401262
 40
0.6922724199031852
 40
0.763204986795543
 40
0.8351159142026955
 40
0.9062419790852895
 40
0.9762385622361645
 40
1.0
 40
1.0
 40
1.0
 40
1.0
 10
6594.893584065062
 20
5296.252555452569
 30
0.0
 10
6594.912286312227
 20
5296.247038636866
 30
0.0
 10
6594.995027785671
 20
5296.222631438313
 30
0.0
 10
6594.525705314404
 20
5296.177936632826
 30
0.0
 10
6593.501285819669
 20
5296.123110068422
 30
0.0
 10
6591.908688196895
 20
5296.069538149151
 30
0.0
 10
6589.867404876647
 20
5296.011770384953
 30
0.0
 10
6587.468902437434
 20
5295.954376019374
 30
0.0
 10
6584.844230124424
 20
5295.90171966248
 30
0.0
 10
6582.106737735767
 20
5295.84554656987
 30
0.0
 10
6579.942488972796
 20
5295.799592279447
 30
0.0
 10
6578.276032499019
 20
5295.763497463703
 30
0.0
 10
6577.073809848811
 20
5295.736951960549
 30
0.0
 10
6575.448090081165
 20
5295.700878814527
 30
0.0
 10
6573.655803326252
 20
5295.653424445816
 30
0.0
 10
6571.956341097368
 20
5295.595616286462
 30
0.0
 10
6570.826245029511
 20
5295.539261434824
 30
0.0
 10
6570.270406414919
 20
5295.498892734937
 30
0.0
 10
6570.301797163492
 20
5295.473801926766
 30
0.0
 10
6570.30975263558
 20
5295.467443071588
 30
0.0
  0
SPLINE
  5
218
330
1F
100
AcDbEntity
  8
0
  6
Continuous
 62
     7
370
    25
100
AcDbSpline
210
0.0
220
0.0
230
1.0
 70
     8
 71
     3
 72
    24
 73
    20
 74
     0
 42
0.000000001
 43
0.00000001
 40
0.0
 40
0.0
 40
0.0
 40
0.0
 40
0.0209946763713461
 40
0.0928835151267482
 40
0.1636022766494475
 40
0.233870444756051
 40
0.305649373185019
 40
0.3772310688634525
 40
0.4472278108247956
 40
0.5183539141469565
 40
0.5902646861072566
 40
0.6169032739845889
 40
0.6548734493238952
 40
0.6922724197716522
 40
0.7632049866349873
 40
0.8351159140127165
 40
0.9062419868343426
 40
0.9762385622458868
 40
1.0
 40
1.0
 40
1.0
 40
1.0
 10
6594.893584065062
 20
5294.665060244783
 30
0.0
 10
6594.912286312321
 20
5294.659543423492
 30
0.0
 10
6594.995027786183
 20
5294.635136200216
 30
0.0
 10
6594.525705305881
 20
5294.590441929145
 30
0.0
 10
6593.501285849833
 20
5294.535613076466
 30
0.0
 10
6591.908688023555
 20
5294.482049598682
 30
0.0
 10
6589.867405219977
 20
5294.424249753714
 30
0.0
 10
6587.468902255167
 20
5294.366886017349
 30
0.0
 10
6584.84422994147
 20
5294.314228251475
 30
0.0
 10
6582.106737961554
 20
5294.258030390086
 30
0.0
 10
6579.94248891839
 20
5294.212085068607
 30
0.0
 10
6578.276032662413
 20
5294.175983705378
 30
0.0
 10
6577.073809658334
 20
5294.149462174466
 30
0.0
 10
6575.448090135457
 20
5294.113380901234
 30
0.0
 10
6573.655803320229
 20
5294.065928275302
 30
0.0
 10
6571.956340991053
 20
5294.008128088376
 30
0.0
 10
6570.826245170635
 20
5293.951739686046
 30
0.0
 10
6570.270406404272
 20
5293.911399393355
 30
0.0
 10
6570.301797160816
 20
5293.886307096727
 30
0.0
 10
6570.30975263558
 20
5293.879947863801
 30
0.0
  0
SPLINE
  5
219
330
1F
100
AcDbEntity
  8
0
  6
Continuous
 62
     7
370
    25
100
AcDbSpline
210
0.0
220
0.0
230
1.0
 70
     8
 71
     3
 72
    24
 73
    20
 74
     0
 42
0.000000001
 43
0.00000001
 40
0.0
 40
0.0
 40
0.0
 40
0.0
 40
0.020994668527016
 40
0.0928835159777883
 40
0.1636022780449885
 40
0.2338704389193615
 40
0.3056493679009931
 40
0.3772310722019281
 40
0.4472278069915393
 40
0.5183539108613374
 40
0.5902646833753163
 40
0.616903271457753
 40
0.6548734549509437
 40
0.6922724256866549
 40
0.763204985172236
 40
0.8351159131036454
 40
0.9062419864729085
 40
0.9762385701340842
 40
1.0
 40
1.0
 40
1.0
 40
1.0
 10
6594.893584065062
 20
5293.077550135835
 30
0.0
 10
6594.912286307765
 20
5293.072039124942
 30
0.0
 10
6594.995027793139
 20
5293.047657598388
 30
0.0
 10
6594.525705333815
 20
5293.002921363362
 30
0.0
 10
6593.501285946109
 20
5292.948101108672
 30
0.0
 10
6591.908687925461
 20
5292.894557278755
 30
0.0
 10
6589.867405026069
 20
5292.836760255856
 30
0.0
 10
6587.468902637916
 20
5292.779365411529
 30
0.0
 10
6584.844229718634
 20
5292.726739707101
 30
0.0
 10
6582.106737981644
 20
5292.67053410403
 30
0.0
 10
6579.942488959208
 20
5292.624587650985
 30
0.0
 10
6578.276032503358
 20
5292.588491910116
 30
0.0
 10
6577.073809840071
 20
5292.561947202313
 30
0.0
 10
6575.448090209122
 20
5292.525870893403
 30
0.0
 10
6573.655803176096
 20
5292.478438886239
 30
0.0
 10
6571.95634101682
 20
5292.420628496134
 30
0.0
 10
6570.826245107847
 20
5292.364255987494
 30
0.0
 10
6570.270406425058
 20
5292.323874663443
 30
0.0
 10
6570.301797167151
 20
5292.298805918115
 30
0.0
 10
6570.30975263558
 20
5292.292452656015
 30
0.0
  0
SPLINE
  5
21A
330
1F
100
AcDbEntity
  8
0
  6
Continuous
 62
     7
370
    25
100
AcDbSpline
210
0.0
220
0.0
230
1.0
 70
     8
 71
     3
 72
    24
 73
    20
 74
     0
 42
0.000000001
 43
0.00000001
 40
0.0
 40
0.0
 40
0.0
 40
0.0
 40
0.0209946763799363
 40
0.0928835151647524
 40
0.163602276716387
 40
0.2338704448517414
 40
0.3056493651936039
 40
0.3772310689726821
 40
0.4472278109626651
 40
0.5183539063457973
 40
0.5902646783355203
 40
0.616903266223752
 40
0.6548734494401262
 40
0.6922724199031852
 40
0.763204986795543
 40
0.8351159142026955
 40
0.9062419790852895
 40
0.9762385622361645
 40
1.0
 40
1.0
 40
1.0
 40
1.0
 10
6594.893584065062
 20
5291.490054928048
 30
0.0
 10
6594.912286312227
 20
5291.484538112345
 30
0.0
 10
6594.995027785671
 20
5291.460130913792
 30
0.0
 10
6594.525705314404
 20
5291.415436108306
 30
0.0
 10
6593.501285819669
 20
5291.360609543901
 30
0.0
 10
6591.908688196895
 20
5291.307037624631
 30
0.0
 10
6589.867404876647
 20
5291.249269860432
 30
0.0
 10
6587.468902437434
 20
5291.191875494853
 30
0.0
 10
6584.844230124424
 20
5291.139219137959
 30
0.0
 10
6582.106737735767
 20
5291.083046045349
 30
0.0
 10
6579.942488972796
 20
5291.037091754926
 30
0.0
 10
6578.276032499019
 20
5291.000996939182
 30
0.0
 10
6577.073809848811
 20
5290.974451436028
 30
0.0
 10
6575.448090081165
 20
5290.938378290006
 30
0.0
 10
6573.655803326252
 20
5290.890923921295
 30
0.0
 10
6571.956341097368
 20
5290.833115761941
 30
0.0
 10
6570.826245029511
 20
5290.776760910303
 30
0.0
 10
6570.270406414919
 20
5290.736392210416
 30
0.0
 10
6570.301797163492
 20
5290.711301402245
 30
0.0
 10
6570.30975263558
 20
5290.704942547067
 30
0.0
  0
SPLINE
  5
21B
330
1F
100
AcDbEntity
  8
0
  6
Continuous
 62
     7
370
    25
100
AcDbSpline
210
0.0
220
0.0
230
1.0
 70
     8
 71
     3
 72
    22
 73
    18
 74
     0
 42
0.000000001
 43
0.00000001
 40
0.0
 40
0.0
 40
0.0
 40
0.0
 40
0.0201129520878377
 40
0.0912424178949532
 40
0.1612142852463346
 40
0.2307403923092466
 40
0.3017610855634639
 40
0.37258677742473
 40
0.441844294258362
 40
0.5122188664403368
 40
0.5833702987756175
 40
0.6535535410624584
 40
0.7229186797532605
 40
0.7938525116110688
 40
0.864786447231008
 40
0.9341513908186326
 40
1.0
 40
1.0
 40
1.0
 40
1.0
 10
6595.749774984938
 20
5297.343439661248
 30
0.0
 10
6595.76899299147
 20
5297.338095547202
 30
0.0
 10
6595.856175488366
 20
5297.313851970974
 30
0.0
 10
6595.354541541964
 20
5297.269343464592
 30
0.0
 10
6594.259514608065
 20
5297.214515470553
 30
0.0
 10
6592.556048099151
 20
5297.160944111517
 30
0.0
 10
6590.372924061592
 20
5297.103175965457
 30
0.0
 10
6587.807626077317
 20
5297.045782017433
 30
0.0
 10
6585.000710756429
 20
5296.993124569909
 30
0.0
 10
6582.072202852369
 20
5296.93695605816
 30
0.0
 10
6579.155985654862
 20
5296.878986716235
 30
0.0
 10
6576.421996720485
 20
5296.823371185018
 30
0.0
 10
6573.989537618829
 20
5296.770362974671
 30
0.0
 10
6571.961254033387
 20
5296.712761425789
 30
0.0
 10
6570.469502341248
 20
5296.65507988236
 30
0.0
 10
6569.536916995284
 20
5296.603309062092
 30
0.0
 10
6569.440406204151
 20
5296.567347025977
 30
0.0
 10
6569.393405727965
 20
5296.549833618386
 30
0.0
  0
SPLINE
  5
21C
330
1F
100
AcDbEntity
  8
0
  6
Continuous
 62
     7
370
    25
100
AcDbSpline
210
0.0
220
0.0
230
1.0
 70
     8
 71
     3
 72
    22
 73
    18
 74
     0
 42
0.000000001
 43
0.00000001
 40
0.0
 40
0.0
 40
0.0
 40
0.0
 40
0.0201129452984386
 40
0.0912424115956138
 40
0.1612142794290794
 40
0.2307403869710043
 40
0.3017610807145318
 40
0.3725867730637646
 40
0.4418442903745591
 40
0.5122188699342288
 40
0.5833703027597207
 40
0.6535535386755418
 40
0.7229186778442478
 40
0.7938525171950079
 40
0.8647864462994291
 40
0.9341513903649565
 40
1.0
 40
1.0
 40
1.0
 40
1.0
 10
6595.749774984938
 20
5295.755929552301
 30
0.0
 10
6595.768992988398
 20
5295.750591017002
 30
0.0
 10
6595.85617549477
 20
5295.726372742265
 30
0.0
 10
6595.354541531537
 20
5295.681842210711
 30
0.0
 10
6594.259514610352
 20
5295.627021883066
 30
0.0
 10
6592.556048100267
 20
5295.573448370475
 30
0.0
 10
6590.372924054622
 20
5295.51568124541
 30
0.0
 10
6587.807626103696
 20
5295.458285415939
 30
0.0
 10
6585.000710567636
 20
5295.405634364227
 30
0.0
 10
6582.072203028926
 20
5295.34944176258
 30
0.0
 10
6579.155985811832
 20
5295.29147302953
 30
0.0
 10
6576.421996571838
 20
5295.23587914603
 30
0.0
 10
6573.989537483135
 20
5295.182873151687
 30
0.0
 10
6571.961254270928
 20
5295.125240750608
 30
0.0
 10
6570.46950223244
 20
5295.067591307759
 30
0.0
 10
6569.536917013257
 20
5295.015812307956
 30
0.0
 10
6569.440406210038
 20
5294.979851311756
 30
0.0
 10
6569.393405727965
 20
5294.9623384106
 30
0.0
  0
SPLINE
  5
21D
330
1F
100
AcDbEntity
  8
0
  6
Continuous
 62
     7
370
    25
100
AcDbSpline
210
0.0
220
0.0
230
1.0
 70
     8
 71
     3
 72
    22
 73
    18
 74
     0
 42
0.000000001
 43
0.00000001
 40
0.0
 40
0.0
 40
0.0
 40
0.0
 40
0.0201129452816834
 40
0.0912424185627042
 40
0.1612142863378792
 40
0.2307403870976584
 40
0.3017610878031637
 40
0.3725867800933947
 40
0.4418442906764061
 40
0.5122188701774498
 40
0.5833703029436684
 40
0.6535535456555831
 40
0.722918684766504
 40
0.7938525170539321
 40
0.8647864531034918
 40
0.9341513904198122
 40
1.0
 40
1.0
 40
1.0
 40
1.0
 10
6595.749774984938
 20
5294.168434344514
 30
0.0
 10
6595.768992987412
 20
5294.163096008716
 30
0.0
 10
6595.856175496044
 20
5294.138878637143
 30
0.0
 10
6595.354541559876
 20
5294.09432793985
 30
0.0
 10
6594.259514726342
 20
5294.039506577248
 30
0.0
 10
6592.556047845304
 20
5293.985963225009
 30
0.0
 10
6590.372924201403
 20
5293.928165835967
 30
0.0
 10
6587.807626264463
 20
5293.87077142548
 30
0.0
 10
6585.000710378153
 20
5293.818144551019
 30
0.0
 10
6582.072203077748
 20
5293.761943839433
 30
0.0
 10
6579.155985620394
 20
5293.703983203814
 30
0.0
 10
6576.421996729088
 20
5293.64836549154
 30
0.0
 10
6573.989537618161
 20
5293.595357399454
 30
0.0
 10
6571.961254027102
 20
5293.537757566764
 30
0.0
 10
6570.469502414036
 20
5293.480069059573
 30
0.0
 10
6569.536916956316
 20
5293.428323400103
 30
0.0
 10
6569.440406192954
 20
5293.392358167804
 30
0.0
 10
6569.393405727965
 20
5293.374843202813
 30
0.0
  0
SPLINE
  5
21E
330
1F
100
AcDbEntity
  8
0
  6
Continuous
 62
     7
370
    25
100
AcDbSpline
210
0.0
220
0.0
230
1.0
 70
     8
 71
     3
 72
    22
 73
    18
 74
     0
 42
0.000000001
 43
0.00000001
 40
0.0
 40
0.0
 40
0.0
 40
0.0
 40
0.0201129520878377
 40
0.0912424178949532
 40
0.1612142852463346
 40
0.2307403923092466
 40
0.3017610855634639
 40
0.37258677742473
 40
0.441844294258362
 40
0.5122188664403368
 40
0.5833702987756175
 40
0.6535535410624584
 40
0.7229186797532605
 40
0.7938525116110688
 40
0.864786447231008
 40
0.9341513908186326
 40
1.0
 40
1.0
 40
1.0
 40
1.0
 10
6595.749774984938
 20
5292.580939136727
 30
0.0
 10
6595.76899299147
 20
5292.575595022681
 30
0.0
 10
6595.856175488366
 20
5292.551351446453
 30
0.0
 10
6595.354541541964
 20
5292.506842940071
 30
0.0
 10
6594.259514608065
 20
5292.452014946032
 30
0.0
 10
6592.556048099151
 20
5292.398443586996
 30
0.0
 10
6590.372924061592
 20
5292.340675440936
 30
0.0
 10
6587.807626077317
 20
5292.283281492912
 30
0.0
 10
6585.000710756429
 20
5292.230624045388
 30
0.0
 10
6582.072202852369
 20
5292.174455533639
 30
0.0
 10
6579.155985654862
 20
5292.116486191714
 30
0.0
 10
6576.421996720485
 20
5292.060870660497
 30
0.0
 10
6573.989537618829
 20
5292.00786245015
 30
0.0
 10
6571.961254033387
 20
5291.950260901268
 30
0.0
 10
6570.469502341248
 20
5291.892579357839
 30
0.0
 10
6569.536916995284
 20
5291.840808537571
 30
0.0
 10
6569.440406204151
 20
5291.804846501456
 30
0.0
 10
6569.393405727965
 20
5291.787333093866
 30
0.0
  0
SPLINE
  5
21F
330
1F
100
AcDbEntity
  8
0
  6
Continuous
 62
     7
370
    25
100
AcDbSpline
210
0.0
220
0.0
230
1.0
 70
     8
 71
     3
 72
    16
 73
    12
 74
     0
 42
0.000000001
 43
0.00000001
 40
0.0
 40
0.0
 40
0.0
 40
0.0
 40
0.0388328130851606
 40
0.1761651246178657
 40
0.311262417653683
 40
0.4454990646814028
 40
0.5826213649908921
 40
0.7193671688408313
 40
0.8530852386991099
 40
0.9889600622735353
 40
1.0
 40
1.0
 40
1.0
 40
1.0
 10
6595.749774984938
 20
5290.99342902778
 30
0.0
 10
6595.768993002204
 20
5290.988090492972
 30
0.0
 10
6595.856175571213
 20
5290.963872220463
 30
0.0
 10
6595.354540212492
 20
5290.919341639275
 30
0.0
 10
6594.259519275255
 20
5290.864521524465
 30
0.0
 10
6592.556030689649
 20
5290.810947226695
 30
0.0
 10
6590.372990516746
 20
5290.753183084806
 30
0.0
 10
6587.807381307286
 20
5290.695776184526
 30
0.0
 10
6585.001607768409
 20
5290.643165751244
 30
0.0
 10
6582.979213678825
 20
5290.604310934965
 30
0.0
 10
6581.929313785641
 20
5290.583816264068
 30
0.0
 10
6581.850418858153
 20
5290.582276188119
 30
0.0
  0
SPLINE
  5
220
330
1F
100
AcDbEntity
  8
0
  6
Continuous
 62
     7
370
    25
100
AcDbSpline
210
0.0
220
0.0
230
1.0
 70
     8
 71
     3
 72
    14
 73
    10
 74
     0
 42
0.000000001
 43
0.00000001
 40
0.0
 40
0.0
 40
0.0
 40
0.0
 40
0.035981353901695
 40
0.1983748538052291
 40
0.3588753846478378
 40
0.5230056362808277
 40
0.687136111797092
 40
0.8476361912002006
 40
1.0
 40
1.0
 40
1.0
 40
1.0
 10
6579.797694496733
 20
5298.082269035562
 30
0.0
 10
6579.588433871597
 20
5298.078071203495
 30
0.0
 10
6578.434723924157
 20
5298.054927429504
 30
0.0
 10
6576.421916634181
 20
5298.013988761567
 30
0.0
 10
6573.989559498922
 20
5297.960982007166
 30
0.0
 10
6571.961248224792
 20
5297.903373661087
 30
0.0
 10
6570.469503794859
 20
5297.8457177625
 30
0.0
 10
6569.536916649118
 20
5297.793940408534
 30
0.0
 10
6569.440406090781
 20
5297.757979203133
 30
0.0
 10
6569.393405727965
 20
5297.740466200097
 30
0.0
  0
LINE
  5
221
330
1F
100
AcDbEntity
  8
0
  6
Continuous
 62
     7
370
    25
100
AcDbLine
 10
6569.3760756775
 20
5297.737038933
 30
0.0
 11
6569.4087986275
 21
5297.7319129336
 31
0.0
  0
SPLINE
  5
222
330
1F
100
AcDbEntity
  8
0
  6
Continuous
 62
     7
370
    25
100
AcDbSpline
210
0.0
220
0.0
230
1.0
 70
     8
 71
     3
 72
    23
 73
    19
 74
     0
 42
0.000000001
 43
0.00000001
 40
0.0
 40
0.0
 40
0.0
 40
0.0
 40
0.0495140774194865
 40
0.1209629702347637
 40
0.190903168128542
 40
0.2622002831407639
 40
0.3340870165346309
 40
0.4048034947212646
 40
0.475069749895478
 40
0.519051454866061
 40
0.5632190033755151
 40
0.578934974987151
 40
0.6498653696957807
 40
0.7199689514916866
 40
0.7916579263513346
 40
0.8633470060777378
 40
0.9334503906934492
 40
1.0
 40
1.0
 40
1.0
 40
1.0
 10
6595.737958364111
 20
5296.938038669809
 30
0.0
 10
6595.712895439691
 20
5296.924800222305
 30
0.0
 10
6595.651666675295
 20
5296.892458673907
 30
0.0
 10
6594.813375785277
 20
5296.841171992109
 30
0.0
 10
6593.380351982913
 20
5296.788756812802
 30
0.0
 10
6591.399224171028
 20
5296.732079406975
 30
0.0
 10
6588.984307165114
 20
5296.674133406383
 30
0.0
 10
6586.26972272393
 20
5296.619150176896
 30
0.0
 10
6583.756119696595
 20
5296.5726994065
 30
0.0
 10
6581.584775808632
 20
5296.530265888118
 30
0.0
 10
6580.174537339497
 20
5296.502361626919
 30
0.0
 10
6578.436391767175
 20
5296.467442069532
 30
0.0
 10
6576.421259419876
 20
5296.42649004358
 30
0.0
 10
6573.989739162819
 20
5296.373486513118
 30
0.0
 10
6571.961199491544
 20
5296.31588331174
 30
0.0
 10
6570.46951655184
 20
5296.258203610727
 30
0.0
 10
6569.536913714871
 20
5296.206427294243
 30
0.0
 10
6569.440405128117
 20
5296.170478130271
 30
0.0
 10
6569.393405727965
 20
5296.152970992311
 30
0.0
  0
LINE
  5
223
330
1F
100
AcDbEntity
  8
0
  6
Continuous
 62
     7
370
    25
100
AcDbLine
 10
6569.3760756775
 20
5296.1495437252
 30
0.0
 11
6569.4087986275
 21
5296.1444028246
 31
0.0
  0
SPLINE
  5
224
330
1F
100
AcDbEntity
  8
0
  6
Continuous
 62
     7
370
    25
100
AcDbSpline
210
0.0
220
0.0
230
1.0
 70
     8
 71
     3
 72
    23
 73
    19
 74
     0
 42
0.000000001
 43
0.00000001
 40
0.0
 40
0.0
 40
0.0
 40
0.0
 40
0.0495140842039286
 40
0.1209629695196772
 40
0.1909031669543891
 40
0.2622002884997418
 40
0.33408701430369
 40
0.4048034920261621
 40
0.4750697535349798
 40
0.5190514582168801
 40
0.5632189993149325
 40
0.5789349708234134
 40
0.6498653650664774
 40
0.7199689464022446
 40
0.791657927870153
 40
0.8633470000472153
 40
0.9334503842027891
 40
1.0
 40
1.0
 40
1.0
 40
1.0
 10
6595.737958364111
 20
5295.350543462022
 30
0.0
 10
6595.712895453094
 20
5295.337298057795
 30
0.0
 10
6595.651666730193
 20
5295.304939518735
 30
0.0
 10
6594.813375739143
 20
5295.253682244962
 30
0.0
 10
6593.380351845984
 20
5295.201266283046
 30
0.0
 10
6591.399224465737
 20
5295.144559264814
 30
0.0
 10
6588.984306999694
 20
5295.086643523927
 30
0.0
 10
6586.269722571752
 20
5295.031658143157
 30
0.0
 10
6583.756119794062
 20
5294.985188965266
 30
0.0
 10
6581.584776009056
 20
5294.942750495533
 30
0.0
 10
6580.174537214035
 20
5294.914867979302
 30
0.0
 10
6578.436391792213
 20
5294.879945618315
 30
0.0
 10
6576.421259431925
 20
5294.838993490072
 30
0.0
 10
6573.989739004885
 20
5294.78599784694
 30
0.0
 10
6571.961199735076
 20
5294.728362621921
 30
0.0
 10
6570.469516441618
 20
5294.670713937229
 30
0.0
 10
6569.536913701646
 20
5294.618934744198
 30
0.0
 10
6569.440405125473
 20
5294.582973772558
 30
0.0
 10
6569.393405727965
 20
5294.565460883363
 30
0.0
  0
LINE
  5
225
330
1F
100
AcDbEntity
  8
0
  6
Continuous
 62
     7
370
    25
100
AcDbLine
 10
6569.3760756775
 20
5294.5620336163
 30
0.0
 11
6569.4087986275
 21
5294.5569076168
 31
0.0
  0
SPLINE
  5
226
330
1F
100
AcDbEntity
  8
0
  6
Continuous
 62
     7
370
    25
100
AcDbSpline
210
0.0
220
0.0
230
1.0
 70
     8
 71
     3
 72
    23
 73
    19
 74
     0
 42
0.000000001
 43
0.00000001
 40
0.0
 40
0.0
 40
0.0
 40
0.0
 40
0.0495140841847014
 40
0.1209629765032648
 40
0.1909031739108177
 40
0.2622002884273809
 40
0.3340870142034142
 40
0.4048034918984258
 40
0.4750697533799579
 40
0.5190514580447795
 40
0.56321900624718
 40
0.5789349777495582
 40
0.6498653719650787
 40
0.7199689465109855
 40
0.7916579279510559
 40
0.8633470001002801
 40
0.9334503842286316
 40
1.0
 40
1.0
 40
1.0
 40
1.0
 10
6595.737958364111
 20
5293.763048254235
 30
0.0
 10
6595.712895446905
 20
5293.749803752348
 30
0.0
 10
6595.651666705327
 20
5293.717447415825
 30
0.0
 10
6594.813375791306
 20
5293.666168121547
 30
0.0
 10
6593.380351961127
 20
5293.613752311918
 30
0.0
 10
6591.399224320507
 20
5293.557069231212
 30
0.0
 10
6588.98430702144
 20
5293.499146727882
 30
0.0
 10
6586.269722550443
 20
5293.444164162434
 30
0.0
 10
6583.756119846934
 20
5293.397691001227
 30
0.0
 10
6581.584775795399
 20
5293.355261296468
 30
0.0
 10
6580.174537342335
 20
5293.327356126167
 30
0.0
 10
6578.436391761182
 20
5293.292437162763
 30
0.0
 10
6576.421259614848
 20
5293.251477093096
 30
0.0
 10
6573.98973884658
 20
5293.198508428575
 30
0.0
 10
6571.961199760526
 20
5293.140865846905
 30
0.0
 10
6570.469516434987
 20
5293.08321913778
 30
0.0
 10
6569.536913703191
 20
5293.031439441243
 30
0.0
 10
6569.440405125979
 20
5292.995478533603
 30
0.0
 10
6569.393405727965
 20
5292.977965675576
 30
0.0
  0
LINE
  5
227
330
1F
100
AcDbEntity
  8
0
  6
Continuous
 62
     7
370
    25
100
AcDbLine
 10
6569.3760756775
 20
5292.9745384085
 30
0.0
 11
6569.4087986275
 21
5292.9694124091
 31
0.0
  0
SPLINE
  5
228
330
1F
100
AcDbEntity
  8
0
  6
Continuous
 62
     7
370
    25
100
AcDbSpline
210
0.0
220
0.0
230
1.0
 70
     8
 71
     3
 72
    23
 73
    19
 74
     0
 42
0.000000001
 43
0.00000001
 40
0.0
 40
0.0
 40
0.0
 40
0.0
 40
0.0495140774194865
 40
0.1209629702347637
 40
0.190903168128542
 40
0.2622002831407639
 40
0.3340870165346309
 40
0.4048034947212646
 40
0.475069749895478
 40
0.519051454866061
 40
0.5632190033755151
 40
0.578934974987151
 40
0.6498653696957807
 40
0.7199689514916866
 40
0.7916579263513346
 40
0.8633470060777378
 40
0.9334503906934492
 40
1.0
 40
1.0
 40
1.0
 40
1.0
 10
6595.737958364111
 20
5292.175538145288
 30
0.0
 10
6595.712895439691
 20
5292.162299697784
 30
0.0
 10
6595.651666675295
 20
5292.129958149386
 30
0.0
 10
6594.813375785277
 20
5292.078671467588
 30
0.0
 10
6593.380351982913
 20
5292.026256288281
 30
0.0
 10
6591.399224171028
 20
5291.969578882454
 30
0.0
 10
6588.984307165114
 20
5291.911632881862
 30
0.0
 10
6586.26972272393
 20
5291.856649652375
 30
0.0
 10
6583.756119696595
 20
5291.810198881979
 30
0.0
 10
6581.584775808632
 20
5291.767765363597
 30
0.0
 10
6580.174537339497
 20
5291.739861102398
 30
0.0
 10
6578.436391767175
 20
5291.704941545011
 30
0.0
 10
6576.421259419876
 20
5291.663989519059
 30
0.0
 10
6573.989739162819
 20
5291.610985988597
 30
0.0
 10
6571.961199491544
 20
5291.55338278722
 30
0.0
 10
6570.46951655184
 20
5291.495703086206
 30
0.0
 10
6569.536913714871
 20
5291.443926769722
 30
0.0
 10
6569.440405128117
 20
5291.40797760575
 30
0.0
 10
6569.393405727965
 20
5291.39047046779
 30
0.0
  0
LINE
  5
229
330
1F
100
AcDbEntity
  8
0
  6
Continuous
 62
     7
370
    25
100
AcDbLine
 10
6569.3760756775
 20
5291.3870432007
 30
0.0
 11
6569.4087986275
 21
5291.3819023001
 31
0.0
  0
LINE
  5
22A
330
1F
100
AcDbEntity
  8
0
  6
Continuous
 62
     7
370
    25
100
AcDbLine
 10
6595.8025101944
 20
5290.5967601168
 30
0.0
 11
6595.7948360964
 21
5290.5822761881
 31
0.0
  0
SPLINE
  5
22B
330
1F
100
AcDbEntity
  8
0
  6
Continuous
 62
     7
370
    25
100
AcDbSpline
210
0.0
220
0.0
230
1.0
 70
     8
 71
     3
 72
    23
 73
    19
 74
     0
 42
0.000000001
 43
0.00000001
 40
0.0
 40
0.0
 40
0.0
 40
0.0
 40
0.0088416381194998
 40
0.0808325732963519
 40
0.151651761477847
 40
0.2220197085779538
 40
0.2939005691929337
 40
0.3655839250529092
 40
0.4356800606222112
 40
0.5069071690631837
 40
0.5789200604385286
 40
0.6499533219590821
 40
0.7201581987042651
 40
0.791951204130657
 40
0.8585985579291169
 40
0.8952656379104492
 40
0.9653616221367015
 40
1.0
 40
1.0
 40
1.0
 40
1.0
 10
6594.915756992918
 20
5298.028878175004
 30
0.0
 10
6594.922353330422
 20
5298.02655720059
 30
0.0
 10
6594.982658776937
 20
5298.005338244113
 30
0.0
 10
6594.516274423741
 20
5297.963832200988
 30
0.0
 10
6593.503776504036
 20
5297.909047903403
 30
0.0
 10
6591.908003898709
 20
5297.855494530444
 30
0.0
 10
6589.867598862667
 20
5297.797700024867
 30
0.0
 10
6587.468817665314
 20
5297.740304826087
 30
0.0
 10
6584.844378362947
 20
5297.687678040785
 30
0.0
 10
6582.106216124501
 20
5297.63147717655
 30
0.0
 10
6579.379456554285
 20
5297.573518328063
 30
0.0
 10
6576.823487874835
 20
5297.517892724418
 30
0.0
 10
6574.547916165968
 20
5297.464915016995
 30
0.0
 10
6572.701599260409
 20
5297.408587237648
 30
0.0
 10
6571.531053657198
 20
5297.361681264837
 30
0.0
 10
6570.714023804531
 20
5297.31677840531
 30
0.0
 10
6570.250439094955
 20
5297.282055859319
 30
0.0
 10
6570.295548904063
 20
5297.25403229386
 30
0.0
 10
6570.310467891318
 20
5297.244764171823
 30
0.0
  0
SPLINE
  5
22C
330
1F
100
AcDbEntity
  8
0
  6
Continuous
 62
     7
370
    25
100
AcDbSpline
210
0.0
220
0.0
230
1.0
 70
     8
 71
     3
 72
    23
 73
    19
 74
     0
 42
0.000000001
 43
0.00000001
 40
0.0
 40
0.0
 40
0.0
 40
0.0
 40
0.008841646075834
 40
0.0808325725706214
 40
0.1516517602320786
 40
0.2220197145997617
 40
0.2939005665589071
 40
0.3655839218924989
 40
0.4356800646686959
 40
0.5069071646071889
 40
0.5789200554537304
 40
0.6499533164526738
 40
0.7201581926823301
 40
0.7919512056899596
 40
0.8585985508846373
 40
0.8952656305967167
 40
0.9653616143082417
 40
1.0
 40
1.0
 40
1.0
 40
1.0
 10
6594.915756992918
 20
5296.441382967218
 30
0.0
 10
6594.922353332463
 20
5296.439056673359
 30
0.0
 10
6594.982658742826
 20
5296.417789104449
 30
0.0
 10
6594.516274414807
 20
5296.376357634625
 30
0.0
 10
6593.503776375266
 20
5296.321553517133
 30
0.0
 10
6591.908004170952
 20
5296.267975646684
 30
0.0
 10
6589.867598712915
 20
5296.210209428517
 30
0.0
 10
6587.468817465337
 20
5296.152814936581
 30
0.0
 10
6584.844378767032
 20
5296.100157556561
 30
0.0
 10
6582.106215885187
 20
5296.04398874144
 30
0.0
 10
6579.379456584705
 20
5295.986021812724
 30
0.0
 10
6576.823487889182
 20
5295.930396074017
 30
0.0
 10
6574.54791599247
 20
5295.877426835224
 30
0.0
 10
6572.701599527392
 20
5295.821065485086
 30
0.0
 10
6571.531053576634
 20
5295.774190015656
 30
0.0
 10
6570.71402382062
 20
5295.729280326464
 30
0.0
 10
6570.250439077985
 20
5295.694569657737
 30
0.0
 10
6570.295548898095
 20
5295.666528127711
 30
0.0
 10
6570.310467891318
 20
5295.657254062875
 30
0.0
  0
SPLINE
  5
22D
330
1F
100
AcDbEntity
  8
0
  6
Continuous
 62
     7
370
    25
100
AcDbSpline
210
0.0
220
0.0
230
1.0
 70
     8
 71
     3
 72
    23
 73
    19
 74
     0
 42
0.000000001
 43
0.00000001
 40
0.0
 40
0.0
 40
0.0
 40
0.0
 40
0.008841638119562
 40
0.0808325651434982
 40
0.1516517533254915
 40
0.2220197082103941
 40
0.2939005688258797
 40
0.3655839166035412
 40
0.4356800598949597
 40
0.5069071683364333
 40
0.578920059712285
 40
0.6499533212333382
 40
0.7201581902326949
 40
0.7919512037680184
 40
0.8585985575669471
 40
0.8952656375485375
 40
0.9653616140536422
 40
1.0
 40
1.0
 40
1.0
 40
1.0
 10
6594.915756992918
 20
5294.85387285827
 30
0.0
 10
6594.922353330689
 20
5294.851551838954
 30
0.0
 10
6594.982658773558
 20
5294.830332474107
 30
0.0
 10
6594.516274383027
 20
5294.78884678638
 30
0.0
 10
6593.50377641158
 20
5294.734060786746
 30
0.0
 10
6591.908003995775
 20
5294.680485933114
 30
0.0
 10
6589.867599056945
 20
5294.622689098909
 30
0.0
 10
6587.468817281997
 20
5294.565324900346
 30
0.0
 10
6584.844378587643
 20
5294.512665992257
 30
0.0
 10
6582.10621609744
 20
5294.45647322586
 30
0.0
 10
6579.379456534218
 20
5294.398514429007
 30
0.0
 10
6576.823488072425
 20
5294.34288053818
 30
0.0
 10
6574.547915841649
 20
5294.289935717419
 30
0.0
 10
6572.701599419148
 20
5294.233574777044
 30
0.0
 10
6571.531053640897
 20
5294.186678427934
 30
0.0
 10
6570.714023854137
 20
5294.141768453621
 30
0.0
 10
6570.25043906821
 20
5294.107076765681
 30
0.0
 10
6570.295548894838
 20
5294.079033495967
 30
0.0
 10
6570.310467891318
 20
5294.069758855088
 30
0.0
  0
SPLINE
  5
22E
330
1F
100
AcDbEntity
  8
0
  6
Continuous
 62
     7
370
    25
100
AcDbSpline
210
0.0
220
0.0
230
1.0
 70
     8
 71
     3
 72
    23
 73
    19
 74
     0
 42
0.000000001
 43
0.00000001
 40
0.0
 40
0.0
 40
0.0
 40
0.0
 40
0.0088416381194998
 40
0.0808325732963519
 40
0.151651761477847
 40
0.2220197085779538
 40
0.2939005691929337
 40
0.3655839250529092
 40
0.4356800606222112
 40
0.5069071690631837
 40
0.5789200604385286
 40
0.6499533219590821
 40
0.7201581987042651
 40
0.791951204130657
 40
0.8585985579291169
 40
0.8952656379104492
 40
0.9653616221367015
 40
1.0
 40
1.0
 40
1.0
 40
1.0
 10
6594.915756992918
 20
5293.266377650483
 30
0.0
 10
6594.922353330422
 20
5293.264056676069
 30
0.0
 10
6594.982658776937
 20
5293.242837719592
 30
0.0
 10
6594.516274423741
 20
5293.201331676467
 30
0.0
 10
6593.503776504036
 20
5293.146547378882
 30
0.0
 10
6591.908003898709
 20
5293.092994005923
 30
0.0
 10
6589.867598862667
 20
5293.035199500346
 30
0.0
 10
6587.468817665314
 20
5292.977804301566
 30
0.0
 10
6584.844378362947
 20
5292.925177516265
 30
0.0
 10
6582.106216124501
 20
5292.868976652029
 30
0.0
 10
6579.379456554285
 20
5292.811017803542
 30
0.0
 10
6576.823487874835
 20
5292.755392199897
 30
0.0
 10
6574.547916165968
 20
5292.702414492474
 30
0.0
 10
6572.701599260409
 20
5292.646086713127
 30
0.0
 10
6571.531053657198
 20
5292.599180740316
 30
0.0
 10
6570.714023804531
 20
5292.554277880789
 30
0.0
 10
6570.250439094955
 20
5292.519555334798
 30
0.0
 10
6570.295548904063
 20
5292.491531769339
 30
0.0
 10
6570.310467891318
 20
5292.482263647302
 30
0.0
  0
SPLINE
  5
22F
330
1F
100
AcDbEntity
  8
0
  6
Continuous
 62
     7
370
    25
100
AcDbSpline
210
0.0
220
0.0
230
1.0
 70
     8
 71
     3
 72
    23
 73
    19
 74
     0
 42
0.000000001
 43
0.00000001
 40
0.0
 40
0.0
 40
0.0
 40
0.0
 40
0.008841646075834
 40
0.0808325725706214
 40
0.1516517602320786
 40
0.2220197145997617
 40
0.2939005665589071
 40
0.3655839218924989
 40
0.4356800646686959
 40
0.5069071646071889
 40
0.5789200554537304
 40
0.6499533164526738
 40
0.7201581926823301
 40
0.7919512056899596
 40
0.8585985508846373
 40
0.8952656305967167
 40
0.9653616143082417
 40
1.0
 40
1.0
 40
1.0
 40
1.0
 10
6594.915756992918
 20
5291.678882442697
 30
0.0
 10
6594.922353332463
 20
5291.676556148838
 30
0.0
 10
6594.982658742826
 20
5291.655288579928
 30
0.0
 10
6594.516274414807
 20
5291.613857110104
 30
0.0
 10
6593.503776375266
 20
5291.559052992612
 30
0.0
 10
6591.908004170952
 20
5291.505475122163
 30
0.0
 10
6589.867598712915
 20
5291.447708903996
 30
0.0
 10
6587.468817465337
 20
5291.39031441206
 30
0.0
 10
6584.844378767032
 20
5291.337657032041
 30
0.0
 10
6582.106215885187
 20
5291.28148821692
 30
0.0
 10
6579.379456584705
 20
5291.223521288203
 30
0.0
 10
6576.823487889182
 20
5291.167895549496
 30
0.0
 10
6574.54791599247
 20
5291.114926310703
 30
0.0
 10
6572.701599527392
 20
5291.058564960565
 30
0.0
 10
6571.531053576634
 20
5291.011689491135
 30
0.0
 10
6570.71402382062
 20
5290.966779801943
 30
0.0
 10
6570.250439077985
 20
5290.932069133216
 30
0.0
 10
6570.295548898095
 20
5290.90402760319
 30
0.0
 10
6570.310467891318
 20
5290.894753538354
 30
0.0
  0
LINE
  5
230
330
1F
100
AcDbEntity
  8
0
  6
Continuous
 62
     7
370
    25
100
AcDbLine
 10
6594.006130509
 20
5290.5822761881
 30
0.0
 11
6595.7948360964
 21
5290.5822761881
 31
0.0
  0
LINE
  5
231
330
1F
100
AcDbEntity
  8
0
  6
Continuous
 62
     7
370
    25
100
AcDbLine
 10
6592.7300844713
 20
5290.5822761881
 30
0.0
 11
6592.7300844713
 21
5280.0822698104
 31
0.0
  0
LINE
  5
232
330
1F
100
AcDbEntity
  8
0
  6
Continuous
 62
     7
370
    25
100
AcDbLine
 10
6579.2679582163
 20
5290.5822761881
 30
0.0
 11
6592.7300844713
 21
5290.5822761881
 31
0.0
  0
LINE
  5
233
330
1F
100
AcDbEntity
  8
0
  6
Continuous
 62
     7
370
    25
100
AcDbLine
 10
6596.8688372894
 20
5290.5822761881
 30
0.0
 11
6596.8688372894
 21
5280.0822698104
 31
0.0
  0
LINE
  5
234
330
1F
100
AcDbEntity
  8
0
  6
Continuous
 62
     7
370
    25
100
AcDbLine
 10
6595.7955066486
 20
5290.5822761881
 30
0.0
 11
6596.8688372894
 21
5290.5822761881
 31
0.0
  0
LINE
  5
235
330
1F
100
AcDbEntity
  8
0
  6
Continuous
 62
     7
370
    25
100
AcDbLine
 10
6592.7300844713
 20
5290.5822761881
 30
0.0
 11
6594.006130509
 21
5290.5822761881
 31
0.0
  0
LINE
  5
236
330
1F
100
AcDbEntity
  8
0
  6
Continuous
 62
     7
370
    25
100
AcDbLine
 10
6582.5462434813
 20
5138.5822717625
 30
0.0
 11
6582.5462434813
 21
5149.0822725522
 31
0.0
  0
LINE
  5
237
330
1F
100
AcDbEntity
  8
0
  6
Continuous
 62
     7
370
    25
100
AcDbLine
 10
6596.0707161947
 20
5138.5822717625
 30
0.0
 11
6596.0707161947
 21
5149.0822725522
 31
0.0
  0
LINE
  5
238
330
1F
100
AcDbEntity
  8
0
  6
Continuous
 62
     7
370
    25
100
AcDbLine
 10
6596.0707161947
 20
5138.5822717625
 30
0.0
 11
6582.5462434813
 21
5138.5822717625
 31
0.0
  0
LINE
  5
239
330
1F
100
AcDbEntity
  8
0
  6
Continuous
 62
     7
370
    25
100
AcDbLine
 10
6569.0708551928
 20
5138.5822717625
 30
0.0
 11
6569.0708551928
 21
5149.0822725522
 31
0.0
  0
LINE
  5
23A
330
1F
100
AcDbEntity
  8
0
  6
Continuous
 62
     7
370
    25
100
AcDbLine
 10
6582.5462434813
 20
5138.5822717625
 30
0.0
 11
6569.0708551928
 21
5138.5822717625
 31
0.0
  0
SPLINE
  5
23B
330
1F
100
AcDbEntity
  8
0
  6
Continuous
 62
     7
370
    25
100
AcDbSpline
210
0.0
220
0.0
230
1.0
 70
     8
 71
     3
 72
    27
 73
    23
 74
     0
 42
0.000000001
 43
0.00000001
 40
0.0
 40
0.0
 40
0.0
 40
0.0
 40
0.0169335703043103
 40
0.0705713912797748
 40
0.1257949376143276
 40
0.1789457432961294
 40
0.2336379951059979
 40
0.2867895089686701
 40
0.3415044609328134
 40
0.3942826503872036
 40
0.4485997293891456
 40
0.5012393699842284
 40
0.5554139951572498
 40
0.6078456113046312
 40
0.661816970015848
 40
0.7139456314553703
 40
0.7675864917538225
 40
0.8196694093902819
 40
0.8732914806495388
 40
0.9249092309363417
 40
0.9780238779272691
 40
1.0
 40
1.0
 40
1.0
 40
1.0
 10
6595.700511746031
 20
5131.012431584581
 30
0.0
 10
6595.71599692963
 20
5131.009702368414
 30
0.0
 10
6595.780532106271
 20
5130.998328241249
 30
0.0
 10
6595.520697435672
 20
5130.977921590318
 30
0.0
 10
6594.913501839668
 20
5130.950204508548
 30
0.0
 10
6593.924025280321
 20
5130.922223751461
 30
0.0
 10
6592.635133195657
 20
5130.895010194143
 30
0.0
 10
6591.048129884856
 20
5130.86931108912
 30
0.0
 10
6589.240599638464
 20
5130.842161259095
 30
0.0
 10
6587.233626613588
 20
5130.814164210752
 30
0.0
 10
6585.124104422179
 20
5130.786492335414
 30
0.0
 10
6582.929320466667
 20
5130.759669000959
 30
0.0
 10
6580.753908406228
 20
5130.733944988418
 30
0.0
 10
6578.619187696218
 20
5130.706099303613
 30
0.0
 10
6576.628387441407
 20
5130.678363176793
 30
0.0
 10
6574.799142463947
 20
5130.650553052506
 30
0.0
 10
6573.214278462893
 20
5130.62486521566
 30
0.0
 10
6571.890489649951
 20
5130.597966171797
 30
0.0
 10
6570.886286914179
 20
5130.570243144001
 30
0.0
 10
6570.235732676791
 20
5130.542259847165
 30
0.0
 10
6569.93492415949
 20
5130.520318894039
 30
0.0
 10
6569.982179037731
 20
5130.507866284413
 30
0.0
 10
6569.996008686644
 20
5130.504221894129
 30
0.0
  0
LINE
  5
23C
330
1F
100
AcDbEntity
  8
0
  6
Continuous
 62
     7
370
    25
100
AcDbLine
 10
6594.3157915398
 20
5129.5822721499
 30
0.0
 11
6570.8748493715
 21
5129.5822721499
 31
0.0
  0
SPLINE
  5
23D
330
1F
100
AcDbEntity
  8
0
  6
Continuous
 62
     7
370
    25
100
AcDbSpline
210
0.0
220
0.0
230
1.0
 70
     8
 71
     3
 72
    22
 73
    18
 74
     0
 42
0.000000001
 43
0.00000001
 40
0.0
 40
0.0
 40
0.0
 40
0.0
 40
0.0672991256451218
 40
0.1391460547946741
 40
0.2104035097700008
 40
0.2803052287063204
 40
0.3517144860851216
 40
0.4235173743522592
 40
0.4939615059300473
 40
0.5644057756868036
 40
0.636208460351025
 40
0.7076179605961952
 40
0.7775196531579774
 40
0.8487770124678296
 40
0.9206239900169181
 40
0.9913015815878152
 40
0.9999999999999999
 40
0.9999999999999999
 40
0.9999999999999999
 40
0.9999999999999999
 10
6569.395789913756
 20
5131.765670381768
 30
0.0
 10
6569.474770797165
 20
5131.782964522161
 30
0.0
 10
6569.638069773563
 20
5131.818721471209
 30
0.0
 10
6570.680426106619
 20
5131.875846010472
 30
0.0
 10
6572.266762393185
 20
5131.932489111738
 30
0.0
 10
6574.360461337313
 20
5131.98496872997
 30
0.0
 10
6576.855088414773
 20
5132.042036234937
 30
0.0
 10
6579.639433451266
 20
5132.099928556274
 30
0.0
 10
6582.553335045131
 20
5132.154147454292
 30
0.0
 10
6585.469413232633
 20
5132.208366060762
 30
0.0
 10
6588.259303207852
 20
5132.266258499453
 30
0.0
 10
6590.765430100235
 20
5132.323326932633
 30
0.0
 10
6592.865563419233
 20
5132.375801739061
 30
0.0
 10
6594.4919213516
 20
5132.432463721262
 30
0.0
 10
6595.476276010086
 20
5132.49044602816
 30
0.0
 10
6595.893402072885
 20
5132.52939819501
 30
0.0
 10
6595.792752730627
 20
5132.549704848012
 30
0.0
 10
6595.781723074538
 20
5132.551930152162
 30
0.0
  0
LINE
  5
23E
330
1F
100
AcDbEntity
  8
0
  6
Continuous
 62
     7
370
    25
100
AcDbLine
 10
6569.4018844887
 20
5133.3454169857
 30
0.0
 11
6569.3777148052
 21
5133.3505429852
 31
0.0
  0
SPLINE
  5
23F
330
1F
100
AcDbEntity
  8
0
  6
Continuous
 62
     7
370
    25
100
AcDbSpline
210
0.0
220
0.0
230
1.0
 70
     8
 71
     3
 72
    22
 73
    18
 74
     0
 42
0.000000001
 43
0.00000001
 40
0.0
 40
0.0
 40
0.0
 40
0.0
 40
0.0672991256423726
 40
0.1391460538997361
 40
0.2104035097467655
 40
0.2803052278393923
 40
0.3517144852152764
 40
0.4235173743676449
 40
0.4939615059425553
 40
0.5644057756964339
 40
0.6362084603577222
 40
0.7076179605999752
 40
0.7775196523180643
 40
0.8487770116250056
 40
0.9206239891711591
 40
0.9913015807391691
 40
1.0
 40
1.0
 40
1.0
 40
1.0
 10
6569.395789913756
 20
5133.35317117749
 30
0.0
 10
6569.474770794801
 20
5133.370465575
 30
0.0
 10
6569.63806976527
 20
5133.406223055429
 30
0.0
 10
6570.680426131607
 20
5133.46334341246
 30
0.0
 10
6572.266762362146
 20
5133.519991392785
 30
0.0
 10
6574.360461354429
 20
5133.572466916705
 30
0.0
 10
6576.855088435187
 20
5133.62953473917
 30
0.0
 10
6579.639433427682
 20
5133.687429957266
 30
0.0
 10
6582.553335048318
 20
5133.741648077623
 30
0.0
 10
6585.469413231176
 20
5133.795866947201
 30
0.0
 10
6588.259303210469
 20
5133.853759104895
 30
0.0
 10
6590.76543008149
 20
5133.910828387054
 30
0.0
 10
6592.865563435766
 20
5133.963300123443
 30
0.0
 10
6594.491921347829
 20
5134.019962286566
 30
0.0
 10
6595.476276014869
 20
5134.077946994163
 30
0.0
 10
6595.893402065893
 20
5134.116892316457
 30
0.0
 10
6595.792752730801
 20
5134.137204984395
 30
0.0
 10
6595.781723074538
 20
5134.139430947884
 30
0.0
  0
LINE
  5
240
330
1F
100
AcDbEntity
  8
0
  6
Continuous
 62
     7
370
    25
100
AcDbLine
 10
6569.4018844887
 20
5134.9329177815
 30
0.0
 11
6569.3777148052
 21
5134.9380437809
 31
0.0
  0
SPLINE
  5
241
330
1F
100
AcDbEntity
  8
0
  6
Continuous
 62
     7
370
    25
100
AcDbSpline
210
0.0
220
0.0
230
1.0
 70
     8
 71
     3
 72
    22
 73
    18
 74
     0
 42
0.000000001
 43
0.00000001
 40
0.0
 40
0.0
 40
0.0
 40
0.0
 40
0.0672991247801941
 40
0.1391460539247255
 40
0.2104035097696862
 40
0.2803052278602836
 40
0.3517144852340945
 40
0.4235173734962144
 40
0.4939615050690797
 40
0.5644057748209131
 40
0.6362084603682836
 40
0.7076179606084635
 40
0.7775196523245232
 40
0.8487770116293958
 40
0.9206239891734634
 40
0.9913015807394215
 40
1.0
 40
1.0
 40
1.0
 40
1.0
 10
6569.395789913756
 20
5134.940671973212
 30
0.0
 10
6569.474770797539
 20
5134.957965397803
 30
0.0
 10
6569.63806977579
 20
5134.993720867115
 30
0.0
 10
6570.680426121394
 20
5135.05084500995
 30
0.0
 10
6572.266762362221
 20
5135.107492024568
 30
0.0
 10
6574.360461357584
 20
5135.159967589653
 30
0.0
 10
6576.855088411725
 20
5135.217036211638
 30
0.0
 10
6579.639433452847
 20
5135.27492817791
 30
0.0
 10
6582.55333504187
 20
5135.32914736458
 30
0.0
 10
6585.4694132564
 20
5135.383365163996
 30
0.0
 10
6588.259303186865
 20
5135.441260593063
 30
0.0
 10
6590.765430084924
 20
5135.498329002068
 30
0.0
 10
6592.865563434833
 20
5135.550800968187
 30
0.0
 10
6594.491921348083
 20
5135.607463068869
 30
0.0
 10
6595.476276014798
 20
5135.665447793606
 30
0.0
 10
6595.893402065894
 20
5135.704393112095
 30
0.0
 10
6595.792752730801
 20
5135.724705780108
 30
0.0
 10
6595.781723074538
 20
5135.726931743606
 30
0.0
  0
LINE
  5
242
330
1F
100
AcDbEntity
  8
0
  6
Continuous
 62
     7
370
    25
100
AcDbLine
 10
6569.4018844887
 20
5136.5204167145
 30
0.0
 11
6569.3777148052
 21
5136.525542714
 31
0.0
  0
SPLINE
  5
243
330
1F
100
AcDbEntity
  8
0
  6
Continuous
 62
     7
370
    25
100
AcDbSpline
210
0.0
220
0.0
230
1.0
 70
     8
 71
     3
 72
    22
 73
    18
 74
     0
 42
0.000000001
 43
0.00000001
 40
0.0
 40
0.0
 40
0.0
 40
0.0
 40
0.0672991256458772
 40
0.1391460539069822
 40
0.2104035097577223
 40
0.2803052286948265
 40
0.3517144860744292
 40
0.4235173743423727
 40
0.4939615059209515
 40
0.5644057756784985
 40
0.6362084603435259
 40
0.7076179605894976
 40
0.7775196531520644
 40
0.8487770115881017
 40
0.9206239900272498
 40
0.991301580738716
 40
1.0
 40
1.0
 40
1.0
 40
1.0
 10
6569.395789913756
 20
5136.528170906289
 30
0.0
 10
6569.474770794984
 20
5136.545465290505
 30
0.0
 10
6569.638069765831
 20
5136.581222743449
 30
0.0
 10
6570.680426129196
 20
5136.638343316708
 30
0.0
 10
6572.26676237728
 20
5136.694990476538
 30
0.0
 10
6574.360461339297
 20
5136.747469025673
 30
0.0
 10
6576.855088414231
 20
5136.804536822111
 30
0.0
 10
6579.639433451419
 20
5136.86242906294
 30
0.0
 10
6582.553335045056
 20
5136.916647988594
 30
0.0
 10
6585.469413232785
 20
5136.970866563635
 30
0.0
 10
6588.259303207311
 20
5137.028759102104
 30
0.0
 10
6590.765430102214
 20
5137.0858271712
 30
0.0
 10
6592.865563403322
 20
5137.138303313883
 30
0.0
 10
6594.491921373869
 20
5137.19496022333
 30
0.0
 10
6595.476275998301
 20
5137.252950370075
 30
0.0
 10
6595.893402065299
 20
5137.291891963129
 30
0.0
 10
6595.792752730849
 20
5137.31220470506
 30
0.0
 10
6595.781723074538
 20
5137.314430676683
 30
0.0
  0
LINE
  5
244
330
1F
100
AcDbEntity
  8
0
  6
Continuous
 62
     7
370
    25
100
AcDbLine
 10
6569.4018844887
 20
5138.1079175103
 30
0.0
 11
6569.3777148052
 21
5138.1130435097
 31
0.0
  0
SPLINE
  5
245
330
1F
100
AcDbEntity
  8
0
  6
Continuous
 62
     7
370
    25
100
AcDbSpline
210
0.0
220
0.0
230
1.0
 70
     8
 71
     3
 72
    16
 73
    12
 74
     0
 42
0.000000001
 43
0.00000001
 40
0.0
 40
0.0
 40
0.0
 40
0.0
 40
0.1132813593919399
 40
0.234217814709049
 40
0.3541620396616578
 40
0.4718242169006925
 40
0.5920239620161903
 40
0.7128862869453478
 40
0.8314614825340135
 40
0.9500369107126454
 40
0.9999999999999999
 40
0.9999999999999999
 40
0.9999999999999999
 40
0.9999999999999999
 10
6569.395789913756
 20
5138.115671702011
 30
0.0
 10
6569.474770594199
 20
5138.132966102811
 30
0.0
 10
6569.638069149907
 20
5138.168723590044
 30
0.0
 10
6570.680428779198
 20
5138.225843893551
 30
0.0
 10
6572.266752624737
 20
5138.282492077032
 30
0.0
 10
6574.360497266058
 20
5138.334966852158
 30
0.0
 10
6576.854950764491
 20
5138.392037521528
 30
0.0
 10
6579.63994583502
 20
5138.449922075772
 30
0.0
 10
6582.551463469065
 20
5138.504168377931
 30
0.0
 10
6584.897208883987
 20
5138.547567845822
 30
0.0
 10
6586.214072507019
 20
5138.574336283591
 30
0.0
 10
6586.604455523116
 20
5138.582271762474
 30
0.0
  0
SPLINE
  5
246
330
1F
100
AcDbEntity
  8
0
  6
Continuous
 62
     7
370
    25
100
AcDbSpline
210
0.0
220
0.0
230
1.0
 70
     8
 71
     3
 72
    22
 73
    18
 74
     0
 42
0.000000001
 43
0.00000001
 40
0.0
 40
0.0
 40
0.0
 40
0.0
 40
0.0271116939001842
 40
0.0985780649335979
 40
0.1704383988084237
 40
0.2409388235263431
 40
0.3114388892189581
 40
0.3832991228788372
 40
0.4547656717909722
 40
0.524722867363198
 40
0.5960373094714663
 40
0.6679417661285392
 40
0.7386758379942998
 40
0.8089590536501206
 40
0.8807535598520163
 40
0.9523508266958727
 40
1.0
 40
1.0
 40
1.0
 40
1.0
 10
6570.310289077383
 20
5130.674875580056
 30
0.0
 10
6570.304305011262
 20
5130.681701254983
 30
0.0
 10
6570.28254695878
 20
5130.706519395399
 30
0.0
 10
6570.869858616175
 20
5130.752217104352
 30
0.0
 10
6572.041864454422
 20
5130.810076738321
 30
0.0
 10
6573.758395062572
 20
5130.864306943216
 30
0.0
 10
6575.890038818352
 20
5130.918523200116
 30
0.0
 10
6578.362223175174
 20
5130.976415550835
 30
0.0
 10
6581.034582350589
 20
5131.033485404885
 30
0.0
 10
6583.774338668118
 20
5131.085954423809
 30
0.0
 10
6586.463795316155
 20
5131.142628431952
 30
0.0
 10
6588.973892468664
 20
5131.200567410126
 30
0.0
 10
6591.158904974649
 20
5131.255526670379
 30
0.0
 10
6592.936528251255
 20
5131.309048073536
 30
0.0
 10
6594.196152275423
 20
5131.366853724606
 30
0.0
 10
6594.888354501343
 20
5131.418193813019
 30
0.0
 10
6594.89172901725
 20
5131.448167404453
 30
0.0
 10
6594.893077425581
 20
5131.46014442323
 30
0.0
  0
SPLINE
  5
247
330
1F
100
AcDbEntity
  8
0
  6
Continuous
 62
     7
370
    25
100
AcDbSpline
210
0.0
220
0.0
230
1.0
 70
     8
 71
     3
 72
    22
 73
    18
 74
     0
 42
0.000000001
 43
0.00000001
 40
0.0
 40
0.0
 40
0.0
 40
0.0
 40
0.02711169390183
 40
0.098578064939582
 40
0.17043839881877
 40
0.2409388225628733
 40
0.311438888259768
 40
0.3832991219240093
 40
0.4547656708404826
 40
0.5247228673794738
 40
0.5960373094920713
 40
0.6679417661535091
 40
0.7386758380235635
 40
0.8089590536836508
 40
0.8807535598899048
 40
0.9523508257288891
 40
1.0
 40
1.0
 40
1.0
 40
1.0
 10
6570.310289077383
 20
5132.262376375778
 30
0.0
 10
6570.304305011216
 20
5132.269202054019
 30
0.0
 10
6570.28254695857
 20
5132.294020206483
 30
0.0
 10
6570.869858618778
 20
5132.339717709044
 30
0.0
 10
6572.041864439615
 20
5132.397578227225
 30
0.0
 10
6573.758395079988
 20
5132.451805210058
 30
0.0
 10
6575.890038817185
 20
5132.506022269535
 30
0.0
 10
6578.362223171986
 20
5132.563914623117
 30
0.0
 10
6581.034582376345
 20
5132.620983656181
 30
0.0
 10
6583.774338642233
 20
5132.673455908041
 30
0.0
 10
6586.463795319889
 20
5132.730129044346
 30
0.0
 10
6588.973892467728
 20
5132.788068237274
 30
0.0
 10
6591.158904974715
 20
5132.843027519743
 30
0.0
 10
6592.936528251912
 20
5132.896548623076
 30
0.0
 10
6594.19615226671
 20
5132.954355472724
 30
0.0
 10
6594.888354507167
 20
5133.005691564074
 30
0.0
 10
6594.891729018894
 20
5133.035667330738
 30
0.0
 10
6594.893077425581
 20
5133.047645218952
 30
0.0
  0
SPLINE
  5
248
330
1F
100
AcDbEntity
  8
0
  6
Continuous
 62
     7
370
    25
100
AcDbSpline
210
0.0
220
0.0
230
1.0
 70
     8
 71
     3
 72
    22
 73
    18
 74
     0
 42
0.000000001
 43
0.00000001
 40
0.0
 40
0.0
 40
0.0
 40
0.0
 40
0.0271116939003003
 40
0.09857806493402
 40
0.1704383998258414
 40
0.240938823565967
 40
0.3114388892588839
 40
0.3832991229190706
 40
0.4547656718315116
 40
0.524722867404037
 40
0.5960373095126107
 40
0.6679417661699915
 40
0.7386758380360549
 40
0.8089590546640961
 40
0.8807535598515056
 40
0.9523508266956685
 40
1.0
 40
1.0
 40
1.0
 40
1.0
 10
6570.310289077383
 20
5133.849875308855
 30
0.0
 10
6570.304305011093
 20
5133.856700999226
 30
0.0
 10
6570.282546957998
 20
5133.881519195795
 30
0.0
 10
6570.869858629389
 20
5133.927215943086
 30
0.0
 10
6572.041864425975
 20
5133.985079699369
 30
0.0
 10
6573.758395081675
 20
5134.03930581387
 30
0.0
 10
6575.890038815808
 20
5134.093523163622
 30
0.0
 10
6578.362223175845
 20
5134.151415217717
 30
0.0
 10
6581.034582350461
 20
5134.208485145667
 30
0.0
 10
6583.774338667979
 20
5134.260954164633
 30
0.0
 10
6586.463795316855
 20
5134.317628098818
 30
0.0
 10
6588.973892465998
 20
5134.375567374681
 30
0.0
 10
6591.158904994375
 20
5134.430525537005
 30
0.0
 10
6592.936528221584
 20
5134.484051029352
 30
0.0
 10
6594.196152289169
 20
5134.54185257637
 30
0.0
 10
6594.888354499782
 20
5134.59319367785
 30
0.0
 10
6594.891729016806
 20
5134.623167172089
 30
0.0
 10
6594.893077425581
 20
5134.635144152029
 30
0.0
  0
SPLINE
  5
249
330
1F
100
AcDbEntity
  8
0
  6
Continuous
 62
     7
370
    25
100
AcDbSpline
210
0.0
220
0.0
230
1.0
 70
     8
 71
     3
 72
    22
 73
    18
 74
     0
 42
0.000000001
 43
0.00000001
 40
0.0
 40
0.0
 40
0.0
 40
0.0
 40
0.0271116939015262
 40
0.0985780649384774
 40
0.1704383988168602
 40
0.2409388225601735
 40
0.3114388882562782
 40
0.3832991229364037
 40
0.4547656708465919
 40
0.5247228673847992
 40
0.5960373094965976
 40
0.6679417661572298
 40
0.7386758380264916
 40
0.8089590536857914
 40
0.8807535598912408
 40
0.9523508257294229
 40
1.0
 40
1.0
 40
1.0
 40
1.0
 10
6570.310289077383
 20
5135.437376104577
 30
0.0
 10
6570.304305011223
 20
5135.444201782522
 30
0.0
 10
6570.282546958596
 20
5135.469019933911
 30
0.0
 10
6570.869858618442
 20
5135.514717454883
 30
0.0
 10
6572.041864440832
 20
5135.572577894165
 30
0.0
 10
6573.758395075548
 20
5135.6268051644
 30
0.0
 10
6575.89003884408
 20
5135.681021149575
 30
0.0
 10
6578.362223121092
 20
5135.738917581516
 30
0.0
 10
6581.034582405774
 20
5135.795982542783
 30
0.0
 10
6583.774338637764
 20
5135.848455865321
 30
0.0
 10
6586.463795321109
 20
5135.905128710824
 30
0.0
 10
6588.973892467406
 20
5135.96306798253
 30
0.0
 10
6591.158904974801
 20
5136.018027244197
 30
0.0
 10
6592.936528251889
 20
5136.071548353066
 30
0.0
 10
6594.196152266716
 20
5136.129355201199
 30
0.0
 10
6594.888354507166
 20
5136.180691292923
 30
0.0
 10
6594.891729018894
 20
5136.210667059551
 30
0.0
 10
6594.893077425581
 20
5136.222644947751
 30
0.0
  0
SPLINE
  5
24A
330
1F
100
AcDbEntity
  8
0
  6
Continuous
 62
     7
370
    25
100
AcDbSpline
210
0.0
220
0.0
230
1.0
 70
     8
 71
     3
 72
    22
 73
    18
 74
     0
 42
0.000000001
 43
0.00000001
 40
0.0
 40
0.0
 40
0.0
 40
0.0
 40
0.0271116948643064
 40
0.0985780659018853
 40
0.1704383997808992
 40
0.2409388235248318
 40
0.3114388892215557
 40
0.3832991228856228
 40
0.454765671801923
 40
0.5247228683407448
 40
0.5960373094519926
 40
0.6679417671311909
 40
0.738675838016368
 40
0.8089590546482046
 40
0.8807535608542846
 40
0.9523508266930955
 40
1.0
 40
1.0
 40
1.0
 40
1.0
 10
6570.310289077383
 20
5137.024875037654
 30
0.0
 10
6570.304305010651
 20
5137.031701431275
 30
0.0
 10
6570.28254695651
 20
5137.056522184225
 30
0.0
 10
6570.869858618312
 20
5137.102217702463
 30
0.0
 10
6572.04186443976
 20
5137.160078890186
 30
0.0
 10
6573.758395079864
 20
5137.214305702149
 30
0.0
 10
6575.890038817535
 20
5137.268522786588
 30
0.0
 10
6578.362223170684
 20
5137.326415211957
 30
0.0
 10
6581.034582381115
 20
5137.383483935084
 30
0.0
 10
6583.774338611814
 20
5137.435957337322
 30
0.0
 10
6586.463795374711
 20
5137.492626102728
 30
0.0
 10
6588.973892415789
 20
5137.550570500134
 30
0.0
 10
6591.15890501708
 20
5137.605524580891
 30
0.0
 10
6592.936528232105
 20
5137.659050155254
 30
0.0
 10
6594.196152270378
 20
5137.716855495055
 30
0.0
 10
6594.888354503627
 20
5137.768192912335
 30
0.0
 10
6594.891729017894
 20
5137.798166759688
 30
0.0
 10
6594.893077425581
 20
5137.810143880828
 30
0.0
  0
SPLINE
  5
24B
330
1F
100
AcDbEntity
  8
0
  6
Continuous
 62
     7
370
    25
100
AcDbSpline
210
0.0
220
0.0
230
1.0
 70
     8
 71
     3
 72
    22
 73
    18
 74
     0
 42
0.000000001
 43
0.00000001
 40
0.0
 40
0.0
 40
0.0
 40
0.0
 40
0.0374813268917788
 40
0.1081749040605357
 40
0.1792580686448264
 40
0.2489961303074892
 40
0.318734011491812
 40
0.3898171222904246
 40
0.4605107062083365
 40
0.5297116392350986
 40
0.6002549783584833
 40
0.6713818084662785
 40
0.741350754106776
 40
0.810874213563095
 40
0.8818922980682277
 40
0.9527152556312742
 40
1.0
 40
1.0
 40
1.0
 40
1.0
 10
6569.452324919325
 20
5131.361217476709
 30
0.0
 10
6569.440022126499
 20
5131.370743001567
 30
0.0
 10
6569.404515020853
 20
5131.398234630681
 30
0.0
 10
6570.048876281069
 20
5131.446724093949
 30
0.0
 10
6571.309825688666
 20
5131.504615917678
 30
0.0
 10
6573.143701466192
 20
5131.558834722722
 30
0.0
 10
6575.424048064752
 20
5131.613053783368
 30
0.0
 10
6578.067939763056
 20
5131.670945588269
 30
0.0
 10
6580.926101906713
 20
5131.728015036836
 30
0.0
 10
6583.856288133235
 20
5131.780486949816
 30
0.0
 10
6586.732702272602
 20
5131.837160162457
 30
0.0
 10
6589.417284430918
 20
5131.895099274619
 30
0.0
 10
6591.754172704077
 20
5131.950058951956
 30
0.0
 10
6593.655351175948
 20
5132.003579530798
 30
0.0
 10
6595.002614822502
 20
5132.061386842061
 30
0.0
 10
6595.743255255296
 20
5132.11276306427
 30
0.0
 10
6595.746761803343
 20
5132.142776066389
 30
0.0
 10
6595.748165659529
 20
5132.154791854604
 30
0.0
  0
SPLINE
  5
24C
330
1F
100
AcDbEntity
  8
0
  6
Continuous
 62
     7
370
    25
100
AcDbSpline
210
0.0
220
0.0
230
1.0
 70
     8
 71
     3
 72
    22
 73
    18
 74
     0
 42
0.000000001
 43
0.00000001
 40
0.0
 40
0.0
 40
0.0
 40
0.0
 40
0.0374813268576219
 40
0.1081749039619555
 40
0.1792580693607288
 40
0.248996130959839
 40
0.3187340120806094
 40
0.3898171228144437
 40
0.4605107066679321
 40
0.5297116387992211
 40
0.6002549778583195
 40
0.6713818087816354
 40
0.7413507535067663
 40
0.810874213740268
 40
0.8818922973030591
 40
0.9527152556743651
 40
1.0
 40
1.0
 40
1.0
 40
1.0
 10
6569.452324919325
 20
5132.948716409786
 30
0.0
 10
6569.440022126298
 20
5132.958241955776
 30
0.0
 10
6569.404515020069
 20
5132.985733645881
 30
0.0
 10
6570.048876290838
 20
5133.034222335373
 30
0.0
 10
6571.309825675945
 20
5133.092117387636
 30
0.0
 10
6573.143701467747
 20
5133.146335328202
 30
0.0
 10
6575.424048063538
 20
5133.200554672935
 30
0.0
 10
6578.067939766384
 20
5133.258446199574
 30
0.0
 10
6580.926101883539
 20
5133.315516465113
 30
0.0
 10
6583.856288153529
 20
5133.367985431459
 30
0.0
 10
6586.732702296242
 20
5133.424658355238
 30
0.0
 10
6589.417284386333
 20
5133.482601634431
 30
0.0
 10
6591.754172744153
 20
5133.537556134597
 30
0.0
 10
6593.655351143716
 20
5133.591082106075
 30
0.0
 10
6595.002614844701
 20
5133.64888412816
 30
0.0
 10
6595.743255250969
 20
5133.700264405963
 30
0.0
 10
6595.746761802114
 20
5133.730277018264
 30
0.0
 10
6595.748165659529
 20
5133.742292650326
 30
0.0
  0
SPLINE
  5
24D
330
1F
100
AcDbEntity
  8
0
  6
Continuous
 62
     7
370
    25
100
AcDbSpline
210
0.0
220
0.0
230
1.0
 70
     8
 71
     3
 72
    22
 73
    18
 74
     0
 42
0.000000001
 43
0.00000001
 40
0.0
 40
0.0
 40
0.0
 40
0.0
 40
0.0374813268900227
 40
0.1081749040554676
 40
0.1792580686364279
 40
0.2489961302958233
 40
0.3187340114768788
 40
0.3898171231514227
 40
0.4605107070660225
 40
0.5297116392571325
 40
0.6002549783772121
 40
0.671381808481675
 40
0.7413507541188942
 40
0.8108742135719559
 40
0.8818922980737612
 40
0.9527152556334897
 40
1.0
 40
1.0
 40
1.0
 40
1.0
 10
6569.452324919325
 20
5134.536217205508
 30
0.0
 10
6569.440022126506
 20
5134.545742729991
 30
0.0
 10
6569.404515020879
 20
5134.573234358021
 30
0.0
 10
6570.048876280845
 20
5134.62172383503
 30
0.0
 10
6571.309825689485
 20
5134.679615601451
 30
0.0
 10
6573.143701463209
 20
5134.733834615806
 30
0.0
 10
6575.424048085503
 20
5134.788052893944
 30
0.0
 10
6578.067939743061
 20
5134.845947669886
 30
0.0
 10
6580.926101885515
 20
5134.903017146193
 30
0.0
 10
6583.856288156658
 20
5134.955486033316
 30
0.0
 10
6586.732702269311
 20
5135.012160067328
 30
0.0
 10
6589.417284431787
 20
5135.070098956924
 30
0.0
 10
6591.754172703848
 20
5135.125058693031
 30
0.0
 10
6593.655351176011
 20
5135.178579256236
 30
0.0
 10
6595.002614822484
 20
5135.236386571773
 30
0.0
 10
6595.743255255299
 20
5135.287762792927
 30
0.0
 10
6595.746761803344
 20
5135.317775795148
 30
0.0
 10
6595.748165659529
 20
5135.329791583403
 30
0.0
  0
SPLINE
  5
24E
330
1F
100
AcDbEntity
  8
0
  6
Continuous
 62
     7
370
    25
100
AcDbSpline
210
0.0
220
0.0
230
1.0
 70
     8
 71
     3
 72
    22
 73
    18
 74
     0
 42
0.000000001
 43
0.00000001
 40
0.0
 40
0.0
 40
0.0
 40
0.0
 40
0.0374813276928742
 40
0.1081749048025415
 40
0.179258069327417
 40
0.2489961309317889
 40
0.318734012057821
 40
0.3898171227970184
 40
0.4605107066558407
 40
0.5297116396247609
 40
0.6002549778233371
 40
0.6713818087520196
 40
0.7413507534824295
 40
0.8108742137211767
 40
0.8818922981669486
 40
0.9527152556707975
 40
1.0
 40
1.0
 40
1.0
 40
1.0
 10
6569.452324919325
 20
5136.123716138585
 30
0.0
 10
6569.440022125868
 20
5136.133242402135
 30
0.0
 10
6569.404515018918
 20
5136.160736162788
 30
0.0
 10
6570.048876280706
 20
5136.209224279611
 30
0.0
 10
6571.309825688783
 20
5136.267116530097
 30
0.0
 10
6573.143701466083
 20
5136.321335228236
 30
0.0
 10
6575.424048065078
 20
5136.375554296752
 30
0.0
 10
6578.06793976184
 20
5136.433446178077
 30
0.0
 10
6580.926101911174
 20
5136.490515315557
 30
0.0
 10
6583.85628810479
 20
5136.54298837892
 30
0.0
 10
6586.732702323865
 20
5136.599657221925
 30
0.0
 10
6589.417284382351
 20
5136.657601532931
 30
0.0
 10
6591.754172743701
 20
5136.712556030157
 30
0.0
 10
6593.655351157385
 20
5136.76608099871
 30
0.0
 10
6595.002614826092
 20
5136.82388711005
 30
0.0
 10
6595.743255254738
 20
5136.875263628718
 30
0.0
 10
6595.746761803183
 20
5136.905276602325
 30
0.0
 10
6595.748165659529
 20
5136.917292379125
 30
0.0
  0
SPLINE
  5
24F
330
1F
100
AcDbEntity
  8
0
  6
Continuous
 62
     7
370
    25
100
AcDbSpline
210
0.0
220
0.0
230
1.0
 70
     8
 71
     3
 72
    22
 73
    18
 74
     0
 42
0.000000001
 43
0.00000001
 40
0.0
 40
0.0
 40
0.0
 40
0.0
 40
0.0374813268898104
 40
0.1081749040548547
 40
0.1792580686354123
 40
0.2489961302944126
 40
0.3187340123209593
 40
0.3898171231158388
 40
0.4605107070300379
 40
0.5297116392207558
 40
0.6002549783404358
 40
0.6713818084444956
 40
0.7413507540813185
 40
0.8108742135339863
 40
0.8818922980353893
 40
0.9527152564675172
 40
1.0
 40
1.0
 40
1.0
 40
1.0
 10
6569.452324919325
 20
5137.711216934307
 30
0.0
 10
6569.440022126474
 20
5137.720742460746
 30
0.0
 10
6569.404515020758
 20
5137.748234094425
 30
0.0
 10
6570.048876281872
 20
5137.796723499763
 30
0.0
 10
6571.309825685721
 20
5137.854615565111
 30
0.0
 10
6573.143701484305
 20
5137.908833487884
 30
0.0
 10
6575.424048043536
 20
5137.963055848895
 30
0.0
 10
6578.06793976919
 20
5138.020946532396
 30
0.0
 10
6580.926101881808
 20
5138.078017100725
 30
0.0
 10
6583.85628815766
 20
5138.130485702074
 30
0.0
 10
6586.73270226905
 20
5138.18715980797
 30
0.0
 10
6589.41728443181
 20
5138.245098699555
 30
0.0
 10
6591.75417270401
 20
5138.300058356328
 30
0.0
 10
6593.655351175335
 20
5138.353579234134
 30
0.0
 10
6595.002614830647
 20
5138.411385348612
 30
0.0
 10
6595.743255249845
 20
5138.462765565336
 30
0.0
 10
6595.746761801803
 20
5138.492776394251
 30
0.0
 10
6595.748165659529
 20
5138.504791312202
 30
0.0
  0
SPLINE
  5
250
330
1F
100
AcDbEntity
  8
0
  6
Continuous
 62
     7
370
    25
100
AcDbSpline
210
0.0
220
0.0
230
1.0
 70
     8
 71
     3
 72
    22
 73
    18
 74
     0
 42
0.000000001
 43
0.00000001
 40
0.0
 40
0.0
 40
0.0
 40
0.0
 40
0.0379059839907979
 40
0.1093593315074539
 40
0.1812065700725711
 40
0.2516941463229151
 40
0.3221813645912984
 40
0.3940285029597314
 40
0.4654820283226933
 40
0.5354264763617718
 40
0.6067279216387211
 40
0.6786192759632166
 40
0.7493404567766194
 40
0.8196108654971399
 40
0.8913922883852881
 40
0.9629765068498426
 40
1.0
 40
1.0
 40
1.0
 40
1.0
 10
6570.306548885924
 20
5130.865105666502
 30
0.0
 10
6570.295031996596
 20
5130.874637462009
 30
0.0
 10
6570.261805598401
 20
5130.902136834797
 30
0.0
 10
6570.86431344259
 20
5130.950630556626
 30
0.0
 10
6572.043322306163
 20
5131.008522798238
 30
0.0
 10
6573.758007875394
 20
5131.062741428536
 30
0.0
 10
6575.890144715531
 20
5131.116960699512
 30
0.0
 10
6578.362195132522
 20
5131.174852531158
 30
0.0
 10
6581.034588187444
 20
5131.231921403637
 30
0.0
 10
6583.774342562205
 20
5131.284394800312
 30
0.0
 10
6586.463773083387
 20
5131.34106343923
 30
0.0
 10
6588.973977656792
 20
5131.3990083515
 30
0.0
 10
6591.158593098072
 20
5131.453960531499
 30
0.0
 10
6592.93769531103
 20
5131.507493183942
 30
0.0
 10
6594.191696295671
 20
5131.565271613399
 30
0.0
 10
6594.863066099943
 20
5131.613839897592
 30
0.0
 10
6594.873401360023
 20
5131.641180856958
 30
0.0
 10
6594.876924566847
 20
5131.650501169546
 30
0.0
  0
SPLINE
  5
251
330
1F
100
AcDbEntity
  8
0
  6
Continuous
 62
     7
370
    25
100
AcDbSpline
210
0.0
220
0.0
230
1.0
 70
     8
 71
     3
 72
    22
 73
    18
 74
     0
 42
0.000000001
 43
0.00000001
 40
0.0
 40
0.0
 40
0.0
 40
0.0
 40
0.0379059830630121
 40
0.1093593306448459
 40
0.1812065692755001
 40
0.251694145590141
 40
0.3221813639228208
 40
0.3940285033732948
 40
0.4654820288014347
 40
0.5354264759419712
 40
0.6067279222849543
 40
0.6786192756572779
 40
0.749340457519717
 40
0.8196108653325938
 40
0.8913922882862191
 40
0.9629765068160707
 40
1.0
 40
1.0
 40
1.0
 40
1.0
 10
6570.306548885924
 20
5132.452606462224
 30
0.0
 10
6570.295031997278
 20
5132.462137518627
 30
0.0
 10
6570.2618056005
 20
5132.489634759548
 30
0.0
 10
6570.864313442738
 20
5132.538129840558
 30
0.0
 10
6572.043322306912
 20
5132.596021598469
 30
0.0
 10
6573.75800787232
 20
5132.650240544875
 30
0.0
 10
6575.890144737376
 20
5132.704459025576
 30
0.0
 10
6578.36219511244
 20
5132.762353751705
 30
0.0
 10
6581.034588160003
 20
5132.819422963006
 30
0.0
 10
6583.774342617675
 20
5132.871892183648
 30
0.0
 10
6586.463773025043
 20
5132.928566013282
 30
0.0
 10
6588.973977709662
 20
5132.986505504406
 30
0.0
 10
6591.158593055445
 20
5133.041462923183
 30
0.0
 10
6592.93769533094
 20
5133.094991169755
 30
0.0
 10
6594.191696291778
 20
5133.152770806165
 30
0.0
 10
6594.863066100393
 20
5133.201338800689
 30
0.0
 10
6594.873401360138
 20
5133.228679782413
 30
0.0
 10
6594.876924566847
 20
5133.238000102623
 30
0.0
  0
SPLINE
  5
252
330
1F
100
AcDbEntity
  8
0
  6
Continuous
 62
     7
370
    25
100
AcDbSpline
210
0.0
220
0.0
230
1.0
 70
     8
 71
     3
 72
    22
 73
    18
 74
     0
 42
0.000000001
 43
0.00000001
 40
0.0
 40
0.0
 40
0.0
 40
0.0
 40
0.0379059830650651
 40
0.1093593306507688
 40
0.1812065692853144
 40
0.2516941456037729
 40
0.3221813639402704
 40
0.3940285023781316
 40
0.4654820278101415
 40
0.5354264759168096
 40
0.6067279222636544
 40
0.6786192756398717
 40
0.7493404575061411
 40
0.8196108653228239
 40
0.8913922882803368
 40
0.9629765068140655
 40
1.0
 40
1.0
 40
1.0
 40
1.0
 10
6570.306548885924
 20
5134.040107257946
 30
0.0
 10
6570.295031997271
 20
5134.049638314725
 30
0.0
 10
6570.261805600472
 20
5134.077135556728
 30
0.0
 10
6570.864313442977
 20
5134.125630623999
 30
0.0
 10
6572.043322306038
 20
5134.183522439213
 30
0.0
 10
6573.758007875511
 20
5134.237741176323
 30
0.0
 10
6575.890144715182
 20
5134.291960439452
 30
0.0
 10
6578.362195133822
 20
5134.349852194671
 30
0.0
 10
6581.034588182673
 20
5134.406921378223
 30
0.0
 10
6583.774342592626
 20
5134.459393624606
 30
0.0
 10
6586.463773028564
 20
5134.516066632938
 30
0.0
 10
6588.973977708732
 20
5134.574006346619
 30
0.0
 10
6591.15859305569
 20
5134.628963706629
 30
0.0
 10
6592.937695330873
 20
5134.682491968841
 30
0.0
 10
6594.191696291796
 20
5134.740271600965
 30
0.0
 10
6594.863066100391
 20
5134.788839596518
 30
0.0
 10
6594.873401360137
 20
5134.816180578162
 30
0.0
 10
6594.876924566847
 20
5134.825500898345
 30
0.0
  0
SPLINE
  5
253
330
1F
100
AcDbEntity
  8
0
  6
Continuous
 62
     7
370
    25
100
AcDbSpline
210
0.0
220
0.0
230
1.0
 70
     8
 71
     3
 72
    22
 73
    18
 74
     0
 42
0.000000001
 43
0.00000001
 40
0.0
 40
0.0
 40
0.0
 40
0.0
 40
0.0379059830627637
 40
0.1093593306441293
 40
0.1812065692743127
 40
0.2516941465664093
 40
0.3221813648986273
 40
0.3940285033321264
 40
0.465482028759798
 40
0.5354264758998762
 40
0.6067279222423921
 40
0.6786192756142446
 40
0.7493404574762204
 40
0.8196108652886366
 40
0.8913922882417915
 40
0.9629765077802085
 40
1.0
 40
1.0
 40
1.0
 40
1.0
 10
6570.306548885924
 20
5135.627606191023
 30
0.0
 10
6570.295031997349
 20
5135.637137242024
 30
0.0
 10
6570.261805600778
 20
5135.664634467355
 30
0.0
 10
6570.864313440405
 20
5135.713129746089
 30
0.0
 10
6572.04332232086
 20
5135.771020679639
 30
0.0
 10
6573.758007858094
 20
5135.825242638141
 30
0.0
 10
6575.890144716349
 20
5135.879461098868
 30
0.0
 10
6578.362195137011
 20
5135.937352851191
 30
0.0
 10
6581.034588156916
 20
5135.994422855681
 30
0.0
 10
6583.774342618509
 20
5136.046891869341
 30
0.0
 10
6586.463773024831
 20
5136.103565748696
 30
0.0
 10
6588.973977709667
 20
5136.161505250694
 30
0.0
 10
6591.158593055636
 20
5136.216462577205
 30
0.0
 10
6592.937695330173
 20
5136.269991181242
 30
0.0
 10
6594.191696300649
 20
5136.327769455102
 30
0.0
 10
6594.863066095029
 20
5136.376341726589
 30
0.0
 10
6594.873401358843
 20
5136.403680324187
 30
0.0
 10
6594.876924566847
 20
5136.412999831422
 30
0.0
  0
SPLINE
  5
254
330
1F
100
AcDbEntity
  8
0
  6
Continuous
 62
     7
370
    25
100
AcDbSpline
210
0.0
220
0.0
230
1.0
 70
     8
 71
     3
 72
    22
 73
    18
 74
     0
 42
0.000000001
 43
0.00000001
 40
0.0
 40
0.0
 40
0.0
 40
0.0
 40
0.0379059830650651
 40
0.1093593306507688
 40
0.1812065692853144
 40
0.2516941456037729
 40
0.3221813639402704
 40
0.3940285023781316
 40
0.4654820278101415
 40
0.5354264759168096
 40
0.6067279222636544
 40
0.6786192756398717
 40
0.7493404575061411
 40
0.8196108653228239
 40
0.8913922882803368
 40
0.9629765068140655
 40
1.0
 40
1.0
 40
1.0
 40
1.0
 10
6570.306548885924
 20
5137.215106986745
 30
0.0
 10
6570.295031997271
 20
5137.224638043524
 30
0.0
 10
6570.261805600472
 20
5137.252135285526
 30
0.0
 10
6570.864313442977
 20
5137.300630352798
 30
0.0
 10
6572.043322306038
 20
5137.358522168012
 30
0.0
 10
6573.758007875511
 20
5137.412740905122
 30
0.0
 10
6575.890144715182
 20
5137.466960168251
 30
0.0
 10
6578.362195133822
 20
5137.52485192347
 30
0.0
 10
6581.034588182673
 20
5137.581921107022
 30
0.0
 10
6583.774342592626
 20
5137.634393353405
 30
0.0
 10
6586.463773028564
 20
5137.691066361737
 30
0.0
 10
6588.973977708732
 20
5137.749006075418
 30
0.0
 10
6591.15859305569
 20
5137.803963435428
 30
0.0
 10
6592.937695330873
 20
5137.857491697639
 30
0.0
 10
6594.191696291796
 20
5137.915271329764
 30
0.0
 10
6594.863066100391
 20
5137.963839325317
 30
0.0
 10
6594.873401360137
 20
5137.991180306961
 30
0.0
 10
6594.876924566847
 20
5138.000500627144
 30
0.0
  0
LINE
  5
255
330
1F
100
AcDbEntity
  8
0
  6
Continuous
 62
     7
370
    25
100
AcDbLine
 10
6596.119830422
 20
5138.5822717625
 30
0.0
 11
6596.119830422
 21
5149.0822725522
 31
0.0
  0
LINE
  5
256
330
1F
100
AcDbEntity
  8
0
  6
Continuous
 62
     7
370
    25
100
AcDbLine
 10
6596.119830422
 20
5138.5822717625
 30
0.0
 11
6596.0707161947
 21
5138.5822717625
 31
0.0
  0
LINE
  5
257
330
1F
100
AcDbEntity
  8
0
  6
Continuous
 62
     7
370
    25
100
AcDbLine
 10
6629.5953411981
 20
5144.2822723242
 30
0.0
 11
6630.0953422113
 21
5144.2822723242
 31
0.0
  0
LINE
  5
258
330
1F
100
AcDbEntity
  8
0
  6
Continuous
 62
     7
370
    25
100
AcDbLine
 10
6629.5953411981
 20
5159.282272571
 30
0.0
 11
6629.5953411981
 21
5144.2822723242
 31
0.0
  0
LINE
  5
259
330
1F
100
AcDbEntity
  8
0
  6
Continuous
 62
     7
370
    25
100
AcDbLine
 10
6629.5953411981
 20
5267.3117064464
 30
0.0
 11
6630.0953422113
 21
5267.3117064464
 31
0.0
  0
LINE
  5
25A
330
1F
100
AcDbEntity
  8
0
  6
Continuous
 62
     7
370
    25
100
AcDbLine
 10
6629.5953411981
 20
5267.3117064464
 30
0.0
 11
6629.5953411981
 21
5159.282272571
 31
0.0
  0
ARC
  5
25B
330
1F
100
AcDbEntity
  8
0
  6
Continuous
 62
     7
370
    25
100
AcDbCircle
 10
6628.8458517743
 20
5275.0083894299
 30
0.0
 40
2.01639344391138
100
AcDbArc
 50
51.7082527006
 51
68.179624076
  0
LINE
  5
25C
330
1F
100
AcDbEntity
  8
0
  6
Continuous
 62
     7
370
    25
100
AcDbLine
 10
6629.5953411981
 20
5284.2822738516
 30
0.0
 11
6630.0953422113
 21
5284.2822738516
 31
0.0
  0
LINE
  5
25D
330
1F
100
AcDbEntity
  8
0
  6
Continuous
 62
     7
370
    25
100
AcDbLine
 10
6640.0956157967
 20
5205.4559618759
 30
0.0
 11
6640.0956157967
 21
5192.5559595752
 31
0.0
  0
LINE
  5
25E
330
1F
100
AcDbEntity
  8
0
  6
Continuous
 62
     7
370
    25
100
AcDbLine
 10
6640.0956157967
 20
5192.5559595752
 30
0.0
 11
6640.0956157967
 21
5191.5559612739
 31
0.0
  0
LINE
  5
25F
330
1F
100
AcDbEntity
  8
0
  6
Continuous
 62
     7
370
    25
100
AcDbLine
 10
6640.0956157967
 20
5191.5559612739
 30
0.0
 11
6640.0953475758
 21
5191.5559612739
 31
0.0
  0
LINE
  5
260
330
1F
100
AcDbEntity
  8
0
  6
Continuous
 62
     7
370
    25
100
AcDbLine
 10
6640.0956157967
 20
5206.4559601772
 30
0.0
 11
6640.0956157967
 21
5205.4559618759
 31
0.0
  0
LINE
  5
261
330
1F
100
AcDbEntity
  8
0
  6
Continuous
 62
     7
370
    25
100
AcDbLine
 10
6640.0953475758
 20
5206.4559601772
 30
0.0
 11
6640.0956157967
 21
5206.4559601772
 31
0.0
  0
LINE
  5
262
330
1F
100
AcDbEntity
  8
0
  6
Continuous
 62
     7
370
    25
100
AcDbLine
 10
6640.1203442737
 20
5149.6330520663
 30
0.0
 11
6640.1203442737
 21
5149.7079760361
 31
0.0
  0
LINE
  5
263
330
1F
100
AcDbEntity
  8
0
  6
Continuous
 62
     7
370
    25
100
AcDbLine
 10
6640.1203442737
 20
5147.325961158
 30
0.0
 11
6640.0953475758
 21
5147.325961158
 31
0.0
  0
LINE
  5
264
330
1F
100
AcDbEntity
  8
0
  6
Continuous
 62
     7
370
    25
100
AcDbLine
 10
6640.1203442737
 20
5148.1037598628
 30
0.0
 11
6640.1203442737
 21
5147.325961158
 31
0.0
  0
LINE
  5
265
330
1F
100
AcDbEntity
  8
0
  6
Continuous
 62
     7
370
    25
100
AcDbLine
 10
6640.1203442737
 20
5148.1037598628
 30
0.0
 11
6640.0953475758
 21
5148.1037598628
 31
0.0
  0
LINE
  5
266
330
1F
100
AcDbEntity
  8
0
  6
Continuous
 62
     7
370
    25
100
AcDbLine
 10
6640.1203442737
 20
5152.2935519519
 30
0.0
 11
6640.0953475758
 21
5152.2935519519
 31
0.0
  0
LINE
  5
267
330
1F
100
AcDbEntity
  8
0
  6
Continuous
 62
     7
370
    25
100
AcDbLine
 10
6640.1203442737
 20
5150.776557863
 30
0.0
 11
6640.0953475758
 21
5150.776557863
 31
0.0
  0
LINE
  5
268
330
1F
100
AcDbEntity
  8
0
  6
Continuous
 62
     7
370
    25
100
AcDbLine
 10
6640.1203442737
 20
5153.7250049937
 30
0.0
 11
6640.0953475758
 21
5153.7250049937
 31
0.0
  0
LINE
  5
269
330
1F
100
AcDbEntity
  8
0
  6
Continuous
 62
     7
370
    25
100
AcDbLine
 10
6640.1203442737
 20
5149.7079760361
 30
0.0
 11
6640.0953475758
 21
5149.7079760361
 31
0.0
  0
LINE
  5
26A
330
1F
100
AcDbEntity
  8
0
  6
Continuous
 62
     7
370
    25
100
AcDbLine
 10
6640.1203442737
 20
5150.776557863
 30
0.0
 11
6640.1203442737
 21
5149.7079760361
 31
0.0
  0
LINE
  5
26B
330
1F
100
AcDbEntity
  8
0
  6
Continuous
 62
     7
370
    25
100
AcDbLine
 10
6640.1203442737
 20
5148.6803817156
 30
0.0
 11
6640.0953475758
 21
5148.6803817156
 31
0.0
  0
LINE
  5
26C
330
1F
100
AcDbEntity
  8
0
  6
Continuous
 62
     7
370
    25
100
AcDbLine
 10
6640.1203442737
 20
5153.7250804308
 30
0.0
 11
6640.0953475758
 21
5153.7250804308
 31
0.0
  0
LINE
  5
26D
330
1F
100
AcDbEntity
  8
0
  6
Continuous
 62
     7
370
    25
100
AcDbLine
 10
6640.1203442737
 20
5154.4613384235
 30
0.0
 11
6640.0953475758
 21
5154.4613384235
 31
0.0
  0
LINE
  5
26E
330
1F
100
AcDbEntity
  8
0
  6
Continuous
 62
     7
370
    25
100
AcDbLine
 10
6640.1203442737
 20
5154.4701990264
 30
0.0
 11
6640.0953475758
 21
5154.4701990264
 31
0.0
  0
LINE
  5
26F
330
1F
100
AcDbEntity
  8
0
  6
Continuous
 62
     7
370
    25
100
AcDbLine
 10
6630.0953422113
 20
5287.7059646475
 30
0.0
 11
6630.0953422113
 21
5137.7059605497
 31
0.0
  0
LINE
  5
270
330
1F
100
AcDbEntity
  8
0
  6
Continuous
 62
     7
370
    25
100
AcDbLine
 10
6630.0953422113
 20
5287.7059646475
 30
0.0
 11
6640.0953475758
 21
5287.7059646475
 31
0.0
  0
LINE
  5
271
330
1F
100
AcDbEntity
  8
0
  6
Continuous
 62
     7
370
    25
100
AcDbLine
 10
6640.0953475758
 20
5287.7059646475
 30
0.0
 11
6640.0953475758
 21
5137.7059605497
 31
0.0
  0
LINE
  5
272
330
1F
100
AcDbEntity
  8
0
  6
Continuous
 62
     7
370
    25
100
AcDbLine
 10
6630.0953422113
 20
5137.7059605497
 30
0.0
 11
6640.0953475758
 21
5137.7059605497
 31
0.0
  0
ARC
  5
273
330
1F
100
AcDbEntity
  8
0
  6
Continuous
 62
     7
370
    25
100
AcDbCircle
 10
6630.0953441951
 20
5137.7059607401
 30
0.0
 40
10.0
100
AcDbArc
 50
270.0
 51
0.0
  0
LINE
  5
274
330
1F
100
AcDbEntity
  8
0
  6
Continuous
 62
     7
370
    25
100
AcDbLine
 10
6630.0953422113
 20
5137.7059605497
 30
0.0
 11
6630.0953422113
 21
5127.7059607732
 31
0.0
  0
ARC
  5
275
330
1F
100
AcDbEntity
  8
0
  6
Continuous
 62
     7
370
    25
100
AcDbCircle
 10
6630.0953441951
 20
5287.7059607401
 30
0.0
 40
10.0
100
AcDbArc
 50
0.0
 51
90.0
  0
LINE
  5
276
330
1F
100
AcDbEntity
  8
0
  6
Continuous
 62
     7
370
    25
100
AcDbLine
 10
6630.0953422113
 20
5297.7059551108
 30
0.0
 11
6630.0953422113
 21
5287.7059646475
 31
0.0
  0
LINE
  5
277
330
1F
100
AcDbEntity
  8
0
  6
Continuous
 62
     8
370
    25
100
AcDbLine
 10
6602.9855106398
 20
5148.1822722184
 30
0.0
 11
6613.195339255
 21
5148.1822722184
 31
0.0
  0
LINE
  5
278
330
1F
100
AcDbEntity
  8
0
  6
Continuous
 62
     8
370
    25
100
AcDbLine
 10
6602.9855106398
 20
5148.1822722184
 30
0.0
 11
6599.9953393265
 21
5148.1822722184
 31
0.0
  0
LINE
  5
279
330
1F
100
AcDbEntity
  8
0
  6
Continuous
 62
     8
370
    25
100
AcDbLine
 10
6629.5953411981
 20
5159.282272571
 30
0.0
 11
6630.0953422113
 21
5159.282272571
 31
0.0
  0
LINE
  5
27A
330
1F
100
AcDbEntity
  8
0
  6
Continuous
 62
     8
370
    25
100
AcDbLine
 10
6640.0953475758
 20
5192.5559595752
 30
0.0
 11
6640.0956157967
 21
5192.5559595752
 31
0.0
  0
LINE
  5
27B
330
1F
100
AcDbEntity
  8
0
  6
Continuous
 62
     8
370
    25
100
AcDbLine
 10
6640.0956157967
 20
5205.4559618759
 30
0.0
 11
6640.0953475758
 21
5205.4559618759
 31
0.0
  0
LINE
  5
27C
330
1F
100
AcDbEntity
  8
0
  6
Continuous
 62
     7
370
    25
100
AcDbLine
 10
6209.0331539495
 20
4924.9200679353
 30
0.0
 11
6209.0331539495
 21
4855.3200669577
 31
0.0
  0
LINE
  5
27D
330
1F
100
AcDbEntity
  8
0
  6
Continuous
 62
     7
370
    25
100
AcDbLine
 10
6340.033154933
 20
4855.3200669577
 30
0.0
 11
6340.033154933
 21
4924.9200679353
 31
0.0
  0
LINE
  5
27E
330
1F
100
AcDbEntity
  8
0
  6
Continuous
 62
     7
370
    25
100
AcDbLine
 10
6223.6556932314
 20
4855.3200669577
 30
0.0
 11
6223.6556932314
 21
4852.4200700214
 31
0.0
  0
LINE
  5
27F
330
1F
100
AcDbEntity
  8
0
  6
Continuous
 62
     7
370
    25
100
AcDbLine
 10
6325.4106156512
 20
4855.3200669577
 30
0.0
 11
6223.6556932314
 21
4855.3200669577
 31
0.0
  0
LINE
  5
280
330
1F
100
AcDbEntity
  8
0
  6
Continuous
 62
     7
370
    25
100
AcDbLine
 10
6325.4106156512
 20
4855.3200669577
 30
0.0
 11
6325.4106156512
 21
4852.4200700214
 31
0.0
  0
LINE
  5
281
330
1F
100
AcDbEntity
  8
0
  6
Continuous
 62
     7
370
    25
100
AcDbLine
 10
6325.4106156512
 20
4852.4200700214
 30
0.0
 11
6223.6556932314
 21
4852.4200700214
 31
0.0
  0
LINE
  5
282
330
1F
100
AcDbEntity
  8
0
  6
Continuous
 62
     7
370
    25
100
AcDbLine
 10
6204.5331522806
 20
4855.3200669577
 30
0.0
 11
6204.5331522806
 21
4852.4200700214
 31
0.0
  0
LINE
  5
283
330
1F
100
AcDbEntity
  8
0
  6
Continuous
 62
     7
370
    25
100
AcDbLine
 10
6223.6556932314
 20
4855.3200669577
 30
0.0
 11
6204.5331522806
 21
4855.3200669577
 31
0.0
  0
LINE
  5
284
330
1F
100
AcDbEntity
  8
0
  6
Continuous
 62
     7
370
    25
100
AcDbLine
 10
6223.6556932314
 20
4852.4200700214
 30
0.0
 11
6204.615235327
 21
4852.4200700214
 31
0.0
  0
LINE
  5
285
330
1F
100
AcDbEntity
  8
0
  6
Continuous
 62
     7
370
    25
100
AcDbLine
 10
6344.5331528766
 20
4855.3200669577
 30
0.0
 11
6344.5331528766
 21
4852.4200700214
 31
0.0
  0
LINE
  5
286
330
1F
100
AcDbEntity
  8
0
  6
Continuous
 62
     7
370
    25
100
AcDbLine
 10
6325.4106156512
 20
4852.4200700214
 30
0.0
 11
6328.7845626457
 21
4852.4200700214
 31
0.0
  0
LINE
  5
287
330
1F
100
AcDbEntity
  8
0
  6
Continuous
 62
     7
370
    25
100
AcDbLine
 10
6325.4106156512
 20
4855.3200669577
 30
0.0
 11
6344.5331528766
 21
4855.3200669577
 31
0.0
  0
LINE
  5
288
330
1F
100
AcDbEntity
  8
0
  6
Continuous
 62
     7
370
    25
100
AcDbLine
 10
6323.5478736444
 20
4855.3200669577
 30
0.0
 11
6323.5478736444
 21
4924.9200679353
 31
0.0
  0
LINE
  5
289
330
1F
100
AcDbEntity
  8
0
  6
Continuous
 62
     7
370
    25
100
AcDbLine
 10
6225.5184352381
 20
4855.3200669577
 30
0.0
 11
6225.5184352381
 21
4924.9200679353
 31
0.0
  0
LINE
  5
28A
330
1F
100
AcDbEntity
  8
0
  6
Continuous
 62
     7
370
    25
100
AcDbLine
 10
6225.5184352381
 20
4924.9200679353
 30
0.0
 11
6323.5478736444
 21
4924.9200679353
 31
0.0
  0
LINE
  5
28B
330
1F
100
AcDbEntity
  8
0
  6
Continuous
 62
     7
370
    25
100
AcDbLine
 10
6328.9620876296
 20
4855.3200669577
 30
0.0
 11
6328.9620876296
 21
4924.9200679353
 31
0.0
  0
LINE
  5
28C
330
1F
100
AcDbEntity
  8
0
  6
Continuous
 62
     7
370
    25
100
AcDbLine
 10
6328.9620876296
 20
4924.9200679353
 30
0.0
 11
6323.5478736444
 21
4924.9200679353
 31
0.0
  0
LINE
  5
28D
330
1F
100
AcDbEntity
  8
0
  6
Continuous
 62
     7
370
    25
100
AcDbLine
 10
6220.1042212529
 20
4855.3200669577
 30
0.0
 11
6220.1042212529
 21
4924.9200679353
 31
0.0
  0
LINE
  5
28E
330
1F
100
AcDbEntity
  8
0
  6
Continuous
 62
     7
370
    25
100
AcDbLine
 10
6220.1042212529
 20
4924.9200679353
 30
0.0
 11
6225.5184352381
 21
4924.9200679353
 31
0.0
  0
LINE
  5
28F
330
1F
100
AcDbEntity
  8
0
  6
Continuous
 62
     7
370
    25
100
AcDbLine
 10
6215.8615812643
 20
4855.3200669577
 30
0.0
 11
6215.8615812643
 21
4924.9200679353
 31
0.0
  0
LINE
  5
290
330
1F
100
AcDbEntity
  8
0
  6
Continuous
 62
     7
370
    25
100
AcDbLine
 10
6209.0331539495
 20
4924.9200679353
 30
0.0
 11
6215.8615812643
 21
4924.9200679353
 31
0.0
  0
LINE
  5
291
330
1F
100
AcDbEntity
  8
0
  6
Continuous
 62
     7
370
    25
100
AcDbLine
 10
6333.2047276182
 20
4855.3200669577
 30
0.0
 11
6333.2047276182
 21
4924.9200679353
 31
0.0
  0
LINE
  5
292
330
1F
100
AcDbEntity
  8
0
  6
Continuous
 62
     7
370
    25
100
AcDbLine
 10
6340.033154933
 20
4924.9200679353
 30
0.0
 11
6333.2047276182
 21
4924.9200679353
 31
0.0
  0
LINE
  5
293
330
1F
100
AcDbEntity
  8
0
  6
Continuous
 62
     7
370
    25
100
AcDbLine
 10
6215.8615812643
 20
4924.9200679353
 30
0.0
 11
6220.1042212529
 21
4924.9200679353
 31
0.0
  0
LINE
  5
294
330
1F
100
AcDbEntity
  8
0
  6
Continuous
 62
     7
370
    25
100
AcDbLine
 10
6333.2047276182
 20
4924.9200679353
 30
0.0
 11
6328.9620876296
 21
4924.9200679353
 31
0.0
  0
LINE
  5
295
330
1F
100
AcDbEntity
  8
0
  6
Continuous
 62
     7
370
    25
100
AcDbLine
 10
6209.0331539495
 20
4855.3200669577
 30
0.0
 11
6209.0331539495
 21
4924.9200679353
 31
0.0
  0
LINE
  5
296
330
1F
100
AcDbEntity
  8
0
  6
Continuous
 62
     7
370
    25
100
AcDbLine
 10
6340.033154933
 20
4855.3200669577
 30
0.0
 11
6340.033154933
 21
4924.9200679353
 31
0.0
  0
LINE
  5
297
330
1F
100
AcDbEntity
  8
0
  6
Continuous
 62
     7
370
    25
100
AcDbLine
 10
6281.8117036933
 20
4898.1371976426
 30
0.0
 11
6281.3223332616
 21
4896.0986293843
 31
0.0
  0
SPLINE
  5
298
330
1F
100
AcDbEntity
  8
0
  6
Continuous
 62
     7
370
    25
100
AcDbSpline
210
0.0
220
0.0
230
1.0
 70
     8
 71
     3
 72
    12
 73
     8
 74
     0
 42
0.000000001
 43
0.00000001
 40
0.0
 40
0.0
 40
0.0
 40
0.0
 40
0.0684901181261027
 40
0.3439662905679047
 40
0.5587720657042224
 40
0.773577989546971
 40
1.0
 40
1.0
 40
1.0
 40
1.0
 10
6278.772739866497
 20
4893.366233258508
 30
0.0
 10
6278.879839609743
 20
4893.443966262238
 30
0.0
 10
6279.417708464592
 20
4893.834351527725
 30
0.0
 10
6280.195949393421
 20
4894.59935734692
 30
0.0
 10
6280.970337975617
 20
4895.724823279194
 30
0.0
 10
6281.522507659254
 20
4896.876452484113
 30
0.0
 10
6281.713627825934
 20
4897.709637578071
 30
0.0
 10
6281.811703693336
 20
4898.137197642587
 30
0.0
  0
CIRCLE
  5
299
330
1F
100
AcDbEntity
  8
0
  6
Continuous
 62
     7
370
    25
100
AcDbCircle
 10
6274.5331536693
 20
4899.4200670243
 30
0.0
 40
7.25
  0
SPLINE
  5
29A
330
1F
100
AcDbEntity
  8
0
  6
Continuous
 62
     7
370
    25
100
AcDbSpline
210
0.0
220
0.0
230
1.0
 70
     8
 71
     3
 72
    14
 73
    10
 74
     0
 42
0.000000001
 43
0.00000001
 40
0.0
 40
0.0
 40
0.0
 40
0.0
 40
0.0886408661537467
 40
0.2397693929241804
 40
0.3908978738372264
 40
0.5420927409934906
 40
0.6932745935634946
 40
0.8466367104611413
 40
1.0
 40
1.0
 40
1.0
 40
1.0
 10
6270.812756845942
 20
4892.856360225938
 30
0.0
 10
6271.030391570905
 20
4892.734966927231
 30
0.0
 10
6271.619083312624
 20
4892.406603737664
 30
0.0
 10
6272.680915686808
 20
4892.093760019956
 30
0.0
 10
6273.942516534585
 20
4891.903812463611
 30
0.0
 10
6275.222376309854
 20
4891.941809333487
 30
0.0
 10
6276.480653656025
 20
4892.194897047063
 30
0.0
 10
6277.690978407092
 20
4892.655689946952
 30
0.0
 10
6278.412151794323
 20
4893.129384884329
 30
0.0
 10
6278.772739866497
 20
4893.366233258508
 30
0.0
  0
CIRCLE
  5
29B
330
1F
100
AcDbEntity
  8
0
  6
Continuous
 62
     7
370
    25
100
AcDbCircle
 10
6274.5331536693
 20
4899.4200670243
 30
0.0
 40
6.25
  0
CIRCLE
  5
29C
330
1F
100
AcDbEntity
  8
0
  6
Continuous
 62
     7
370
    25
100
AcDbCircle
 10
6274.5331536693
 20
4899.4200670243
 30
0.0
 40
3.649999999999636
  0
SPLINE
  5
29D
330
1F
100
AcDbEntity
  8
0
  6
Continuous
 62
     7
370
    25
100
AcDbSpline
210
0.0
220
0.0
230
1.0
 70
     8
 71
     3
 72
    39
 73
    35
 74
     0
 42
0.000000001
 43
0.00000001
 40
0.0
 40
0.0
 40
0.0
 40
0.0
 40
0.0308462851468591
 40
0.0621060627369703
 40
0.0933651718430521
 40
0.1258167470081617
 40
0.1582684100864125
 40
0.1904165879769102
 40
0.2225647036818315
 40
0.2547204745805508
 40
0.2868744810132325
 40
0.3187996341928144
 40
0.3507248008301963
 40
0.3825674765880376
 40
0.414407997503872
 40
0.4461268303604817
 40
0.4778456487344392
 40
0.5093762605947448
 40
0.5409061560885988
 40
0.5724168564386541
 40
0.6039275328405685
 40
0.6351483831895447
 40
0.6663693773773219
 40
0.6975982745403395
 40
0.7288259750537722
 40
0.7598088502013605
 40
0.7907917316964027
 40
0.8217076707206703
 40
0.8526213478617749
 40
0.883397984909093
 40
0.9141746125305277
 40
0.9447783315456071
 40
0.975380952177809
 40
1.0
 40
1.0
 40
1.0
 40
1.0
 10
6261.612055821559
 20
4902.217716722749
 30
0.0
 10
6261.503211525242
 20
4901.519665296631
 30
0.0
 10
6261.28406388191
 20
4900.114205110494
 30
0.0
 10
6261.393000231547
 20
4897.969233156257
 30
0.0
 10
6261.82410224353
 20
4895.834366598999
 30
0.0
 10
6262.626771117997
 20
4893.776271258347
 30
0.0
 10
6263.768884566837
 20
4891.862760114203
 30
0.0
 10
6265.219117883275
 20
4890.17984847956
 30
0.0
 10
6266.920972553994
 20
4888.762612163644
 30
0.0
 10
6268.8409054739
 20
4887.658137812391
 30
0.0
 10
6270.912654713013
 20
4886.888816767664
 30
0.0
 10
6273.080745552064
 20
4886.4898210974
 30
0.0
 10
6275.277766418089
 20
4886.453834807195
 30
0.0
 10
6277.446508272636
 20
4886.794593342657
 30
0.0
 10
6279.524950558875
 20
4887.487186800394
 30
0.0
 10
6281.449828099025
 20
4888.52724739833
 30
0.0
 10
6283.170570768496
 20
4889.866935516325
 30
0.0
 10
6284.6325552453
 20
4891.479000397228
 30
0.0
 10
6285.807103421097
 20
4893.305560114004
 30
0.0
 10
6286.648850808299
 20
4895.307011108995
 30
0.0
 10
6287.144952311689
 20
4897.413565235179
 30
0.0
 10
6287.270586108636
 20
4899.567190927854
 30
0.0
 10
6287.041207017208
 20
4901.705773374669
 30
0.0
 10
6286.44811840118
 20
4903.773507057684
 30
0.0
 10
6285.52263164027
 20
4905.709445051599
 30
0.0
 10
6284.280163519714
 20
4907.451735200121
 30
0.0
 10
6282.772635256363
 20
4908.960370875629
 30
0.0
 10
6281.030210729724
 20
4910.187428115825
 30
0.0
 10
6279.113080581526
 20
4911.107956803391
 30
0.0
 10
6277.069029183248
 20
4911.681875325576
 30
0.0
 10
6274.964545236498
 20
4911.910571327648
 30
0.0
 10
6272.859056131532
 20
4911.769584484944
 30
0.0
 10
6270.932778225834
 20
4911.334663076527
 30
0.0
 10
6269.775495046722
 20
4910.826488393298
 30
0.0
 10
6269.259552469692
 20
4910.599932818674
 30
0.0
  0
ARC
  5
29E
330
1F
100
AcDbEntity
  8
0
  6
Continuous
 62
     7
370
    25
100
AcDbCircle
 10
6274.5331536693
 20
4899.4200670243
 30
0.0
 40
13.22050000000062
100
AcDbArc
 50
77.7830172522
 51
167.7830161819
  0
SPLINE
  5
29F
330
1F
100
AcDbEntity
  8
0
  6
Continuous
 62
     7
370
    25
100
AcDbSpline
210
0.0
220
0.0
230
1.0
 70
     8
 71
     3
 72
    16
 73
    12
 74
     0
 42
0.000000001
 43
0.00000001
 40
0.0
 40
0.0
 40
0.0
 40
0.0
 40
0.114832826087585
 40
0.2307148782008639
 40
0.3466033633645491
 40
0.4626829472783702
 40
0.5787628607756704
 40
0.6949735886358606
 40
0.8112107768921004
 40
0.9056053406018915
 40
1.0
 40
1.0
 40
1.0
 40
1.0
 10
6262.898796236357
 20
4903.596431761049
 30
0.0
 10
6263.138583865639
 20
4904.260846084639
 30
0.0
 10
6263.620350060627
 20
4905.595745476779
 30
0.0
 10
6264.768080002124
 20
4907.404690871185
 30
0.0
 10
6266.177564729488
 20
4909.017539732578
 30
0.0
 10
6267.849442242881
 20
4910.363649310424
 30
0.0
 10
6269.719866885671
 20
4911.418158267417
 30
0.0
 10
6271.745122148671
 20
4912.138153150519
 30
0.0
 10
6273.726727729822
 20
4912.493078927416
 30
0.0
 10
6275.605001475395
 20
4912.563791449114
 30
0.0
 10
6276.755535736997
 20
4912.415372712444
 30
0.0
 10
6277.330803159373
 20
4912.341163306497
 30
0.0
  0
SPLINE
  5
2A0
330
1F
100
AcDbEntity
  8
0
  6
Continuous
 62
     7
370
    25
100
AcDbSpline
210
0.0
220
0.0
230
1.0
 70
     8
 71
     3
 72
    13
 73
     9
 74
     0
 42
0.000000001
 43
0.00000001
 40
0.0
 40
0.0
 40
0.0
 40
0.0
 40
0.0409237822044779
 40
0.2049395970570146
 40
0.41965768921613
 40
0.6343765159489341
 40
0.8171889578846723
 40
1.0
 40
1.0
 40
1.0
 40
1.0
 10
6269.259552469692
 20
4910.599932818674
 30
0.0
 10
6269.14046179911
 20
4910.542278661705
 30
0.0
 10
6268.544075230532
 20
4910.253556088642
 30
0.0
 10
6267.376550666469
 20
4909.55391374728
 30
0.0
 10
6265.884598300246
 20
4908.332764809274
 30
0.0
 10
6264.581251922456
 20
4906.832275369062
 30
0.0
 10
6263.568812899747
 20
4905.241304131322
 30
0.0
 10
6263.122134554104
 20
4904.144721151686
 30
0.0
 10
6262.898796236357
 20
4903.596431761049
 30
0.0
  0
CIRCLE
  5
2A1
330
1F
100
AcDbEntity
  8
0
  6
Continuous
 62
     7
370
    25
100
AcDbCircle
 10
6274.5331536693
 20
4899.4200670243
 30
0.0
 40
11.72049999999968
  0
CIRCLE
  5
2A2
330
1F
100
AcDbEntity
  8
0
  6
Continuous
 62
     7
370
    25
100
AcDbCircle
 10
6274.5331536693
 20
4899.4200670243
 30
0.0
 40
7.625000000000504
  0
SPLINE
  5
2A3
330
1F
100
AcDbEntity
  8
0
  6
Continuous
 62
     7
370
    25
100
AcDbSpline
210
0.0
220
0.0
230
1.0
 70
     8
 71
     3
 72
    28
 73
    24
 74
     0
 42
0.000000001
 43
0.00000001
 40
0.0
 40
0.0
 40
0.0
 40
0.0
 40
0.0280927386014962
 40
0.077966563183312
 40
0.1281602309575612
 40
0.1791840491897534
 40
0.2297894394638117
 40
0.2794320523256721
 40
0.3301453251249222
 40
0.3811380124280651
 40
0.4311657074114045
 40
0.4811933418767423
 40
0.532186032299759
 40
0.5828992977229212
 40
0.6325417492857314
 40
0.6831471454387273
 40
0.7341711339013153
 40
0.7843647310544866
 40
0.8342385666635795
 40
0.8851845282575393
 40
0.9359906076140715
 40
0.9856717727932036
 40
0.9999999999999999
 40
0.9999999999999999
 40
0.9999999999999999
 40
0.9999999999999999
 10
6277.330803159373
 20
4912.341163306497
 30
0.0
 10
6277.855593979442
 20
4912.207115164065
 30
0.0
 10
6279.31206062057
 20
4911.835087605099
 30
0.0
 10
6281.554303376343
 20
4910.741221480553
 30
0.0
 10
6283.864895632654
 20
4908.93944191977
 30
0.0
 10
6285.729594206509
 20
4906.653612576338
 30
0.0
 10
6287.039521351809
 20
4904.024795694088
 30
0.0
 10
6287.743744412825
 20
4901.180068433539
 30
0.0
 10
6287.811238472412
 20
4898.241753307511
 30
0.0
 10
6287.22641523559
 20
4895.353486407091
 30
0.0
 10
6286.027978798197
 20
4892.676978013592
 30
0.0
 10
6284.276530553894
 20
4890.324872496162
 30
0.0
 10
6282.040834408076
 20
4888.405056788222
 30
0.0
 10
6279.443116531298
 20
4887.030165062205
 30
0.0
 10
6276.616540932966
 20
4886.256833825414
 30
0.0
 10
6273.68228429728
 20
4886.117146033239
 30
0.0
 10
6270.778891834159
 20
4886.630559380329
 30
0.0
 10
6268.072337389135
 20
4887.763849410188
 30
0.0
 10
6265.681780167475
 20
4889.457372094092
 30
0.0
 10
6263.698205983646
 20
4891.642314421846
 30
0.0
 10
6262.297563440126
 20
4894.210443908414
 30
0.0
 10
6261.549177283065
 20
4896.335327688911
 30
0.0
 10
6261.48685246928
 20
4897.568596194784
 30
0.0
 10
6261.47290132775
 20
4897.84465804603
 30
0.0
  0
SPLINE
  5
2A4
330
1F
100
AcDbEntity
  8
0
  6
Continuous
 62
     7
370
    25
100
AcDbSpline
210
0.0
220
0.0
230
1.0
 70
     8
 71
     3
 72
    12
 73
     8
 74
     0
 42
0.000000001
 43
0.00000001
 40
0.0
 40
0.0
 40
0.0
 40
0.0
 40
0.1689539170194199
 40
0.3353661733015493
 40
0.650991131804079
 40
0.970969450271026
 40
1.0
 40
1.0
 40
1.0
 40
1.0
 10
6262.898796236357
 20
4903.596431761049
 30
0.0
 10
6263.078639684599
 20
4904.047618976914
 30
0.0
 10
6263.435621103524
 20
4904.943205967124
 30
0.0
 10
6264.375170775579
 20
4906.570431806939
 30
0.0
 10
6265.867660610041
 20
4908.325967888612
 30
0.0
 10
6267.329740297924
 20
4909.623679330199
 30
0.0
 10
6268.241801596349
 20
4910.041231322389
 30
0.0
 10
6268.317666834435
 20
4910.075963287614
 30
0.0
  0
LINE
  5
2A5
330
1F
100
AcDbEntity
  8
0
  6
Continuous
 62
     7
370
    25
100
AcDbLine
 10
6289.3507545797
 20
4896.092683821
 30
0.0
 11
6285.843310876
 21
4909.554810076
 31
0.0
  0
LINE
  5
2A6
330
1F
100
AcDbEntity
  8
0
  6
Continuous
 62
     7
370
    25
100
AcDbLine
 10
6285.9212281166
 20
4892.7103288462
 30
0.0
 11
6289.3507545797
 21
4896.092683821
 31
0.0
  0
LINE
  5
2A7
330
1F
100
AcDbEntity
  8
0
  6
Continuous
 62
     7
370
    25
100
AcDbLine
 10
6270.8143135516
 20
4913.6935628941
 30
0.0
 11
6267.9893728329
 21
4910.9074778846
 31
0.0
  0
LINE
  5
2A8
330
1F
100
AcDbEntity
  8
0
  6
Continuous
 62
     7
370
    25
100
AcDbLine
 10
6285.843310876
 20
4909.554810076
 30
0.0
 11
6281.0338716938
 21
4910.8792550853
 31
0.0
  0
LINE
  5
2A9
330
1F
100
AcDbEntity
  8
0
  6
Continuous
 62
     7
370
    25
100
AcDbLine
 10
6274.6396078712
 20
4912.6401402047
 30
0.0
 11
6270.8143135516
 21
4913.6935628941
 31
0.0
  0
LINE
  5
2AA
330
1F
100
AcDbEntity
  8
0
  6
Continuous
 62
     7
370
    25
100
AcDbLine
 10
6263.2229970752
 20
4889.2853267482
 30
0.0
 11
6267.8566565721
 21
4888.0092807105
 31
0.0
  0
LINE
  5
2AB
330
1F
100
AcDbEntity
  8
0
  6
Continuous
 62
     7
370
    25
100
AcDbLine
 10
6259.7155533715
 20
4902.7474530032
 30
0.0
 11
6263.2229970752
 21
4889.2853267482
 31
0.0
  0
LINE
  5
2AC
330
1F
100
AcDbEntity
  8
0
  6
Continuous
 62
     7
370
    25
100
AcDbLine
 10
6263.1374634786
 20
4906.1222977927
 30
0.0
 11
6259.7155533715
 21
4902.7474530032
 31
0.0
  0
LINE
  5
2AD
330
1F
100
AcDbEntity
  8
0
  6
Continuous
 62
     7
370
    25
100
AcDbLine
 10
6274.3543854432
 20
4886.2199045708
 30
0.0
 11
6278.2519936429
 21
4885.14657393
 31
0.0
  0
LINE
  5
2AE
330
1F
100
AcDbEntity
  8
0
  6
Continuous
 62
     7
370
    25
100
AcDbLine
 10
6278.2519936429
 20
4885.14657393
 30
0.0
 11
6281.2628466619
 21
4888.1160177281
 31
0.0
  0
LINE
  5
2AF
330
1F
100
AcDbEntity
  8
0
  6
Continuous
 62
     7
370
    25
100
AcDbLine
 10
6221.5037159605
 20
4852.4200700214
 30
0.0
 11
6221.5037159605
 21
4851.9200690081
 31
0.0
  0
LINE
  5
2B0
330
1F
100
AcDbEntity
  8
0
  6
Continuous
 62
     7
370
    25
100
AcDbLine
 10
6329.5331522806
 20
4852.4200700214
 30
0.0
 11
6328.7845626457
 21
4852.4200700214
 31
0.0
  0
LINE
  5
2B1
330
1F
100
AcDbEntity
  8
0
  6
Continuous
 62
     7
370
    25
100
AcDbLine
 10
6344.5331528766
 20
4852.4200700214
 30
0.0
 11
6344.5331528766
 21
4851.9200690081
 31
0.0
  0
LINE
  5
2B2
330
1F
100
AcDbEntity
  8
0
  6
Continuous
 62
     7
370
    25
100
AcDbLine
 10
6344.5331528766
 20
4852.4200700214
 30
0.0
 11
6329.5331522806
 21
4852.4200700214
 31
0.0
  0
ARC
  5
2B3
330
1F
100
AcDbEntity
  8
0
  6
Continuous
 62
     7
370
    25
100
AcDbCircle
 10
6213.8070367024
 20
4853.1695594451
 30
0.0
 40
2.01639344391138
100
AcDbArc
 50
201.820375924
 51
218.2917472994
  0
LINE
  5
2B4
330
1F
100
AcDbEntity
  8
0
  6
Continuous
 62
     7
370
    25
100
AcDbLine
 10
6204.5331522806
 20
4852.4200700214
 30
0.0
 11
6204.5331522806
 21
4851.9200690081
 31
0.0
  0
LINE
  5
2B5
330
1F
100
AcDbEntity
  8
0
  6
Continuous
 62
     7
370
    25
100
AcDbLine
 10
6204.615235327
 20
4852.4200700214
 30
0.0
 11
6204.5331522806
 21
4852.4200700214
 31
0.0
  0
LINE
  5
2B6
330
1F
100
AcDbEntity
  8
0
  6
Continuous
 62
     7
370
    25
100
AcDbLine
 10
6289.7187573819
 20
4841.9197954228
 30
0.0
 11
6258.3187576367
 21
4841.9197954228
 31
0.0
  0
LINE
  5
2B7
330
1F
100
AcDbEntity
  8
0
  6
Continuous
 62
     7
370
    25
100
AcDbLine
 10
6258.3187576367
 20
4841.9197954228
 30
0.0
 11
6257.3187574728
 21
4841.9197954228
 31
0.0
  0
LINE
  5
2B8
330
1F
100
AcDbEntity
  8
0
  6
Continuous
 62
     7
370
    25
100
AcDbLine
 10
6257.3187574728
 20
4841.9197954228
 30
0.0
 11
6257.3187574728
 21
4841.9200636437
 31
0.0
  0
LINE
  5
2B9
330
1F
100
AcDbEntity
  8
0
  6
Continuous
 62
     7
370
    25
100
AcDbLine
 10
6290.7187575458
 20
4841.9200636437
 30
0.0
 11
6290.7187575458
 21
4841.9197954228
 31
0.0
  0
LINE
  5
2BA
330
1F
100
AcDbEntity
  8
0
  6
Continuous
 62
     7
370
    25
100
AcDbLine
 10
6290.7187575458
 20
4841.9197954228
 30
0.0
 11
6289.7187573819
 21
4841.9197954228
 31
0.0
  0
LINE
  5
2BB
330
1F
100
AcDbEntity
  8
0
  6
Continuous
 62
     7
370
    25
100
AcDbLine
 10
6327.3139670475
 20
4841.8950669458
 30
0.0
 11
6327.3139670475
 21
4841.9200636437
 31
0.0
  0
LINE
  5
2BC
330
1F
100
AcDbEntity
  8
0
  6
Continuous
 62
     7
370
    25
100
AcDbLine
 10
6327.3139670475
 20
4841.8950669458
 30
0.0
 11
6310.9558187409
 21
4841.8950669458
 31
0.0
  0
LINE
  5
2BD
330
1F
100
AcDbEntity
  8
0
  6
Continuous
 62
     7
370
    25
100
AcDbLine
 10
6310.9558187409
 20
4841.8950669458
 30
0.0
 11
6310.9558187409
 21
4841.9200636437
 31
0.0
  0
LINE
  5
2BE
330
1F
100
AcDbEntity
  8
0
  6
Continuous
 62
     7
370
    25
100
AcDbLine
 10
6309.2937730236
 20
4841.8950669458
 30
0.0
 11
6309.2937730236
 21
4841.9200636437
 31
0.0
  0
LINE
  5
2BF
330
1F
100
AcDbEntity
  8
0
  6
Continuous
 62
     7
370
    25
100
AcDbLine
 10
6309.0258315189
 20
4841.8950669458
 30
0.0
 11
6309.0258315189
 21
4841.9200636437
 31
0.0
  0
LINE
  5
2C0
330
1F
100
AcDbEntity
  8
0
  6
Continuous
 62
     7
370
    25
100
AcDbLine
 10
6309.2065118237
 20
4841.8950669458
 30
0.0
 11
6309.0258315189
 21
4841.8950669458
 31
0.0
  0
LINE
  5
2C1
330
1F
100
AcDbEntity
  8
0
  6
Continuous
 62
     7
370
    25
100
AcDbLine
 10
6332.4071578665
 20
4841.8950669458
 30
0.0
 11
6332.4071578665
 21
4841.9200636437
 31
0.0
  0
LINE
  5
2C2
330
1F
100
AcDbEntity
  8
0
  6
Continuous
 62
     7
370
    25
100
AcDbLine
 10
6330.5356278999
 20
4841.8950669458
 30
0.0
 11
6330.5356278999
 21
4841.9200636437
 31
0.0
  0
LINE
  5
2C3
330
1F
100
AcDbEntity
  8
0
  6
Continuous
 62
     7
370
    25
100
AcDbLine
 10
6328.0652351661
 20
4841.8950669458
 30
0.0
 11
6328.0652351661
 21
4841.9200636437
 31
0.0
  0
LINE
  5
2C4
330
1F
100
AcDbEntity
  8
0
  6
Continuous
 62
     7
370
    25
100
AcDbLine
 10
6329.8303410394
 20
4841.8950669458
 30
0.0
 11
6329.8303410394
 21
4841.9200636437
 31
0.0
  0
SPLINE
  5
2C5
330
1F
100
AcDbEntity
  8
0
  6
Continuous
 62
     7
370
    25
100
AcDbSpline
210
0.0
220
0.0
230
1.0
 70
    24
 71
     3
 72
    12
 73
     8
 74
     0
 42
0.000000001
 43
0.00000001
 40
0.0
 40
0.0
 40
0.0
 40
0.0
 40
0.1051183706017334
 40
0.2604616137789199
 40
0.5553563961697962
 40
0.8115292643771157
 40
0.9999999999999999
 40
0.9999999999999999
 40
0.9999999999999999
 40
0.9999999999999999
 10
6329.83034103944
 20
4841.895066945814
 30
0.0
 10
6329.854519900589
 20
4841.895066945814
 30
0.0
 10
6329.914430125211
 20
4841.895066945814
 30
0.0
 10
6330.045906671416
 20
4841.895066945814
 30
0.0
 10
6330.212656144678
 20
4841.895066945814
 30
0.0
 10
6330.388333474976
 20
4841.895066945814
 30
0.0
 10
6330.49178007197
 20
4841.895066945814
 30
0.0
 10
6330.535627899906
 20
4841.895066945814
 30
0.0
  0
LINE
  5
2C6
330
1F
100
AcDbEntity
  8
0
  6
Continuous
 62
     7
370
    25
100
AcDbLine
 10
6333.5841484351
 20
4841.8950669458
 30
0.0
 11
6333.5841484351
 21
4841.9200636437
 31
0.0
  0
SPLINE
  5
2C7
330
1F
100
AcDbEntity
  8
0
  6
Continuous
 62
     7
370
    25
100
AcDbSpline
210
0.0
220
0.0
230
1.0
 70
    24
 71
     3
 72
     9
 73
     5
 74
     0
 42
0.000000001
 43
0.00000001
 40
0.0
 40
0.0
 40
0.0
 40
0.0
 40
0.5119106634460598
 40
1.0
 40
1.0
 40
1.0
 40
1.0
 10
6333.584148435137
 20
4841.895066945814
 30
0.0
 10
6333.5569452135
 20
4841.895066945814
 30
0.0
 10
6333.503804648985
 20
4841.895066945814
 30
0.0
 10
6333.442929651982
 20
4841.895066945814
 30
0.0
 10
6333.413217215082
 20
4841.895066945814
 30
0.0
  0
LINE
  5
2C8
330
1F
100
AcDbEntity
  8
0
  6
Continuous
 62
     7
370
    25
100
AcDbLine
 10
6333.4132172151
 20
4841.8950669458
 30
0.0
 11
6333.4132172151
 21
4841.9200636437
 31
0.0
  0
LINE
  5
2C9
330
1F
100
AcDbEntity
  8
0
  6
Continuous
 62
     7
370
    25
100
AcDbLine
 10
6333.2511223836
 20
4841.8950669458
 30
0.0
 11
6333.2511223836
 21
4841.9200636437
 31
0.0
  0
LINE
  5
2CA
330
1F
100
AcDbEntity
  8
0
  6
Continuous
 62
     7
370
    25
100
AcDbLine
 10
6333.644613622
 20
4841.8950669458
 30
0.0
 11
6333.644613622
 21
4841.9200636437
 31
0.0
  0
SPLINE
  5
2CB
330
1F
100
AcDbEntity
  8
0
  6
Continuous
 62
     7
370
    25
100
AcDbSpline
210
0.0
220
0.0
230
1.0
 70
    24
 71
     3
 72
    10
 73
     6
 74
     0
 42
0.000000001
 43
0.00000001
 40
0.0
 40
0.0
 40
0.0
 40
0.0
 40
0.3157286251616834
 40
0.5946905651176295
 40
1.0
 40
1.0
 40
1.0
 40
1.0
 10
6333.644613621971
 20
4841.895066945814
 30
0.0
 10
6333.643779182382
 20
4841.895066945814
 30
0.0
 10
6333.642207473927
 20
4841.895066945814
 30
0.0
 10
6333.626163013748
 20
4841.895066945814
 30
0.0
 10
6333.599777294384
 20
4841.895066945814
 30
0.0
 10
6333.584148435137
 20
4841.895066945814
 30
0.0
  0
LINE
  5
2CC
330
1F
100
AcDbEntity
  8
0
  6
Continuous
 62
     7
370
    25
100
AcDbLine
 10
6333.7124101801
 20
4841.8950669458
 30
0.0
 11
6333.7124101801
 21
4841.9200636437
 31
0.0
  0
LINE
  5
2CD
330
1F
100
AcDbEntity
  8
0
  6
Continuous
 62
     7
370
    25
100
AcDbLine
 10
6333.4386944754
 20
4841.8950669458
 30
0.0
 11
6332.8572511656
 21
4841.8950669458
 31
0.0
  0
LINE
  5
2CE
330
1F
100
AcDbEntity
  8
0
  6
Continuous
 62
     7
370
    25
100
AcDbLine
 10
6333.4386944754
 20
4841.8950669458
 30
0.0
 11
6334.0201340599
 21
4841.8950669458
 31
0.0
  0
LINE
  5
2CF
330
1F
100
AcDbEntity
  8
0
  6
Continuous
 62
     7
370
    25
100
AcDbLine
 10
6349.0187525733
 20
4851.9200690081
 30
0.0
 11
6199.0187540634
 21
4851.9200690081
 31
0.0
  0
LINE
  5
2D0
330
1F
100
AcDbEntity
  8
0
  6
Continuous
 62
     7
370
    25
100
AcDbLine
 10
6349.0187525733
 20
4851.9200690081
 30
0.0
 11
6349.0187525733
 21
4841.9200636437
 31
0.0
  0
LINE
  5
2D1
330
1F
100
AcDbEntity
  8
0
  6
Continuous
 62
     7
370
    25
100
AcDbLine
 10
6349.0187525733
 20
4841.9200636437
 30
0.0
 11
6199.0187540634
 21
4841.9200636437
 31
0.0
  0
LINE
  5
2D2
330
1F
100
AcDbEntity
  8
0
  6
Continuous
 62
     7
370
    25
100
AcDbLine
 10
6199.0187540634
 20
4851.9200690081
 30
0.0
 11
6199.0187540634
 21
4841.9200636437
 31
0.0
  0
LINE
  5
2D3
330
1F
100
AcDbEntity
  8
0
  6
Continuous
 62
     7
370
    25
100
AcDbLine
 10
6359.0187579377
 20
4851.9200690081
 30
0.0
 11
6349.0187525733
 21
4851.9200690081
 31
0.0
  0
ARC
  5
2D4
330
1F
100
AcDbEntity
  8
0
  6
Continuous
 62
     7
370
    25
100
AcDbCircle
 10
6349.0187553361
 20
4851.9200670243
 30
0.0
 40
10.0
100
AcDbArc
 50
270.0
 51
0.0
  0
ARC
  5
2D5
330
1F
100
AcDbEntity
  8
0
  6
Continuous
 62
     7
370
    25
100
AcDbCircle
 10
6199.0187553361
 20
4851.9200670243
 30
0.0
 40
10.0
100
AcDbArc
 50
180.0
 51
270.0
  0
LINE
  5
2D6
330
1F
100
AcDbEntity
  8
0
  6
Continuous
 62
     7
370
    25
100
AcDbLine
 10
6199.0187540634
 20
4851.9200690081
 30
0.0
 11
6189.0187561496
 21
4851.9200690081
 31
0.0
  0
LINE
  5
2D7
330
1F
100
AcDbEntity
  8
0
  6
Continuous
 62
     8
370
    25
100
AcDbLine
 10
6329.5331522806
 20
4852.4200700214
 30
0.0
 11
6329.5331522806
 21
4851.9200690081
 31
0.0
  0
LINE
  5
2D8
330
1F
100
AcDbEntity
  8
0
  6
Continuous
 62
     8
370
    25
100
AcDbLine
 10
6258.3187576367
 20
4841.9200636437
 30
0.0
 11
6258.3187576367
 21
4841.9197954228
 31
0.0
  0
LINE
  5
2D9
330
1F
100
AcDbEntity
  8
0
  6
Continuous
 62
     8
370
    25
100
AcDbLine
 10
6289.7187573819
 20
4841.9197954228
 30
0.0
 11
6289.7187573819
 21
4841.9200636437
 31
0.0
  0
ENDSEC
  0
SECTION
  2
OBJECTS
  0
DICTIONARY
  5
C
330
0
100
AcDbDictionary
281
     1
  3
ACAD_GROUP
350
D
  3
ACAD_LAYOUT
350
1A
  3
ACAD_MLINESTYLE
350
17
  3
ACAD_PLOTSETTINGS
350
19
  3
ACAD_PLOTSTYLENAME
350
E
  3
ACAD_SCALELIST
350
47
  0
DICTIONARY
  5
D
102
{ACAD_REACTORS
330
C
102
}
330
C
100
AcDbDictionary
281
     1
  0
DICTIONARY
  5
1A
102
{ACAD_REACTORS
330
C
102
}
330
C
100
AcDbDictionary
281
     1
  3
Layout1
350
1E
  3
Layout2
350
26
  3
Model
350
22
  0
DICTIONARY
  5
17
102
{ACAD_REACTORS
330
C
102
}
330
C
100
AcDbDictionary
281
     1
  3
Standard
350
18
  0
DICTIONARY
  5
19
102
{ACAD_REACTORS
330
C
102
}
330
C
100
AcDbDictionary
281
     1
  0
ACDBDICTIONARYWDFLT
  5
E
102
{ACAD_REACTORS
330
C
102
}
330
C
100
AcDbDictionary
281
     1
  3
Normal
350
F
100
AcDbDictionaryWithDefault
340
F
  0
DICTIONARY
  5
47
102
{ACAD_REACTORS
330
C
102
}
330
C
100
AcDbDictionary
281
     1
  3
A0
350
48
  3
A1
350
49
  3
A2
350
4A
  3
A3
350
4B
  3
A4
350
4C
  3
A5
350
4D
  3
A6
350
4E
  3
A7
350
4F
  3
A8
350
50
  3
A9
350
51
  3
B0
350
52
  3
B1
350
53
  3
B2
350
54
  3
B3
350
55
  3
B4
350
56
  3
B5
350
57
  3
B6
350
58
  3
B7
350
59
  3
B8
350
5A
  3
B9
350
5B
  3
C0
350
5C
  3
C1
350
5D
  3
C2
350
5E
  3
C3
350
5F
  3
C4
350
60
  3
C5
350
61
  3
C6
350
62
  3
C7
350
63
  3
C8
350
64
  3
C9
350
65
  3
D0
350
66
  3
D1
350
67
  3
D2
350
68
  0
LAYOUT
  5
1E
102
{ACAD_REACTORS
330
1A
102
}
330
1A
100
AcDbPlotSettings
  1

  2
none_device
  4

  6

 40
0.0
 41
0.0
 42
0.0
 43
0.0
 44
0.0
 45
0.0
 46
0.0
 47
0.0
 48
0.0
 49
0.0
140
0.0
141
0.0
142
1.0
143
1.0
 70
   688
 72
     1
 73
     0
 74
     5
  7

 75
    16
147
1.0
148
0.0
149
0.0
100
AcDbLayout
  1
Layout1
 70
     1
 71
     1
 10
0.0
 20
0.0
 11
420.0
 21
297.0
 12
0.0
 22
0.0
 32
0.0
 14
1.0000000000E+20
 24
1.0000000000E+20
 34
1.0000000000E+20
 15
-1.0000000000E+20
 25
-1.0000000000E+20
 35
-1.0000000000E+20
146
0.0
 13
0.0
 23
0.0
 33
0.0
 16
1.0
 26
0.0
 36
0.0
 17
0.0
 27
1.0
 37
0.0
 76
     0
330
1B
  0
LAYOUT
  5
26
102
{ACAD_REACTORS
330
1A
102
}
330
1A
100
AcDbPlotSettings
  1

  2
none_device
  4

  6

 40
0.0
 41
0.0
 42
0.0
 43
0.0
 44
0.0
 45
0.0
 46
0.0
 47
0.0
 48
0.0
 49
0.0
140
0.0
141
0.0
142
1.0
143
1.0
 70
   688
 72
     1
 73
     0
 74
     5
  7

 75
    16
147
1.0
148
0.0
149
0.0
100
AcDbLayout
  1
Layout2
 70
     1
 71
     2
 10
0.0
 20
0.0
 11
0.0
 21
0.0
 12
0.0
 22
0.0
 32
0.0
 14
0.0
 24
0.0
 34
0.0
 15
0.0
 25
0.0
 35
0.0
146
0.0
 13
0.0
 23
0.0
 33
0.0
 16
1.0
 26
0.0
 36
0.0
 17
0.0
 27
1.0
 37
0.0
 76
     0
330
23
  0
LAYOUT
  5
22
102
{ACAD_REACTORS
330
1A
102
}
330
1A
100
AcDbPlotSettings
  1

  2
none_device
  4
Letter_(8.50_x_11.00_Inches)
  6

 40
6.35
 41
6.35
 42
6.35000508
 43
6.35000508
 44
215.9
 45
279.4
 46
0.0
 47
0.0
 48
0.0
 49
0.0
140
0.0
141
0.0
142
1.0
143
1.0
 70
  1712
 72
     1
 73
     0
 74
     0
  7

 75
     0
147
1.0
148
0.0
149
0.0
100
AcDbLayout
  1
Model
 70
     1
 71
     0
 10
0.0
 20
0.0
 11
20000.0
 21
10000.0
 12
0.0
 22
0.0
 32
0.0
 14
0.0
 24
0.0
 34
0.0
 15
20000.0
 25
10000.0
 35
0.0
146
0.0
 13
0.0
 23
0.0
 33
0.0
 16
1.0
 26
0.0
 36
0.0
 17
0.0
 27
1.0
 37
0.0
 76
     0
330
1F
331
29
  0
MLINESTYLE
  5
18
102
{ACAD_REACTORS
330
17
102
}
330
17
100
AcDbMlineStyle
  2
Standard
 70
     0
  3

 62
   256
 51
90.0
 52
90.0
 71
     2
 49
0.5
 62
   256
  6
BYLAYER
 49
-0.5
 62
   256
  6
BYLAYER
  0
ACDBPLACEHOLDER
  5
F
102
{ACAD_REACTORS
330
E
102
}
330
E
  0
SCALE
  5
48
102
{ACAD_REACTORS
330
47
102
}
330
47
100
AcDbScale
 70
     0
300
1:1
140
1.0
141
1.0
290
     1
  0
SCALE
  5
49
102
{ACAD_REACTORS
330
47
102
}
330
47
100
AcDbScale
 70
     0
300
1:2
140
1.0
141
2.0
290
     0
  0
SCALE
  5
4A
102
{ACAD_REACTORS
330
47
102
}
330
47
100
AcDbScale
 70
     0
300
1:4
140
1.0
141
4.0
290
     0
  0
SCALE
  5
4B
102
{ACAD_REACTORS
330
47
102
}
330
47
100
AcDbScale
 70
     0
300
1:5
140
1.0
141
5.0
290
     0
  0
SCALE
  5
4C
102
{ACAD_REACTORS
330
47
102
}
330
47
100
AcDbScale
 70
     0
300
1:8
140
1.0
141
8.0
290
     0
  0
SCALE
  5
4D
102
{ACAD_REACTORS
330
47
102
}
330
47
100
AcDbScale
 70
     0
300
1:10
140
1.0
141
10.0
290
     0
  0
SCALE
  5
4E
102
{ACAD_REACTORS
330
47
102
}
330
47
100
AcDbScale
 70
     0
300
1:16
140
1.0
141
16.0
290
     0
  0
SCALE
  5
4F
102
{ACAD_REACTORS
330
47
102
}
330
47
100
AcDbScale
 70
     0
300
1:20
140
1.0
141
20.0
290
     0
  0
SCALE
  5
50
102
{ACAD_REACTORS
330
47
102
}
330
47
100
AcDbScale
 70
     0
300
1:30
140
1.0
141
30.0
290
     0
  0
SCALE
  5
51
102
{ACAD_REACTORS
330
47
102
}
330
47
100
AcDbScale
 70
     0
300
1:40
140
1.0
141
40.0
290
     0
  0
SCALE
  5
52
102
{ACAD_REACTORS
330
47
102
}
330
47
100
AcDbScale
 70
     0
300
1:50
140
1.0
141
50.0
290
     0
  0
SCALE
  5
53
102
{ACAD_REACTORS
330
47
102
}
330
47
100
AcDbScale
 70
     0
300
1:100
140
1.0
141
100.0
290
     0
  0
SCALE
  5
54
102
{ACAD_REACTORS
330
47
102
}
330
47
100
AcDbScale
 70
     0
300
2:1
140
2.0
141
1.0
290
     0
  0
SCALE
  5
55
102
{ACAD_REACTORS
330
47
102
}
330
47
100
AcDbScale
 70
     0
300
4:1
140
4.0
141
1.0
290
     0
  0
SCALE
  5
56
102
{ACAD_REACTORS
330
47
102
}
330
47
100
AcDbScale
 70
     0
300
8:1
140
8.0
141
1.0
290
     0
  0
SCALE
  5
57
102
{ACAD_REACTORS
330
47
102
}
330
47
100
AcDbScale
 70
     0
300
10:1
140
10.0
141
1.0
290
     0
  0
SCALE
  5
58
102
{ACAD_REACTORS
330
47
102
}
330
47
100
AcDbScale
 70
     0
300
100:1
140
100.0
141
1.0
290
     0
  0
SCALE
  5
59
102
{ACAD_REACTORS
330
47
102
}
330
47
100
AcDbScale
 70
     0
300
1/128" = 1'-0"
140
0.0078125
141
12.0
290
     0
  0
SCALE
  5
5A
102
{ACAD_REACTORS
330
47
102
}
330
47
100
AcDbScale
 70
     0
300
1/64" = 1'-0"
140
0.015625
141
12.0
290
     0
  0
SCALE
  5
5B
102
{ACAD_REACTORS
330
47
102
}
330
47
100
AcDbScale
 70
     0
300
1/32" = 1'-0"
140
0.03125
141
12.0
290
     0
  0
SCALE
  5
5C
102
{ACAD_REACTORS
330
47
102
}
330
47
100
AcDbScale
 70
     0
300
1/16" = 1'-0"
140
0.0625
141
12.0
290
     0
  0
SCALE
  5
5D
102
{ACAD_REACTORS
330
47
102
}
330
47
100
AcDbScale
 70
     0
300
3/32" = 1'-0"
140
0.09375
141
12.0
290
     0
  0
SCALE
  5
5E
102
{ACAD_REACTORS
330
47
102
}
330
47
100
AcDbScale
 70
     0
300
1/8" = 1'-0"
140
0.125
141
12.0
290
     0
  0
SCALE
  5
5F
102
{ACAD_REACTORS
330
47
102
}
330
47
100
AcDbScale
 70
     0
300
3/16" = 1'-0"
140
0.1875
141
12.0
290
     0
  0
SCALE
  5
60
102
{ACAD_REACTORS
330
47
102
}
330
47
100
AcDbScale
 70
     0
300
1/4" = 1'-0"
140
0.25
141
12.0
290
     0
  0
SCALE
  5
61
102
{ACAD_REACTORS
330
47
102
}
330
47
100
AcDbScale
 70
     0
300
3/8" = 1'-0"
140
0.375
141
12.0
290
     0
  0
SCALE
  5
62
102
{ACAD_REACTORS
330
47
102
}
330
47
100
AcDbScale
 70
     0
300
1/2" = 1'-0"
140
0.5
141
12.0
290
     0
  0
SCALE
  5
63
102
{ACAD_REACTORS
330
47
102
}
330
47
100
AcDbScale
 70
     0
300
3/4" = 1'-0"
140
0.75
141
12.0
290
     0
  0
SCALE
  5
64
102
{ACAD_REACTORS
330
47
102
}
330
47
100
AcDbScale
 70
     0
300
1" = 1'-0"
140
1.0
141
12.0
290
     0
  0
SCALE
  5
65
102
{ACAD_REACTORS
330
47
102
}
330
47
100
AcDbScale
 70
     0
300
1-1/2" = 1'-0"
140
1.5
141
12.0
290
     0
  0
SCALE
  5
66
102
{ACAD_REACTORS
330
47
102
}
330
47
100
AcDbScale
 70
     0
300
3" = 1'-0"
140
3.0
141
12.0
290
     0
  0
SCALE
  5
67
102
{ACAD_REACTORS
330
47
102
}
330
47
100
AcDbScale
 70
     0
300
6" = 1'-0"
140
6.0
141
12.0
290
     0
  0
SCALE
  5
68
102
{ACAD_REACTORS
330
47
102
}
330
47
100
AcDbScale
 70
     0
300
1'-0" = 1'-0"
140
12.0
141
12.0
290
     0
  0
ENDSEC
  0
EOF
