  0
SECTION
  2
HEADER
  9
$ACADVER
  1
AC1015
  9
$ACADMAINTVER
 70
     6
  9
$DWGCODEPAGE
  3
ANSI_1250
  9
$INSBASE
 10
0.0
 20
0.0
 30
0.0
  9
$EXTMIN
 10
0.0
 20
0.0
 30
0.0
  9
$EXTMAX
 10
20000.0
 20
10000.0
 30
0.0
  9
$LIMMIN
 10
0.0
 20
0.0
  9
$LIMMAX
 10
20000.0
 20
10000.0
  9
$ORTHOMODE
 70
     0
  9
$REGENMODE
 70
     1
  9
$FILLMODE
 70
     1
  9
$QTEXTMODE
 70
     0
  9
$MIRRTEXT
 70
     1
  9
$LTSCALE
 40
1.0
  9
$ATTMODE
 70
     1
  9
$TEXTSIZE
 40
2.0
  9
$TRACEWID
 40
1.0
  9
$TEXTSTYLE
  7
Standard
  9
$CLAYER
  8
0
  9
$CELTYPE
  6
ByLayer
  9
$CECOLOR
 62
   256
  9
$CELTSCALE
 40
1.0
  9
$DISPSILH
 70
     0
  9
$DIMSCALE
 40
1.0
  9
$DIMASZ
 40
2.0
  9
$DIMEXO
 40
1.0
  9
$DIMDLI
 40
3.75
  9
$DIMRND
 40
0.0
  9
$DIMDLE
 40
0.0
  9
$DIMEXE
 40
1.0
  9
$DIMTP
 40
0.0
  9
$DIMTM
 40
0.0
  9
$DIMTXT
 40
2.0
  9
$DIMCEN
 40
2.5
  9
$DIMTSZ
 40
0.0
  9
$DIMTOL
 70
     0
  9
$DIMLIM
 70
     0
  9
$DIMTIH
 70
     1
  9
$DIMTOH
 70
     1
  9
$DIMSE1
 70
     0
  9
$DIMSE2
 70
     0
  9
$DIMTAD
 70
     1
  9
$DIMZIN
 70
     0
  9
$DIMBLK
  1

  9
$DIMASO
 70
     1
  9
$DIMSHO
 70
     1
  9
$DIMPOST
  1

  9
$DIMAPOST
  1

  9
$DIMALT
 70
     0
  9
$DIMALTD
 70
     3
  9
$DIMALTF
 40
0.0393700787
  9
$DIMLFAC
 40
1.0
  9
$DIMTOFL
 70
     1
  9
$DIMTVP
 40
0.0
  9
$DIMTIX
 70
     0
  9
$DIMSOXD
 70
     0
  9
$DIMSAH
 70
     0
  9
$DIMBLK1
  1

  9
$DIMBLK2
  1

  9
$DIMSTYLE
  2
ISO-25
  9
$DIMCLRD
 70
     0
  9
$DIMCLRE
 70
     0
  9
$DIMCLRT
 70
     0
  9
$DIMTFAC
 40
1.0
  9
$DIMGAP
 40
1.524
  9
$DIMJUST
 70
     0
  9
$DIMSD1
 70
     0
  9
$DIMSD2
 70
     0
  9
$DIMTOLJ
 70
     0
  9
$DIMTZIN
 70
     0
  9
$DIMALTZ
 70
     0
  9
$DIMALTTZ
 70
     0
  9
$DIMUPT
 70
     0
  9
$DIMDEC
 70
     2
  9
$DIMTDEC
 70
     0
  9
$DIMALTU
 70
     2
  9
$DIMALTTD
 70
     3
  9
$DIMTXSTY
  7
Standard
  9
$DIMAUNIT
 70
     0
  9
$DIMADEC
 70
     2
  9
$DIMALTRND
 40
0.0
  9
$DIMAZIN
 70
     0
  9
$DIMDSEP
 70
    44
  9
$DIMATFIT
 70
     3
  9
$DIMFRAC
 70
     0
  9
$DIMLDRBLK
  1

  9
$DIMLUNIT
 70
     2
  9
$DIMLWD
 70
    -2
  9
$DIMLWE
 70
    -2
  9
$DIMTMOVE
 70
     0
  9
$LUNITS
 70
     2
  9
$LUPREC
 70
     3
  9
$SKETCHINC
 40
1.0
  9
$FILLETRAD
 40
10.0
  9
$AUNITS
 70
     0
  9
$AUPREC
 70
     2
  9
$MENU
  1
.
  9
$ELEVATION
 40
0.0
  9
$PELEVATION
 40
0.0
  9
$THICKNESS
 40
0.0
  9
$LIMCHECK
 70
     0
  9
$CHAMFERA
 40
0.0
  9
$CHAMFERB
 40
0.0
  9
$CHAMFERC
 40
0.0
  9
$CHAMFERD
 40
0.0
  9
$SKPOLY
 70
     0
  9
$TDCREATE
 40
2459741.387778195
  9
$TDUCREATE
 40
2459741.304444861
  9
$TDUPDATE
 40
2459741.387778576
  9
$TDUUPDATE
 40
2459741.304445243
  9
$TDINDWG
 40
0.0000000116
  9
$TDUSRTIMER
 40
0.0000000116
  9
$USRTIMER
 70
     1
  9
$ANGBASE
 50
0.0
  9
$ANGDIR
 70
     0
  9
$PDMODE
 70
     0
  9
$PDSIZE
 40
-1.0
  9
$PLINEWID
 40
0.0
  9
$SPLFRAME
 70
     0
  9
$SPLINETYPE
 70
     6
  9
$SPLINESEGS
 70
     8
  9
$HANDSEED
  5
1AF
  9
$SURFTAB1
 70
     6
  9
$SURFTAB2
 70
     6
  9
$SURFTYPE
 70
     6
  9
$SURFU
 70
     6
  9
$SURFV
 70
     6
  9
$UCSBASE
  2

  9
$UCSNAME
  2

  9
$UCSORG
 10
0.0
 20
0.0
 30
0.0
  9
$UCSXDIR
 10
1.0
 20
0.0
 30
0.0
  9
$UCSYDIR
 10
0.0
 20
1.0
 30
0.0
  9
$UCSORTHOREF
  2

  9
$UCSORTHOVIEW
 70
     0
  9
$UCSORGTOP
 10
0.0
 20
0.0
 30
0.0
  9
$UCSORGBOTTOM
 10
0.0
 20
0.0
 30
0.0
  9
$UCSORGLEFT
 10
0.0
 20
0.0
 30
0.0
  9
$UCSORGRIGHT
 10
0.0
 20
0.0
 30
0.0
  9
$UCSORGFRONT
 10
0.0
 20
0.0
 30
0.0
  9
$UCSORGBACK
 10
0.0
 20
0.0
 30
0.0
  9
$PUCSBASE
  2

  9
$PUCSNAME
  2

  9
$PUCSORG
 10
0.0
 20
0.0
 30
0.0
  9
$PUCSXDIR
 10
1.0
 20
0.0
 30
0.0
  9
$PUCSYDIR
 10
0.0
 20
1.0
 30
0.0
  9
$PUCSORTHOREF
  2

  9
$PUCSORTHOVIEW
 70
     0
  9
$PUCSORGTOP
 10
0.0
 20
0.0
 30
0.0
  9
$PUCSORGBOTTOM
 10
0.0
 20
0.0
 30
0.0
  9
$PUCSORGLEFT
 10
0.0
 20
0.0
 30
0.0
  9
$PUCSORGRIGHT
 10
0.0
 20
0.0
 30
0.0
  9
$PUCSORGFRONT
 10
0.0
 20
0.0
 30
0.0
  9
$PUCSORGBACK
 10
0.0
 20
0.0
 30
0.0
  9
$USERI1
 70
     0
  9
$USERI2
 70
     0
  9
$USERI3
 70
     0
  9
$USERI4
 70
     0
  9
$USERI5
 70
     0
  9
$USERR1
 40
0.0
  9
$USERR2
 40
0.0
  9
$USERR3
 40
0.0
  9
$USERR4
 40
0.0
  9
$USERR5
 40
0.0
  9
$WORLDVIEW
 70
     1
  9
$SHADEDGE
 70
     3
  9
$SHADEDIF
 70
    70
  9
$TILEMODE
 70
     1
  9
$MAXACTVP
 70
    64
  9
$PINSBASE
 10
0.0
 20
0.0
 30
0.0
  9
$PLIMCHECK
 70
     0
  9
$PEXTMIN
 10
1.0000000000E+20
 20
1.0000000000E+20
 30
1.0000000000E+20
  9
$PEXTMAX
 10
-1.0000000000E+20
 20
-1.0000000000E+20
 30
-1.0000000000E+20
  9
$PLIMMIN
 10
0.0
 20
0.0
  9
$PLIMMAX
 10
420.0
 20
297.0
  9
$UNITMODE
 70
     0
  9
$VISRETAIN
 70
     1
  9
$PLINEGEN
 70
     0
  9
$PSLTSCALE
 70
     1
  9
$TREEDEPTH
 70
  3020
  9
$CMLSTYLE
  2
Standard
  9
$CMLJUST
 70
     0
  9
$CMLSCALE
 40
20.0
  9
$PROXYGRAPHICS
 70
     1
  9
$MEASUREMENT
 70
     1
  9
$CELWEIGHT
370
    -1
  9
$ENDCAPS
280
     0
  9
$JOINSTYLE
280
     0
  9
$LWDISPLAY
290
     1
  9
$INSUNITS
 70
     4
  9
$HYPERLINKBASE
  1

  9
$STYLESHEET
  1

  9
$XEDIT
290
     1
  9
$CEPSNTYPE
380
     0
  9
$PSTYLEMODE
290
     1
  9
$FINGERPRINTGUID
  2
{62b0eeae-077f-43ca-9aab-b30e0867c3c2}
  9
$VERSIONGUID
  2
{FAEB1C32-E019-11D5-929B-00C0DF256EC4}
  9
$EXTNAMES
290
     1
  9
$PSVPSCALE
 40
0.0
  9
$OLESTARTUP
290
     0
  0
ENDSEC
  0
SECTION
  2
CLASSES
  0
CLASS
  1
ACDBDICTIONARYWDFLT
  2
AcDbDictionaryWithDefault
  3
ObjectDBX Classes
 90
        0
280
     0
281
     0
  0
CLASS
  1
VISUALSTYLE
  2
AcDbVisualStyle
  3
ObjectDBX Classes
 90
     4095
280
     0
281
     0
  0
CLASS
  1
MATERIAL
  2
AcDbMaterial
  3
ObjectDBX Classes
 90
     1153
280
     0
281
     0
  0
CLASS
  1
SCALE
  2
AcDbScale
  3
ObjectDBX Classes
 90
     1153
280
     0
281
     0
  0
CLASS
  1
TABLESTYLE
  2
AcDbTableStyle
  3
ObjectDBX Classes
 90
     4095
280
     0
281
     0
  0
CLASS
  1
MLEADERSTYLE
  2
AcDbMLeaderStyle
  3
ACDB_MLEADERSTYLE_CLASS
 90
     4095
280
     0
281
     0
  0
CLASS
  1
SUN
  2
AcDbSun
  3
SCENEOE
 90
     1153
280
     0
281
     0
  0
CLASS
  1
ACDBPLACEHOLDER
  2
AcDbPlaceHolder
  3
ObjectDBX Classes
 90
        0
280
     0
281
     0
  0
CLASS
  1
LAYOUT
  2
AcDbLayout
  3
ObjectDBX Classes
 90
        0
280
     0
281
     0
  0
ENDSEC
  0
SECTION
  2
TABLES
  0
TABLE
  2
VPORT
  5
8
330
0
100
AcDbSymbolTable
 70
     1
  0
VPORT
  5
29
330
8
100
AcDbSymbolTableRecord
100
AcDbViewportTableRecord
  2
*Active
 70
     0
 10
0.0
 20
0.0
 11
1.0
 21
1.0
 12
10000.0
 22
5000.0
 13
0.0
 23
0.0
 14
10.0
 24
10.0
 15
10.0
 25
10.0
 16
0.0
 26
0.0
 36
1.0
 17
0.0
 27
0.0
 37
0.0
 40
10000.0
 41
2.0
 42
50.0
 43
0.0
 44
0.0
 50
0.0
 51
0.0
 71
     0
 72
  2000
 73
     1
 74
     3
 75
     0
 76
     0
 77
     0
 78
     0
281
     0
 65
     1
110
0.0
120
0.0
130
0.0
111
1.0
121
0.0
131
0.0
112
0.0
122
1.0
132
0.0
 79
     0
146
0.0
  0
ENDTAB
  0
TABLE
  2
LTYPE
  5
5
330
0
100
AcDbSymbolTable
 70
     6
  0
LTYPE
  5
14
330
5
100
AcDbSymbolTableRecord
100
AcDbLinetypeTableRecord
  2
ByBlock
 70
     0
  3

 72
    65
 73
     0
 40
0.0
  0
LTYPE
  5
15
330
5
100
AcDbSymbolTableRecord
100
AcDbLinetypeTableRecord
  2
ByLayer
 70
     0
  3

 72
    65
 73
     0
 40
0.0
  0
LTYPE
  5
16
330
5
100
AcDbSymbolTableRecord
100
AcDbLinetypeTableRecord
  2
Continuous
 70
     0
  3
Solid line
 72
    65
 73
     0
 40
0.0
  0
LTYPE
  5
6E
330
5
100
AcDbSymbolTableRecord
100
AcDbLinetypeTableRecord
  2
HIDDEN
 70
     0
  3
Hidden __ __ __ __ __ __ __ __ __ __ __ __ __ __
 72
    65
 73
     2
 40
1.905
 49
1.27
 74
     0
 49
-0.635
 74
     0
  0
LTYPE
  5
6F
330
5
100
AcDbSymbolTableRecord
100
AcDbLinetypeTableRecord
  2
PHANTOM
 70
     0
  3
Phantom ______  __  __  ______  __  __  ______
 72
    65
 73
     6
 40
12.7
 49
6.35
 74
     0
 49
-1.27
 74
     0
 49
1.27
 74
     0
 49
-1.27
 74
     0
 49
1.27
 74
     0
 49
-1.27
 74
     0
  0
LTYPE
  5
70
330
5
100
AcDbSymbolTableRecord
100
AcDbLinetypeTableRecord
  2
CENTER
 70
     0
  3
Center ____ _ ____ _ ____ _ ____ _ ____ _ ____
 72
    65
 73
     4
 40
10.16
 49
6.35
 74
     0
 49
-1.27
 74
     0
 49
1.27
 74
     0
 49
-1.27
 74
     0
  0
LTYPE
  5
71
330
5
100
AcDbSymbolTableRecord
100
AcDbLinetypeTableRecord
  2
CENTERX2
 70
     0
  3
Center (2x) ________  __  ________  __  _____
 72
    65
 73
     4
 40
20.32
 49
12.7
 74
     0
 49
-2.54
 74
     0
 49
2.54
 74
     0
 49
-2.54
 74
     0
  0
LTYPE
  5
72
330
5
100
AcDbSymbolTableRecord
100
AcDbLinetypeTableRecord
  2
DOT2
 70
     0
  3
Dot (.5x) ........................................
 72
    65
 73
     2
 40
0.635
 49
0.0
 74
     0
 49
-0.635
 74
     0
  0
ENDTAB
  0
TABLE
  2
LAYER
  5
2
330
0
100
AcDbSymbolTable
 70
    13
  0
LAYER
  5
10
330
2
100
AcDbSymbolTableRecord
100
AcDbLayerTableRecord
  2
0
 70
     0
 62
     7
  6
Continuous
370
    -3
390
F
  0
LAYER
  5
73
330
2
100
AcDbSymbolTableRecord
100
AcDbLayerTableRecord
  2
FORMAT
 70
     0
 62
     7
  6
Continuous
370
    -3
390
F
  0
LAYER
  5
74
330
2
100
AcDbSymbolTableRecord
100
AcDbLayerTableRecord
  2
OSA
 70
     0
 62
     7
  6
CENTER
370
    -3
390
F
  0
LAYER
  5
75
330
2
100
AcDbSymbolTableRecord
100
AcDbLayerTableRecord
  2
0_35
 70
     0
 62
     7
  6
Continuous
370
    35
390
F
  0
LAYER
  5
76
330
2
100
AcDbSymbolTableRecord
100
AcDbLayerTableRecord
  2
0_5
 70
     0
 62
     7
  6
Continuous
370
    50
390
F
  0
LAYER
  5
77
330
2
100
AcDbSymbolTableRecord
100
AcDbLayerTableRecord
  2
0_25
 70
     0
 62
     7
  6
Continuous
370
    25
390
F
  0
LAYER
  5
78
330
2
100
AcDbSymbolTableRecord
100
AcDbLayerTableRecord
  2
0_18
 70
     0
 62
     7
  6
Continuous
370
    -3
390
F
  0
LAYER
  5
79
330
2
100
AcDbSymbolTableRecord
100
AcDbLayerTableRecord
  2
SLD-0
 70
     0
 62
   179
  6
Continuous
370
    -3
390
F
  0
LAYER
  5
7A
330
2
100
AcDbSymbolTableRecord
100
AcDbLayerTableRecord
  2
KOTY
 70
     0
 62
     7
  6
Continuous
370
    -3
390
F
  0
LAYER
  5
7B
330
2
100
AcDbSymbolTableRecord
100
AcDbLayerTableRecord
  2
SILNA
 70
     0
 62
   179
  6
Continuous
370
    -3
390
F
  0
LAYER
  5
7C
330
2
100
AcDbSymbolTableRecord
100
AcDbLayerTableRecord
  2
0_18_1
 70
     0
 62
   179
  6
Continuous
370
    -3
390
F
  0
LAYER
  5
7D
330
2
100
AcDbSymbolTableRecord
100
AcDbLayerTableRecord
  2
0_35_1
 70
     0
 62
   179
  6
Continuous
370
    35
390
F
  0
LAYER
  5
7E
330
2
100
AcDbSymbolTableRecord
100
AcDbLayerTableRecord
  2
0_5_1
 70
     0
 62
   179
  6
Continuous
370
    50
390
F
  0
ENDTAB
  0
TABLE
  2
STYLE
  5
3
330
0
100
AcDbSymbolTable
 70
     1
  0
STYLE
  5
11
330
3
100
AcDbSymbolTableRecord
100
AcDbTextStyleTableRecord
  2
Standard
 70
     0
 40
0.0
 41
1.0
 50
0.0
 71
     0
 42
2.0
  3
txt
  4

  0
ENDTAB
  0
TABLE
  2
VIEW
  5
6
330
0
100
AcDbSymbolTable
 70
     0
  0
ENDTAB
  0
TABLE
  2
UCS
  5
7
330
0
100
AcDbSymbolTable
 70
     0
  0
ENDTAB
  0
TABLE
  2
APPID
  5
9
330
0
100
AcDbSymbolTable
 70
     1
  0
APPID
  5
12
330
9
100
AcDbSymbolTableRecord
100
AcDbRegAppTableRecord
  2
ACAD
 70
     0
  0
ENDTAB
  0
TABLE
  2
DIMSTYLE
  5
A
330
0
100
AcDbSymbolTable
 70
     1
100
AcDbDimStyleTable
  0
DIMSTYLE
105
27
330
A
100
AcDbSymbolTableRecord
100
AcDbDimStyleTableRecord
  2
ISO-25
 70
     0
 41
2.5
 42
0.625
 43
3.75
 44
1.25
 73
     0
 74
     0
 77
     1
 78
     8
140
2.5
141
2.5
143
0.0393700787
147
0.625
171
     3
172
     1
178
     0
271
     2
272
     2
274
     3
278
    44
283
     0
284
     8
340
11
  0
ENDTAB
  0
TABLE
  2
BLOCK_RECORD
  5
1
330
0
100
AcDbSymbolTable
 70
     1
  0
BLOCK_RECORD
  5
1F
330
1
100
AcDbSymbolTableRecord
100
AcDbBlockTableRecord
  2
*Model_Space
340
22
  0
BLOCK_RECORD
  5
1B
330
1
100
AcDbSymbolTableRecord
100
AcDbBlockTableRecord
  2
*Paper_Space
340
1E
  0
BLOCK_RECORD
  5
23
330
1
100
AcDbSymbolTableRecord
100
AcDbBlockTableRecord
  2
*Paper_Space0
340
26
  0
ENDTAB
  0
ENDSEC
  0
SECTION
  2
BLOCKS
  0
BLOCK
  5
20
330
1F
100
AcDbEntity
  8
0
100
AcDbBlockBegin
  2
*Model_Space
 70
     0
 10
0.0
 20
0.0
 30
0.0
  3
*Model_Space
  1

  0
ENDBLK
  5
21
330
1F
100
AcDbEntity
  8
0
100
AcDbBlockEnd
  0
BLOCK
  5
1C
330
1B
100
AcDbEntity
 67
     1
  8
0
100
AcDbBlockBegin
  2
*Paper_Space
 70
     0
 10
0.0
 20
0.0
 30
0.0
  3
*Paper_Space
  1

  0
ENDBLK
  5
1D
330
1B
100
AcDbEntity
 67
     1
  8
0
100
AcDbBlockEnd
  0
BLOCK
  5
24
330
23
100
AcDbEntity
  8
0
100
AcDbBlockBegin
  2
*Paper_Space0
 70
     0
 10
0.0
 20
0.0
 30
0.0
  3
*Paper_Space0
  1

  0
ENDBLK
  5
25
330
23
100
AcDbEntity
  8
0
100
AcDbBlockEnd
  0
ENDSEC
  0
SECTION
  2
ENTITIES
  0
LINE
  5
7F
330
1F
100
AcDbEntity
  8
0
  6
Continuous
 62
     7
370
    25
100
AcDbLine
 10
6244.0187553361
 20
5269.7013282045
 30
0.0
 11
6246.0187553361
 21
5265.7013282045
 31
0.0
  0
LINE
  5
80
330
1F
100
AcDbEntity
  8
0
  6
Continuous
 62
     7
370
    25
100
AcDbLine
 10
6302.0187553361
 20
5265.7013282045
 30
0.0
 11
6304.0187553361
 21
5269.7013282045
 31
0.0
  0
LINE
  5
81
330
1F
100
AcDbEntity
  8
0
  6
Continuous
 62
     7
370
    25
100
AcDbLine
 10
6246.0187553361
 20
5265.7013282045
 30
0.0
 11
6246.0187553361
 21
5258.7013282045
 31
0.0
  0
LINE
  5
82
330
1F
100
AcDbEntity
  8
0
  6
Continuous
 62
     7
370
    25
100
AcDbLine
 10
6302.0187553361
 20
5258.7013282045
 30
0.0
 11
6302.0187553361
 21
5265.7013282045
 31
0.0
  0
ARC
  5
83
330
1F
100
AcDbEntity
  8
0
  6
Continuous
 62
     7
370
    25
100
AcDbCircle
 10
6249.0187553361
 20
5258.7013282045
 30
0.0
 40
3.0
100
AcDbArc
 50
180.0
 51
270.0
  0
ARC
  5
84
330
1F
100
AcDbEntity
  8
0
  6
Continuous
 62
     7
370
    25
100
AcDbCircle
 10
6299.0187553361
 20
5258.7013282045
 30
0.0
 40
3.0
100
AcDbArc
 50
270.0
 51
0.0
  0
LINE
  5
85
330
1F
100
AcDbEntity
  8
0
  6
Continuous
 62
     7
370
    25
100
AcDbLine
 10
6258.0187553361
 20
5255.7013282045
 30
0.0
 11
6258.0187553361
 21
5185.5579368522
 31
0.0
  0
LINE
  5
86
330
1F
100
AcDbEntity
  8
0
  6
Continuous
 62
     7
370
    25
100
AcDbLine
 10
6258.0187553361
 20
5171.5579368522
 30
0.0
 11
6258.0187553361
 21
5169.0579368522
 31
0.0
  0
LINE
  5
87
330
1F
100
AcDbEntity
  8
0
  6
Continuous
 62
     7
370
    25
100
AcDbLine
 10
6290.0187553361
 20
5169.0579368522
 30
0.0
 11
6290.0187553361
 21
5171.5579368522
 31
0.0
  0
LINE
  5
88
330
1F
100
AcDbEntity
  8
0
  6
Continuous
 62
     7
370
    25
100
AcDbLine
 10
6290.0187553361
 20
5185.5579368522
 30
0.0
 11
6290.0187553361
 21
5255.7013282045
 31
0.0
  0
LINE
  5
89
330
1F
100
AcDbEntity
  8
0
  6
Continuous
 62
     7
370
    25
100
AcDbLine
 10
6240.0187553361
 20
5109.0579368522
 30
0.0
 11
6246.912541056
 21
5041.7522609909
 31
0.0
  0
LINE
  5
8A
330
1F
100
AcDbEntity
  8
0
  6
Continuous
 62
     7
370
    25
100
AcDbLine
 10
6301.1249696162
 20
5041.7522609909
 30
0.0
 11
6308.0187553361
 21
5109.0579368522
 31
0.0
  0
LINE
  5
8B
330
1F
100
AcDbEntity
  8
0
  6
Continuous
 62
     7
370
    25
100
AcDbLine
 10
6308.0187553361
 20
5109.0579368522
 30
0.0
 11
6301.3281970913
 21
5166.4055789509
 31
0.0
  0
LINE
  5
8C
330
1F
100
AcDbEntity
  8
0
  6
Continuous
 62
     7
370
    25
100
AcDbLine
 10
6246.7093135809
 20
5166.4055789509
 30
0.0
 11
6240.0187553361
 21
5109.0579368522
 31
0.0
  0
ARC
  5
8D
330
1F
100
AcDbEntity
  8
0
  6
Continuous
 62
     7
370
    25
100
AcDbCircle
 10
6249.6891029982
 20
5166.0579368522
 30
0.0
 40
3.0
100
AcDbArc
 50
90.0
 51
173.345574954
  0
ARC
  5
8E
330
1F
100
AcDbEntity
  8
0
  6
Continuous
 62
     7
370
    25
100
AcDbCircle
 10
6298.348407674
 20
5166.0579368522
 30
0.0
 40
3.0
100
AcDbArc
 50
6.654425046
 51
90.0
  0
ARC
  5
8F
330
1F
100
AcDbEntity
  8
0
  6
Continuous
 62
     7
370
    25
100
AcDbCircle
 10
6249.8969274699
 20
5042.0579368522
 30
0.0
 40
3.0
100
AcDbArc
 50
185.8481280262
 51
270.0
  0
ARC
  5
90
330
1F
100
AcDbEntity
  8
0
  6
Continuous
 62
     7
370
    25
100
AcDbCircle
 10
6298.1405832023
 20
5042.0579368522
 30
0.0
 40
3.0
100
AcDbArc
 50
270.0
 51
354.1518719738
  0
LINE
  5
91
330
1F
100
AcDbEntity
  8
0
  6
Continuous
 62
     7
370
    25
100
AcDbLine
 10
6299.0187553361
 20
5171.5579368522
 30
0.0
 11
6297.0187553361
 21
5175.5579368522
 31
0.0
  0
LINE
  5
92
330
1F
100
AcDbEntity
  8
0
  6
Continuous
 62
     7
370
    25
100
AcDbLine
 10
6251.0187553361
 20
5175.5579368522
 30
0.0
 11
6249.0187553361
 21
5171.5579368522
 31
0.0
  0
LINE
  5
93
330
1F
100
AcDbEntity
  8
0
  6
Continuous
 62
     7
370
    25
100
AcDbLine
 10
6251.0187553361
 20
5182.5579368522
 30
0.0
 11
6251.0187553361
 21
5175.5579368522
 31
0.0
  0
LINE
  5
94
330
1F
100
AcDbEntity
  8
0
  6
Continuous
 62
     7
370
    25
100
AcDbLine
 10
6297.0187553361
 20
5175.5579368522
 30
0.0
 11
6297.0187553361
 21
5182.5579368522
 31
0.0
  0
ARC
  5
95
330
1F
100
AcDbEntity
  8
0
  6
Continuous
 62
     7
370
    25
100
AcDbCircle
 10
6254.0187553361
 20
5182.5579368522
 30
0.0
 40
3.000000000000909
100
AcDbArc
 50
90.0
 51
180.0
  0
ARC
  5
96
330
1F
100
AcDbEntity
  8
0
  6
Continuous
 62
     7
370
    25
100
AcDbCircle
 10
6294.0187553361
 20
5182.5579368522
 30
0.0
 40
3.0
100
AcDbArc
 50
0.0
 51
90.0
  0
LINE
  5
97
330
1F
100
AcDbEntity
  8
0
  6
Continuous
 62
     7
370
    25
100
AcDbLine
 10
6242.0187553361
 20
5308.3409723332
 30
0.0
 11
6242.0187553361
 21
5304.620360257
 31
0.0
  0
LINE
  5
98
330
1F
100
AcDbEntity
  8
0
  6
Continuous
 62
     7
370
    25
100
AcDbLine
 10
6306.0187553361
 20
5304.620360257
 30
0.0
 11
6306.0187553361
 21
5308.3409723332
 31
0.0
  0
LINE
  5
99
330
1F
100
AcDbEntity
  8
0
  6
Continuous
 62
     7
370
    25
100
AcDbLine
 10
6294.5489090312
 20
5269.7013282045
 30
0.0
 11
6293.9742441521
 21
5269.9068183552
 31
0.0
  0
LWPOLYLINE
  5
9A
330
1F
100
AcDbEntity
  8
0
  6
Continuous
 62
     7
370
    25
100
AcDbPolyline
 90
        3
 70
   128
 43
0.0
 10
6253.697818268
 20
5270.4962169437
 10
6253.3589471999
 20
5270.3004886222
 10
6253.0215351906
 20
5270.1057225729
  0
LWPOLYLINE
  5
9B
330
1F
100
AcDbEntity
  8
0
  6
Continuous
 62
     7
370
    25
100
AcDbPolyline
 90
        3
 70
   128
 43
0.0
 10
6294.3388966342
 20
5270.1769562623
 10
6294.6763918572
 20
5270.3718877897
 10
6295.0157213717
 20
5270.5677735172
  0
LWPOLYLINE
  5
9C
330
1F
100
AcDbEntity
  8
0
  6
Continuous
 62
     7
370
    25
100
AcDbPolyline
 90
        3
 70
   128
 43
0.0
 10
6253.0217907767
 20
5269.942772687
 10
6253.361121145
 20
5269.74688665
 10
6253.4399988279
 20
5269.7013282045
  0
LWPOLYLINE
  5
9D
330
1F
100
AcDbEntity
  8
0
  6
Continuous
 62
     7
370
    25
100
AcDbPolyline
 90
        3
 70
   128
 43
0.0
 10
6253.0217907767
 20
5271.192772687
 10
6253.3612302206
 20
5270.9968336592
 10
6253.6953393611
 20
5270.8038478316
  0
LINE
  5
9E
330
1F
100
AcDbEntity
  8
0
  6
Continuous
 62
     7
370
    25
100
AcDbLine
 10
6253.0187553361
 20
5270.1026277873
 30
0.0
 11
6253.0187553361
 21
5269.9463325345
 31
0.0
  0
LINE
  5
9F
330
1F
100
AcDbEntity
  8
0
  6
Continuous
 62
     7
370
    25
100
AcDbLine
 10
6253.0187553361
 20
5271.620360257
 30
0.0
 11
6253.0187553361
 21
5271.1963325345
 31
0.0
  0
LINE
  5
A0
330
1F
100
AcDbEntity
  8
0
  6
Continuous
 62
     7
370
    25
100
AcDbLine
 10
6295.0187553361
 20
5270.5713604053
 30
0.0
 11
6295.0187553361
 21
5271.620360257
 31
0.0
  0
LWPOLYLINE
  5
A1
330
1F
100
AcDbEntity
  8
0
  6
Continuous
 62
     7
370
    25
100
AcDbPolyline
 90
        3
 70
   128
 43
0.0
 10
6294.3421720613
 20
5269.8680056836
 10
6294.3420998295
 20
5270.023776415
 10
6294.3421712972
 20
5270.1788476522
  0
LWPOLYLINE
  5
A2
330
1F
100
AcDbEntity
  8
0
  6
Continuous
 62
     7
370
    25
100
AcDbPolyline
 90
        3
 70
   128
 43
0.0
 10
6253.6953385979
 20
5270.8055061103
 10
6253.6954107272
 20
5270.6487768416
 10
6253.6953394217
 20
5270.4947851884
  0
ARC
  5
A3
330
1F
100
AcDbEntity
  8
0
  6
Continuous
 62
     7
370
    25
100
AcDbCircle
 10
6274.0187553361
 20
5147.0579368522
 30
0.0
 40
40.00000000000026
100
AcDbArc
 50
323.8929885942
 51
54.9003678046
  0
ARC
  5
A4
330
1F
100
AcDbEntity
  8
0
  6
Continuous
 62
     7
370
    25
100
AcDbCircle
 10
6274.0187553361
 20
5147.0579368522
 30
0.0
 40
40.00000000000078
100
AcDbArc
 50
125.0996321954
 51
216.1070114058
  0
LINE
  5
A5
330
1F
100
AcDbEntity
  8
0
  6
Continuous
 62
     7
370
    25
100
AcDbLine
 10
6286.6544455785
 20
5265.7013282045
 30
0.0
 11
6302.0187553361
 21
5265.7013282045
 31
0.0
  0
LINE
  5
A6
330
1F
100
AcDbEntity
  8
0
  6
Continuous
 62
     7
370
    25
100
AcDbLine
 10
6246.0187553361
 20
5265.7013282045
 30
0.0
 11
6286.6544455785
 21
5265.7013282045
 31
0.0
  0
LINE
  5
A7
330
1F
100
AcDbEntity
  8
0
  6
Continuous
 62
     7
370
    25
100
AcDbLine
 10
6287.5569948815
 20
5269.7013282045
 30
0.0
 11
6304.0187553361
 21
5269.7013282045
 31
0.0
  0
LINE
  5
A8
330
1F
100
AcDbEntity
  8
0
  6
Continuous
 62
     7
370
    25
100
AcDbLine
 10
6244.0187553361
 20
5269.7013282045
 30
0.0
 11
6287.5569948815
 21
5269.7013282045
 31
0.0
  0
LINE
  5
A9
330
1F
100
AcDbEntity
  8
0
  6
Continuous
 62
     7
370
    25
100
AcDbLine
 10
6285.3006216239
 20
5255.7013282045
 30
0.0
 11
6299.0187553361
 21
5255.7013282045
 31
0.0
  0
LINE
  5
AA
330
1F
100
AcDbEntity
  8
0
  6
Continuous
 62
     7
370
    25
100
AcDbLine
 10
6249.0187553361
 20
5255.7013282045
 30
0.0
 11
6285.3006216239
 21
5255.7013282045
 31
0.0
  0
LINE
  5
AB
330
1F
100
AcDbEntity
  8
0
  6
Continuous
 62
     7
370
    25
100
AcDbLine
 10
6240.0187553361
 20
5109.0579368522
 30
0.0
 11
6308.0187553361
 21
5109.0579368522
 31
0.0
  0
LINE
  5
AC
330
1F
100
AcDbEntity
  8
0
  6
Continuous
 62
     7
370
    25
100
AcDbLine
 10
6249.6891029982
 20
5169.0579368522
 30
0.0
 11
6298.348407674
 21
5169.0579368522
 31
0.0
  0
LINE
  5
AD
330
1F
100
AcDbEntity
  8
0
  6
Continuous
 62
     7
370
    25
100
AcDbLine
 10
6249.8969274699
 20
5039.0579368522
 30
0.0
 11
6298.1405832023
 21
5039.0579368522
 31
0.0
  0
LINE
  5
AE
330
1F
100
AcDbEntity
  8
0
  6
Continuous
 62
     7
370
    25
100
AcDbLine
 10
6251.0187553361
 20
5175.5579368522
 30
0.0
 11
6297.0187553361
 21
5175.5579368522
 31
0.0
  0
LINE
  5
AF
330
1F
100
AcDbEntity
  8
0
  6
Continuous
 62
     7
370
    25
100
AcDbLine
 10
6249.0187553361
 20
5171.5579368522
 30
0.0
 11
6299.0187553361
 21
5171.5579368522
 31
0.0
  0
LINE
  5
B0
330
1F
100
AcDbEntity
  8
0
  6
Continuous
 62
     7
370
    25
100
AcDbLine
 10
6254.0187553361
 20
5185.5579368522
 30
0.0
 11
6294.0187553361
 21
5185.5579368522
 31
0.0
  0
LINE
  5
B1
330
1F
100
AcDbEntity
  8
0
  6
Continuous
 62
     7
370
    25
100
AcDbLine
 10
6290.5187553361
 20
5169.0579368522
 30
0.0
 11
6290.0187553361
 21
5169.4242060986
 31
0.0
  0
LINE
  5
B2
330
1F
100
AcDbEntity
  8
0
  6
Continuous
 62
     7
370
    25
100
AcDbLine
 10
6258.0187553361
 20
5169.4242060986
 30
0.0
 11
6257.5187553361
 21
5169.0579368522
 31
0.0
  0
LINE
  5
B3
330
1F
100
AcDbEntity
  8
0
  6
Continuous
 62
     7
370
    25
100
AcDbLine
 10
6306.0187553361
 20
5304.620360257
 30
0.0
 11
6242.0187553361
 21
5304.620360257
 31
0.0
  0
LINE
  5
B4
330
1F
100
AcDbEntity
  8
0
  6
Continuous
 62
     7
370
    25
100
AcDbLine
 10
6293.428547872
 20
5271.620360257
 30
0.0
 11
6293.428547872
 21
5304.620360257
 31
0.0
  0
LINE
  5
B5
330
1F
100
AcDbEntity
  8
0
  6
Continuous
 62
     7
370
    25
100
AcDbLine
 10
6293.428547872
 20
5271.620360257
 30
0.0
 11
6268.0250858962
 21
5271.620360257
 31
0.0
  0
LINE
  5
B6
330
1F
100
AcDbEntity
  8
0
  6
Continuous
 62
     7
370
    25
100
AcDbLine
 10
6268.0250858962
 20
5271.620360257
 30
0.0
 11
6268.0250858962
 21
5304.620360257
 31
0.0
  0
LINE
  5
B7
330
1F
100
AcDbEntity
  8
0
  6
Continuous
 62
     7
370
    25
100
AcDbLine
 10
6248.6152933603
 20
5271.620360257
 30
0.0
 11
6248.6152933603
 21
5304.620360257
 31
0.0
  0
LINE
  5
B8
330
1F
100
AcDbEntity
  8
0
  6
Continuous
 62
     7
370
    25
100
AcDbLine
 10
6268.0250858962
 20
5271.620360257
 30
0.0
 11
6248.6152933603
 21
5271.620360257
 31
0.0
  0
ARC
  5
B9
330
1F
100
AcDbEntity
  8
0
  6
Continuous
 62
     7
370
    25
100
AcDbCircle
 10
6287.8231701136
 20
5396.0115312737
 30
0.0
 40
126.3105722885135
100
AcDbArc
 50
269.8614648082
 51
272.945645041
  0
LWPOLYLINE
  5
BA
330
1F
100
AcDbEntity
  8
0
  6
Continuous
 62
     7
370
    25
100
AcDbPolyline
 90
       13
 70
   128
 43
0.0
 10
6253.8353047195
 20
5270.4963852273
 10
6253.8978229051
 20
5270.5217562686
 10
6255.111080687
 20
5270.5692477951
 10
6257.2962720276
 20
5270.6136229749
 10
6260.393754286
 20
5270.659552621
 10
6264.2739771368
 20
5270.7073549724
 10
6268.6246659019
 20
5270.7531907641
 10
6273.2155087825
 20
5270.7976338268
 10
6277.9509650219
 20
5270.8451630275
 10
6282.4567265857
 20
5270.8922025471
 10
6286.4234254508
 20
5270.9362135144
 10
6289.8033897231
 20
5270.9828965823
 10
6291.4314739857
 20
5271.011377716
  0
LINE
  5
BB
330
1F
100
AcDbEntity
  8
0
  6
Continuous
 62
     7
370
    25
100
AcDbLine
 10
6292.0111553305
 20
5270.6207526882
 30
0.0
 11
6291.4314724658
 21
5271.0113776865
 31
0.0
  0
LWPOLYLINE
  5
BC
330
1F
100
AcDbEntity
  8
0
  6
Continuous
 62
     7
370
    25
100
AcDbPolyline
 90
       13
 70
   128
 43
0.0
 10
6253.1633830422
 20
5270.1057606421
 10
6253.2279813822
 20
5270.1311312655
 10
6254.4816293443
 20
5270.1786227921
 10
6256.7395672997
 20
5270.222997972
 10
6259.9401670421
 20
5270.2689276177
 10
6263.9495654432
 20
5270.316729969
 10
6268.4450919718
 20
5270.362565761
 10
6273.1887675347
 20
5270.4070088233
 10
6278.0818707814
 20
5270.4545380237
 10
6282.7376326837
 20
5270.5015775436
 10
6286.8363860923
 20
5270.5455885108
 10
6290.3288720767
 20
5270.5922715783
 10
6292.0111553305
 20
5270.6207526882
  0
LWPOLYLINE
  5
BD
330
1F
100
AcDbEntity
  8
0
  6
Continuous
 62
     7
370
    25
100
AcDbPolyline
 90
       15
 70
   128
 43
0.0
 10
6253.1402193505
 20
5269.9463325345
 10
6253.2954077558
 20
5269.9792130742
 10
6254.6473485297
 20
5270.0265485555
 10
6256.989428041
 20
5270.0707243536
 10
6260.2730806715
 20
5270.1169750508
 10
6264.3412015486
 20
5270.1647569551
 10
6268.8619917702
 20
5270.2102361171
 10
6273.6300494744
 20
5270.2549699541
 10
6278.5179849275
 20
5270.3026151313
 10
6283.1336110272
 20
5270.3494213633
 10
6287.1795578268
 20
5270.3934148643
 10
6290.6057273561
 20
5270.4403456738
 10
6293.1429339178
 20
5270.4879347276
 10
6294.6143746102
 20
5270.5325090806
 10
6294.9477123012
 20
5270.5713604053
  0
LWPOLYLINE
  5
BE
330
1F
100
AcDbEntity
  8
0
  6
Continuous
 62
     7
370
    25
100
AcDbPolyline
 90
       11
 70
   128
 43
0.0
 10
6253.1402193505
 20
5271.1963325345
 10
6253.2954077558
 20
5271.2292130742
 10
6254.6473485297
 20
5271.2765485555
 10
6256.989428041
 20
5271.3207243536
 10
6260.2730806715
 20
5271.3669750508
 10
6264.3412015486
 20
5271.4147569551
 10
6268.8619917702
 20
5271.4602361171
 10
6273.6300494744
 20
5271.5049699541
 10
6278.5179849275
 20
5271.5526151313
 10
6283.1336110272
 20
5271.5994213633
 10
6285.1337088139
 20
5271.620360257
  0
LINE
  5
BF
330
1F
100
AcDbEntity
  8
0
  6
Continuous
 62
     7
370
    25
100
AcDbLine
 10
6291.431472317
 20
5271.3238776884
 30
0.0
 11
6292.0111548095
 21
5271.7145026866
 31
0.0
  0
LWPOLYLINE
  5
C0
330
1F
100
AcDbEntity
  8
0
  6
Continuous
 62
     7
370
    25
100
AcDbPolyline
 90
       12
 70
   128
 43
0.0
 10
6258.9961055368
 20
5269.7013282045
 10
6260.3937539356
 20
5269.7220526163
 10
6264.5776516121
 20
5269.7732865184
 10
6269.2721001643
 20
5269.821956695
 10
6274.2500147801
 20
5269.870360257
 10
6278.8196536496
 20
5269.9165859773
 10
6283.1087652296
 20
5269.9616777736
 10
6286.8722321207
 20
5270.0042441509
 10
6290.0713249202
 20
5270.0497206765
 10
6292.5267872175
 20
5270.0973097303
 10
6293.9508207078
 20
5270.1418840833
 10
6294.2438322494
 20
5270.177172219
  0
LWPOLYLINE
  5
C1
330
1F
100
AcDbEntity
  8
0
  6
Continuous
 62
     7
370
    25
100
AcDbPolyline
 90
       13
 70
   128
 43
0.0
 10
6253.8274293192
 20
5270.8056892395
 10
6253.8978228422
 20
5270.8342562641
 10
6255.1110805218
 20
5270.8817477907
 10
6257.2962717713
 20
5270.9261229706
 10
6260.3937539356
 20
5270.9720526163
 10
6264.5776516121
 20
5271.0232865184
 10
6269.2721001643
 20
5271.071956695
 10
6274.2500147801
 20
5271.120360257
 10
6278.8196536496
 20
5271.1665859773
 10
6283.1087652296
 20
5271.2116777736
 10
6286.8722321207
 20
5271.2542441509
 10
6290.0713249202
 20
5271.2997206765
 10
6291.4314725622
 20
5271.3238776884
  0
LINE
  5
C2
330
1F
100
AcDbEntity
  8
0
  6
Continuous
 62
     7
370
    25
100
AcDbLine
 10
6292.0111548543
 20
5271.620360257
 30
0.0
 11
6292.0111553305
 21
5270.6207526809
 31
0.0
  0
LINE
  5
C3
330
1F
100
AcDbEntity
  8
0
  6
Continuous
 62
     7
370
    25
100
AcDbLine
 10
6291.4314724658
 20
5271.011377716
 30
0.0
 11
6291.431472317
 21
5271.323877716
 31
0.0
  0
LINE
  5
C4
330
1F
100
AcDbEntity
  8
0
  6
Continuous
 62
     7
370
    25
100
AcDbLine
 10
6299.4222173119
 20
5271.620360257
 30
0.0
 11
6299.4222173119
 21
5304.620360257
 31
0.0
  0
LINE
  5
C5
330
1F
100
AcDbEntity
  8
0
  6
Continuous
 62
     7
370
    25
100
AcDbLine
 10
6299.4222173119
 20
5271.620360257
 30
0.0
 11
6293.428547872
 21
5271.620360257
 31
0.0
  0
LINE
  5
C6
330
1F
100
AcDbEntity
  8
0
  6
Continuous
 62
     7
370
    25
100
AcDbLine
 10
6079.0187553361
 20
5385.8409723332
 30
0.0
 11
6079.0187553361
 21
5310.8409723332
 31
0.0
  0
LINE
  5
C7
330
1F
100
AcDbEntity
  8
0
  6
Continuous
 62
     7
370
    25
100
AcDbLine
 10
6079.0187553361
 20
5310.8409723332
 30
0.0
 11
6076.5187553361
 21
5310.8409723332
 31
0.0
  0
LINE
  5
C8
330
1F
100
AcDbEntity
  8
0
  6
Continuous
 62
     7
370
    25
100
AcDbLine
 10
6076.5187553361
 20
5310.8409723332
 30
0.0
 11
6076.5187553361
 21
5385.8409723332
 31
0.0
  0
LINE
  5
C9
330
1F
100
AcDbEntity
  8
0
  6
Continuous
 62
     7
370
    25
100
AcDbLine
 10
6079.0187553361
 20
5385.8409723332
 30
0.0
 11
6076.5187553361
 21
5385.8409723332
 31
0.0
  0
LINE
  5
CA
330
1F
100
AcDbEntity
  8
0
  6
Continuous
 62
     7
370
    25
100
AcDbLine
 10
6469.0187553361
 20
5308.3409723332
 30
0.0
 11
6079.0187553361
 21
5308.3409723332
 31
0.0
  0
LINE
  5
CB
330
1F
100
AcDbEntity
  8
0
  6
Continuous
 62
     7
370
    25
100
AcDbLine
 10
6079.0187553361
 20
5308.3409723332
 30
0.0
 11
6079.0187553361
 21
5310.8409723332
 31
0.0
  0
LINE
  5
CC
330
1F
100
AcDbEntity
  8
0
  6
Continuous
 62
     7
370
    25
100
AcDbLine
 10
6079.0187553361
 20
5310.8409723332
 30
0.0
 11
6469.0187553361
 21
5310.8409723332
 31
0.0
  0
LINE
  5
CD
330
1F
100
AcDbEntity
  8
0
  6
Continuous
 62
     7
370
    25
100
AcDbLine
 10
6469.0187553361
 20
5308.3409723332
 30
0.0
 11
6469.0187553361
 21
5310.8409723332
 31
0.0
  0
LINE
  5
CE
330
1F
100
AcDbEntity
  8
0
  6
Continuous
 62
     7
370
    25
100
AcDbLine
 10
6469.0187553361
 20
5310.8409723332
 30
0.0
 11
6469.0187553361
 21
5385.8409723332
 31
0.0
  0
LINE
  5
CF
330
1F
100
AcDbEntity
  8
0
  6
Continuous
 62
     7
370
    25
100
AcDbLine
 10
6469.0187553361
 20
5385.8409723332
 30
0.0
 11
6079.0187553361
 21
5385.8409723332
 31
0.0
  0
LINE
  5
D0
330
1F
100
AcDbEntity
  8
0
  6
Continuous
 62
     7
370
    25
100
AcDbLine
 10
6079.0187553361
 20
5385.8409723332
 30
0.0
 11
6079.0187553361
 21
5388.3409723332
 31
0.0
  0
LINE
  5
D1
330
1F
100
AcDbEntity
  8
0
  6
Continuous
 62
     7
370
    25
100
AcDbLine
 10
6079.0187553361
 20
5388.3409723332
 30
0.0
 11
6469.0187553361
 21
5388.3409723332
 31
0.0
  0
LINE
  5
D2
330
1F
100
AcDbEntity
  8
0
  6
Continuous
 62
     7
370
    25
100
AcDbLine
 10
6469.0187553361
 20
5385.8409723332
 30
0.0
 11
6469.0187553361
 21
5388.3409723332
 31
0.0
  0
LINE
  5
D3
330
1F
100
AcDbEntity
  8
0
  6
Continuous
 62
     7
370
    25
100
AcDbLine
 10
6471.5187553361
 20
5310.8409723332
 30
0.0
 11
6469.0187553361
 21
5310.8409723332
 31
0.0
  0
ARC
  5
D4
330
1F
100
AcDbEntity
  8
0
  6
Continuous
 62
     7
370
    25
100
AcDbCircle
 10
6469.0187553361
 20
5310.8409723332
 30
0.0
 40
2.500000000000909
100
AcDbArc
 50
270.0
 51
0.0
  0
ARC
  5
D5
330
1F
100
AcDbEntity
  8
0
  6
Continuous
 62
     7
370
    25
100
AcDbCircle
 10
6079.0187553361
 20
5310.8409723332
 30
0.0
 40
2.500000000000909
100
AcDbArc
 50
180.0
 51
270.0
  0
ARC
  5
D6
330
1F
100
AcDbEntity
  8
0
  6
Continuous
 62
     7
370
    25
100
AcDbCircle
 10
6079.0187553361
 20
5385.8409723332
 30
0.0
 40
2.5
100
AcDbArc
 50
90.0
 51
180.0
  0
LINE
  5
D7
330
1F
100
AcDbEntity
  8
0
  6
Continuous
 62
     7
370
    25
100
AcDbLine
 10
6471.5187553361
 20
5385.8409723332
 30
0.0
 11
6471.5187553361
 21
5310.8409723332
 31
0.0
  0
LINE
  5
D8
330
1F
100
AcDbEntity
  8
0
  6
Continuous
 62
     7
370
    25
100
AcDbLine
 10
6471.5187553361
 20
5385.8409723332
 30
0.0
 11
6469.0187553361
 21
5385.8409723332
 31
0.0
  0
ARC
  5
D9
330
1F
100
AcDbEntity
  8
0
  6
Continuous
 62
     7
370
    25
100
AcDbCircle
 10
6469.0187553361
 20
5385.8409723332
 30
0.0
 40
2.5
100
AcDbArc
 50
0.0
 51
90.0
  0
LINE
  5
DA
330
1F
100
AcDbEntity
  8
0
  6
Continuous
 62
     8
370
    25
100
AcDbLine
 10
6286.6544455785
 20
5258.7013282045
 30
0.0
 11
6302.0187553361
 21
5258.7013282045
 31
0.0
  0
LINE
  5
DB
330
1F
100
AcDbEntity
  8
0
  6
Continuous
 62
     8
370
    25
100
AcDbLine
 10
6246.0187553361
 20
5258.7013282045
 30
0.0
 11
6286.6544455785
 21
5258.7013282045
 31
0.0
  0
LINE
  5
DC
330
1F
100
AcDbEntity
  8
0
  6
Continuous
 62
     8
370
    25
100
AcDbLine
 10
6246.912541056
 20
5041.7522609909
 30
0.0
 11
6301.1249696162
 21
5041.7522609909
 31
0.0
  0
LINE
  5
DD
330
1F
100
AcDbEntity
  8
0
  6
Continuous
 62
     8
370
    25
100
AcDbLine
 10
6301.3281970913
 20
5166.4055789509
 30
0.0
 11
6246.7093135809
 21
5166.4055789509
 31
0.0
  0
LINE
  5
DE
330
1F
100
AcDbEntity
  8
0
  6
Continuous
 62
     8
370
    25
100
AcDbLine
 10
6251.0187553361
 20
5182.5579368522
 30
0.0
 11
6297.0187553361
 21
5182.5579368522
 31
0.0
  0
ARC
  5
DF
330
1F
100
AcDbEntity
  8
0
  6
Continuous
 62
     7
370
    25
100
AcDbCircle
 10
6677.4997691276
 20
5167.0579368522
 30
0.0
 40
20.0
100
AcDbArc
 50
0.0
 51
90.0
  0
ARC
  5
E0
330
1F
100
AcDbEntity
  8
0
  6
Continuous
 62
     7
370
    25
100
AcDbCircle
 10
6677.4997691276
 20
5127.0579368522
 30
0.0
 40
20.00000000000091
100
AcDbArc
 50
270.0
 51
0.0
  0
LINE
  5
E1
330
1F
100
AcDbEntity
  8
0
  6
Continuous
 62
     7
370
    25
100
AcDbLine
 10
6677.4997691276
 20
5187.0579368522
 30
0.0
 11
6662.4997691276
 21
5187.0579368522
 31
0.0
  0
LINE
  5
E2
330
1F
100
AcDbEntity
  8
0
  6
Continuous
 62
     7
370
    25
100
AcDbLine
 10
6662.4997691276
 20
5107.0579368522
 30
0.0
 11
6677.4997691276
 21
5107.0579368522
 31
0.0
  0
LINE
  5
E3
330
1F
100
AcDbEntity
  8
0
  6
Continuous
 62
     7
370
    25
100
AcDbLine
 10
6662.4997691276
 20
5167.0579368522
 30
0.0
 11
6652.4997691276
 21
5167.0579368522
 31
0.0
  0
LINE
  5
E4
330
1F
100
AcDbEntity
  8
0
  6
Continuous
 62
     7
370
    25
100
AcDbLine
 10
6652.4997691276
 20
5127.0579368522
 30
0.0
 11
6662.4997691276
 21
5127.0579368522
 31
0.0
  0
LINE
  5
E5
330
1F
100
AcDbEntity
  8
0
  6
Continuous
 62
     7
370
    25
100
AcDbLine
 10
6777.4997691276
 20
5167.0579368522
 30
0.0
 11
6697.4997691276
 21
5167.0579368522
 31
0.0
  0
LINE
  5
E6
330
1F
100
AcDbEntity
  8
0
  6
Continuous
 62
     7
370
    25
100
AcDbLine
 10
6697.4997691276
 20
5127.0579368522
 30
0.0
 11
6777.4997691276
 21
5127.0579368522
 31
0.0
  0
LINE
  5
E7
330
1F
100
AcDbEntity
  8
0
  6
Continuous
 62
     7
370
    25
100
AcDbLine
 10
6807.4997691276
 20
5269.7013282045
 30
0.0
 11
6809.4997691276
 21
5265.7013282045
 31
0.0
  0
LINE
  5
E8
330
1F
100
AcDbEntity
  8
0
  6
Continuous
 62
     7
370
    25
100
AcDbLine
 10
6865.4997691276
 20
5265.7013282045
 30
0.0
 11
6867.4997691276
 21
5269.7013282045
 31
0.0
  0
ARC
  5
E9
330
1F
100
AcDbEntity
  8
0
  6
Continuous
 62
     7
370
    25
100
AcDbCircle
 10
6812.4997691276
 20
5258.7013282045
 30
0.0
 40
3.0
100
AcDbArc
 50
180.0
 51
270.0
  0
ARC
  5
EA
330
1F
100
AcDbEntity
  8
0
  6
Continuous
 62
     7
370
    25
100
AcDbCircle
 10
6862.4997691276
 20
5258.7013282045
 30
0.0
 40
3.0
100
AcDbArc
 50
270.0
 51
0.0
  0
LINE
  5
EB
330
1F
100
AcDbEntity
  8
0
  6
Continuous
 62
     7
370
    25
100
AcDbLine
 10
6809.4997691276
 20
5265.7013282045
 30
0.0
 11
6809.4997691276
 21
5258.7013282045
 31
0.0
  0
LINE
  5
EC
330
1F
100
AcDbEntity
  8
0
  6
Continuous
 62
     7
370
    25
100
AcDbLine
 10
6865.4997691276
 20
5258.7013282045
 30
0.0
 11
6865.4997691276
 21
5265.7013282045
 31
0.0
  0
LINE
  5
ED
330
1F
100
AcDbEntity
  8
0
  6
Continuous
 62
     7
370
    25
100
AcDbLine
 10
6821.4997691276
 20
5255.7013282045
 30
0.0
 11
6821.4997691276
 21
5185.5579368522
 31
0.0
  0
LINE
  5
EE
330
1F
100
AcDbEntity
  8
0
  6
Continuous
 62
     7
370
    25
100
AcDbLine
 10
6821.4997691276
 20
5171.5579368522
 30
0.0
 11
6821.4997691276
 21
5169.0579368522
 31
0.0
  0
LINE
  5
EF
330
1F
100
AcDbEntity
  8
0
  6
Continuous
 62
     7
370
    25
100
AcDbLine
 10
6853.4997691276
 20
5169.0579368522
 30
0.0
 11
6853.4997691276
 21
5171.5579368522
 31
0.0
  0
LINE
  5
F0
330
1F
100
AcDbEntity
  8
0
  6
Continuous
 62
     7
370
    25
100
AcDbLine
 10
6853.4997691276
 20
5185.5579368522
 30
0.0
 11
6853.4997691276
 21
5255.7013282045
 31
0.0
  0
LINE
  5
F1
330
1F
100
AcDbEntity
  8
0
  6
Continuous
 62
     7
370
    25
100
AcDbLine
 10
6871.4997691276
 20
5109.0579368522
 30
0.0
 11
6864.8092108827
 21
5166.4055789509
 31
0.0
  0
LINE
  5
F2
330
1F
100
AcDbEntity
  8
0
  6
Continuous
 62
     7
370
    25
100
AcDbLine
 10
6805.3708707627
 20
5125.0959508673
 30
0.0
 11
6803.4997691276
 21
5109.0579368522
 31
0.0
  0
LINE
  5
F3
330
1F
100
AcDbEntity
  8
0
  6
Continuous
 62
     7
370
    25
100
AcDbLine
 10
6803.4997691276
 20
5109.0579368522
 30
0.0
 11
6810.3935548474
 21
5041.7522609909
 31
0.0
  0
LINE
  5
F4
330
1F
100
AcDbEntity
  8
0
  6
Continuous
 62
     7
370
    25
100
AcDbLine
 10
6864.6059834077
 20
5041.7522609909
 30
0.0
 11
6871.4997691276
 21
5109.0579368522
 31
0.0
  0
LINE
  5
F5
330
1F
100
AcDbEntity
  8
0
  6
Continuous
 62
     7
370
    25
100
AcDbLine
 10
6793.4997691276
 20
5174.5579368522
 30
0.0
 11
6789.4997691276
 21
5173.0579368522
 31
0.0
  0
LINE
  5
F6
330
1F
100
AcDbEntity
  8
0
  6
Continuous
 62
     7
370
    25
100
AcDbLine
 10
6789.4997691276
 20
5121.0579368522
 30
0.0
 11
6793.4997691276
 21
5119.5579368522
 31
0.0
  0
ARC
  5
F7
330
1F
100
AcDbEntity
  8
0
  6
Continuous
 62
     7
370
    25
100
AcDbCircle
 10
6861.8294214655
 20
5166.0579368522
 30
0.0
 40
3.0
100
AcDbArc
 50
6.654425046
 51
90.0
  0
ARC
  5
F8
330
1F
100
AcDbEntity
  8
0
  6
Continuous
 62
     7
370
    25
100
AcDbCircle
 10
6813.3779412614
 20
5042.0579368522
 30
0.0
 40
3.000000000000424
100
AcDbArc
 50
185.8481280262
 51
270.0
  0
ARC
  5
F9
330
1F
100
AcDbEntity
  8
0
  6
Continuous
 62
     7
370
    25
100
AcDbCircle
 10
6861.6215969938
 20
5042.0579368522
 30
0.0
 40
3.000000000000424
100
AcDbArc
 50
270.0
 51
354.1518719738
  0
LINE
  5
FA
330
1F
100
AcDbEntity
  8
0
  6
Continuous
 62
     7
370
    25
100
AcDbLine
 10
6789.4997691276
 20
5173.0579368522
 30
0.0
 11
6780.4997691276
 21
5173.0579368522
 31
0.0
  0
LINE
  5
FB
330
1F
100
AcDbEntity
  8
0
  6
Continuous
 62
     7
370
    25
100
AcDbLine
 10
6780.4997691276
 20
5121.0579368522
 30
0.0
 11
6789.4997691276
 21
5121.0579368522
 31
0.0
  0
ARC
  5
FC
330
1F
100
AcDbEntity
  8
0
  6
Continuous
 62
     7
370
    25
100
AcDbCircle
 10
6780.4997691276
 20
5170.0579368522
 30
0.0
 40
3.0
100
AcDbArc
 50
90.0
 51
180.0
  0
ARC
  5
FD
330
1F
100
AcDbEntity
  8
0
  6
Continuous
 62
     7
370
    25
100
AcDbCircle
 10
6780.4997691276
 20
5124.0579368522
 30
0.0
 40
3.000000000000909
100
AcDbArc
 50
180.0
 51
270.0
  0
LINE
  5
FE
330
1F
100
AcDbEntity
  8
0
  6
Continuous
 62
     7
370
    25
100
AcDbLine
 10
6862.4997691276
 20
5171.5579368522
 30
0.0
 11
6860.4997691276
 21
5175.5579368522
 31
0.0
  0
LINE
  5
FF
330
1F
100
AcDbEntity
  8
0
  6
Continuous
 62
     7
370
    25
100
AcDbLine
 10
6814.4997691276
 20
5175.5579368522
 30
0.0
 11
6812.4997691276
 21
5171.5579368522
 31
0.0
  0
ARC
  5
100
330
1F
100
AcDbEntity
  8
0
  6
Continuous
 62
     7
370
    25
100
AcDbCircle
 10
6817.4997691276
 20
5182.5579368522
 30
0.0
 40
3.0
100
AcDbArc
 50
90.0
 51
180.0
  0
ARC
  5
101
330
1F
100
AcDbEntity
  8
0
  6
Continuous
 62
     7
370
    25
100
AcDbCircle
 10
6857.4997691276
 20
5182.5579368522
 30
0.0
 40
3.0
100
AcDbArc
 50
0.0
 51
90.0
  0
LINE
  5
102
330
1F
100
AcDbEntity
  8
0
  6
Continuous
 62
     7
370
    25
100
AcDbLine
 10
6814.4997691276
 20
5182.5579368522
 30
0.0
 11
6814.4997691276
 21
5175.5579368522
 31
0.0
  0
LINE
  5
103
330
1F
100
AcDbEntity
  8
0
  6
Continuous
 62
     7
370
    25
100
AcDbLine
 10
6860.4997691276
 20
5175.5579368522
 30
0.0
 11
6860.4997691276
 21
5182.5579368522
 31
0.0
  0
LINE
  5
104
330
1F
100
AcDbEntity
  8
0
  6
Continuous
 62
     7
370
    25
100
AcDbLine
 10
6793.4997691276
 20
5125.0579368522
 30
0.0
 11
6805.3946142894
 21
5125.0579368522
 31
0.0
  0
LINE
  5
105
330
1F
100
AcDbEntity
  8
0
  6
Continuous
 62
     7
370
    25
100
AcDbLine
 10
6810.4997691276
 20
5169.0579368522
 30
0.0
 11
6793.4997691276
 21
5169.0579368522
 31
0.0
  0
LINE
  5
106
330
1F
100
AcDbEntity
  8
0
  6
Continuous
 62
     7
370
    25
100
AcDbLine
 10
6805.4997691276
 20
5308.3409723332
 30
0.0
 11
6805.4997691276
 21
5304.620360257
 31
0.0
  0
LINE
  5
107
330
1F
100
AcDbEntity
  8
0
  6
Continuous
 62
     7
370
    25
100
AcDbLine
 10
6869.4997691276
 20
5304.620360257
 30
0.0
 11
6869.4997691276
 21
5308.3409723332
 31
0.0
  0
LWPOLYLINE
  5
108
330
1F
100
AcDbEntity
  8
0
  6
Continuous
 62
     7
370
    25
100
AcDbPolyline
 90
        3
 70
   128
 43
0.0
 10
6858.496988623
 20
5270.418222957
 10
6858.1595782119
 20
5270.6129879394
 10
6857.8207089479
 20
5270.8087151934
  0
LWPOLYLINE
  5
109
330
1F
100
AcDbEntity
  8
0
  6
Continuous
 62
     7
370
    25
100
AcDbPolyline
 90
        3
 70
   128
 43
0.0
 10
6817.1788348121
 20
5270.1837186933
 10
6816.8399619391
 20
5269.9879893046
 10
6816.5025483319
 20
5269.7932221887
  0
LWPOLYLINE
  5
10A
330
1F
100
AcDbEntity
  8
0
  6
Continuous
 62
     7
370
    25
100
AcDbPolyline
 90
        3
 70
   128
 43
0.0
 10
6857.8199091069
 20
5269.8644555369
 10
6858.1574044837
 20
5270.0593872198
 10
6858.4967344252
 20
5270.2552731021
  0
LWPOLYLINE
  5
10B
330
1F
100
AcDbEntity
  8
0
  6
Continuous
 62
     7
370
    25
100
AcDbPolyline
 90
        3
 70
   128
 43
0.0
 10
6857.8199091069
 20
5271.1144555369
 10
6858.1572954236
 20
5271.309334229
 10
6858.4967344252
 20
5271.5052731021
  0
LWPOLYLINE
  5
10C
330
1F
100
AcDbEntity
  8
0
  6
Continuous
 62
     7
370
    25
100
AcDbPolyline
 90
        3
 70
   128
 43
0.0
 10
6816.5028023542
 20
5270.8802739322
 10
6816.8414415773
 20
5270.6847416018
 10
6817.1763531424
 20
5270.4913849315
  0
LINE
  5
10D
330
1F
100
AcDbEntity
  8
0
  6
Continuous
 62
     7
370
    25
100
AcDbLine
 10
6816.4997691276
 20
5269.7900230159
 30
0.0
 11
6816.4997691276
 21
5269.7013282045
 31
0.0
  0
LINE
  5
10E
330
1F
100
AcDbEntity
  8
0
  6
Continuous
 62
     7
370
    25
100
AcDbLine
 10
6816.4997691276
 20
5271.620360257
 30
0.0
 11
6816.4997691276
 21
5270.8839407107
 31
0.0
  0
LINE
  5
10F
330
1F
100
AcDbEntity
  8
0
  6
Continuous
 62
     7
370
    25
100
AcDbLine
 10
6858.4997691276
 20
5270.2587186323
 30
0.0
 11
6858.4997691276
 21
5270.4150101646
 31
0.0
  0
LWPOLYLINE
  5
110
330
1F
100
AcDbEntity
  8
0
  6
Continuous
 62
     7
370
    25
100
AcDbPolyline
 90
        3
 70
   128
 43
0.0
 10
6857.8226960094
 20
5270.8069669126
 10
6857.8229986347
 20
5270.9626834582
 10
6857.822702568
 20
5271.1160690761
  0
LWPOLYLINE
  5
111
330
1F
100
AcDbEntity
  8
0
  6
Continuous
 62
     7
370
    25
100
AcDbPolyline
 90
        3
 70
   128
 43
0.0
 10
6817.1763523959
 20
5270.493005897
 10
6817.1764245764
 20
5270.3362766284
 10
6817.1763532204
 20
5270.1822853521
  0
LINE
  5
112
330
1F
100
AcDbEntity
  8
0
  6
Continuous
 62
     7
370
    25
100
AcDbLine
 10
6697.4997691276
 20
5167.0579368522
 30
0.0
 11
6697.4997691276
 21
5127.0579368522
 31
0.0
  0
LINE
  5
113
330
1F
100
AcDbEntity
  8
0
  6
Continuous
 62
     7
370
    25
100
AcDbLine
 10
6662.4997691276
 20
5187.0579368522
 30
0.0
 11
6662.4997691276
 21
5107.0579368522
 31
0.0
  0
LINE
  5
114
330
1F
100
AcDbEntity
  8
0
  6
Continuous
 62
     7
370
    25
100
AcDbLine
 10
6652.4997691276
 20
5167.0579368522
 30
0.0
 11
6652.4997691276
 21
5127.0579368522
 31
0.0
  0
LINE
  5
115
330
1F
100
AcDbEntity
  8
0
  6
Continuous
 62
     7
370
    25
100
AcDbLine
 10
6809.4997691276
 20
5265.7013282045
 30
0.0
 11
6865.4997691276
 21
5265.7013282045
 31
0.0
  0
LINE
  5
116
330
1F
100
AcDbEntity
  8
0
  6
Continuous
 62
     7
370
    25
100
AcDbLine
 10
6807.4997691276
 20
5269.7013282045
 30
0.0
 11
6867.4997691276
 21
5269.7013282045
 31
0.0
  0
LINE
  5
117
330
1F
100
AcDbEntity
  8
0
  6
Continuous
 62
     7
370
    25
100
AcDbLine
 10
6812.4997691276
 20
5255.7013282045
 30
0.0
 11
6862.4997691276
 21
5255.7013282045
 31
0.0
  0
LWPOLYLINE
  5
118
330
1F
100
AcDbEntity
  8
0
  6
Continuous
 62
     7
370
    25
100
AcDbPolyline
 90
       20
 70
   128
 43
0.0
 10
6812.2780153472
 20
5166.4055789509
 10
6813.283413375
 20
5164.7855201538
 10
6814.5577619272
 20
5162.5400067486
 10
6815.8683539745
 20
5159.8561559113
 10
6816.8810057876
 20
5157.2476371747
 10
6817.6651415398
 20
5154.3032772445
 10
6817.9925552645
 20
5151.8944269813
 10
6818.012797924
 20
5149.3315515261
 10
6817.7045191998
 20
5146.8247099121
 10
6817.0829849704
 20
5144.3063401803
 10
6815.8848603552
 20
5141.1035210482
 10
6814.3799809305
 20
5138.0521980774
 10
6812.2643637797
 20
5134.4952468156
 10
6810.093515008
 20
5131.2868660161
 10
6808.4826570925
 20
5129.0760363932
 10
6807.0742930544
 20
5127.2250565357
 10
6806.2075328649
 20
5126.1158763025
 10
6805.6147269128
 20
5125.3684930085
 10
6805.3727180327
 20
5125.065777217
 10
6805.3946473747
 20
5125.0931769292
  0
LINE
  5
119
330
1F
100
AcDbEntity
  8
0
  6
Continuous
 62
     7
370
    25
100
AcDbLine
 10
6803.4997691276
 20
5109.0579368522
 30
0.0
 11
6871.4997691276
 21
5109.0579368522
 31
0.0
  0
LINE
  5
11A
330
1F
100
AcDbEntity
  8
0
  6
Continuous
 62
     7
370
    25
100
AcDbLine
 10
6793.4997691276
 20
5174.5579368522
 30
0.0
 11
6793.4997691276
 21
5119.5579368522
 31
0.0
  0
LINE
  5
11B
330
1F
100
AcDbEntity
  8
0
  6
Continuous
 62
     7
370
    25
100
AcDbLine
 10
6789.4997691276
 20
5173.0579368522
 30
0.0
 11
6789.4997691276
 21
5121.0579368522
 31
0.0
  0
ARC
  5
11C
330
1F
100
AcDbEntity
  8
0
  6
Continuous
 62
     7
370
    25
100
AcDbCircle
 10
6815.1310240113
 20
5166.199262009
 30
0.0
 40
2.860458899832497
100
AcDbArc
 50
92.0237024967
 51
175.8638232391
  0
LINE
  5
11D
330
1F
100
AcDbEntity
  8
0
  6
Continuous
 62
     7
370
    25
100
AcDbLine
 10
6815.0300128312
 20
5169.0579368522
 30
0.0
 11
6861.8294214655
 21
5169.0579368522
 31
0.0
  0
LINE
  5
11E
330
1F
100
AcDbEntity
  8
0
  6
Continuous
 62
     7
370
    25
100
AcDbLine
 10
6813.3779412614
 20
5039.0579368522
 30
0.0
 11
6861.6215969795
 21
5039.0579368522
 31
0.0
  0
LINE
  5
11F
330
1F
100
AcDbEntity
  8
0
  6
Continuous
 62
     7
370
    25
100
AcDbLine
 10
6777.4997691276
 20
5170.0579368522
 30
0.0
 11
6777.4997691276
 21
5124.0579368522
 31
0.0
  0
LINE
  5
120
330
1F
100
AcDbEntity
  8
0
  6
Continuous
 62
     7
370
    25
100
AcDbLine
 10
6814.4997691276
 20
5175.5579368522
 30
0.0
 11
6860.4997691276
 21
5175.5579368522
 31
0.0
  0
LINE
  5
121
330
1F
100
AcDbEntity
  8
0
  6
Continuous
 62
     7
370
    25
100
AcDbLine
 10
6812.4997691276
 20
5171.5579368522
 30
0.0
 11
6862.4997691276
 21
5171.5579368522
 31
0.0
  0
LINE
  5
122
330
1F
100
AcDbEntity
  8
0
  6
Continuous
 62
     7
370
    25
100
AcDbLine
 10
6817.4997691276
 20
5185.5579368522
 30
0.0
 11
6857.4997689537
 21
5185.5579368522
 31
0.0
  0
ARC
  5
123
330
1F
100
AcDbEntity
  8
0
  6
Continuous
 62
     7
370
    25
100
AcDbCircle
 10
6742.7104191808
 20
5121.6869782648
 30
0.0
 40
82.70068732298624
100
AcDbArc
 50
32.733230019
 51
34.9457141135
  0
LINE
  5
124
330
1F
100
AcDbEntity
  8
0
  6
Continuous
 62
     7
370
    25
100
AcDbLine
 10
6810.4997691276
 20
5169.0579368522
 30
0.0
 11
6815.0300128312
 21
5169.0579368522
 31
0.0
  0
LINE
  5
125
330
1F
100
AcDbEntity
  8
0
  6
Continuous
 62
     7
370
    25
100
AcDbLine
 10
6869.4997691276
 20
5304.620360257
 30
0.0
 11
6805.4997691276
 21
5304.620360257
 31
0.0
  0
LINE
  5
126
330
1F
100
AcDbEntity
  8
0
  6
Continuous
 62
     7
370
    25
100
AcDbLine
 10
6863.3727136832
 20
5271.620360257
 30
0.0
 11
6863.3727136832
 21
5304.620360257
 31
0.0
  0
LINE
  5
127
330
1F
100
AcDbEntity
  8
0
  6
Continuous
 62
     7
370
    25
100
AcDbLine
 10
6845.2455714085
 20
5271.620360257
 30
0.0
 11
6845.2455714085
 21
5304.620360257
 31
0.0
  0
LINE
  5
128
330
1F
100
AcDbEntity
  8
0
  6
Continuous
 62
     7
370
    25
100
AcDbLine
 10
6863.3727136832
 20
5271.620360257
 30
0.0
 11
6845.2455714085
 21
5271.620360257
 31
0.0
  0
LINE
  5
129
330
1F
100
AcDbEntity
  8
0
  6
Continuous
 62
     7
370
    25
100
AcDbLine
 10
6819.3726268529
 20
5271.620360257
 30
0.0
 11
6819.3726268529
 21
5304.620360257
 31
0.0
  0
LINE
  5
12A
330
1F
100
AcDbEntity
  8
0
  6
Continuous
 62
     7
370
    25
100
AcDbLine
 10
6845.2455714085
 20
5271.620360257
 30
0.0
 11
6819.3726268529
 21
5271.620360257
 31
0.0
  0
LWPOLYLINE
  5
12B
330
1F
100
AcDbEntity
  8
0
  6
Continuous
 62
     7
370
    25
100
AcDbPolyline
 90
       16
 70
   128
 43
0.0
 10
6817.2963555233
 20
5270.1839220174
 10
6817.2547791896
 20
5270.1983702675
 10
6818.223962416
 20
5270.2461153006
 10
6820.2037159842
 20
5270.291305724
 10
6823.0926551027
 20
5270.3363076086
 10
6826.8184278993
 20
5270.384019672
 10
6831.0939900357
 20
5270.4306289021
 10
6835.6274719196
 20
5270.4746575083
 10
6840.36147899
 20
5270.5217562686
 10
6844.9523622733
 20
5270.5692477951
 10
6849.0496547212
 20
5270.6136229749
 10
6852.5795785301
 20
5270.659552621
 10
6855.3345834826
 20
5270.7073549724
 10
6857.0942863303
 20
5270.7531907641
 10
6857.8073071419
 20
5270.7976338268
 10
6857.72132008
 20
5270.8087348758
  0
LWPOLYLINE
  5
12C
330
1F
100
AcDbEntity
  8
0
  6
Continuous
 62
     7
370
    25
100
AcDbPolyline
 90
       17
 70
   128
 43
0.0
 10
6816.5352635305
 20
5269.7900230159
 10
6816.5041932622
 20
5269.7940820728
 10
6816.9562520425
 20
5269.8324299699
 10
6818.1308809866
 20
5269.870360257
 10
6819.6279167305
 20
5269.9006807219
 10
6822.6130307808
 20
5269.945682606
 10
6826.4628373686
 20
5269.9933946692
 10
6830.8807362408
 20
5270.0400038995
 10
6835.5651412202
 20
5270.0840325055
 10
6840.4567470442
 20
5270.1311312655
 10
6845.2004644195
 20
5270.1786227921
 10
6849.4341589654
 20
5270.222997972
 10
6853.0815967369
 20
5270.2689276177
 10
6855.9283180368
 20
5270.316729969
 10
6857.7466028727
 20
5270.362565761
 10
6858.4833608185
 20
5270.4070088233
 10
6858.4193203806
 20
5270.4150101646
  0
LWPOLYLINE
  5
12D
330
1F
100
AcDbEntity
  8
0
  6
Continuous
 62
     7
370
    25
100
AcDbPolyline
 90
       15
 70
   128
 43
0.0
 10
6817.6767703456
 20
5269.7013282045
 10
6819.6279166748
 20
5269.7444307175
 10
6822.2766356287
 20
5269.7848165704
 10
6825.6476984893
 20
5269.8277015111
 10
6829.5417615576
 20
5269.870360257
 10
6831.2949874585
 20
5269.8877813553
 10
6836.0025695622
 20
5269.9319198589
 10
6840.8972483499
 20
5269.9792130742
 10
6845.6083200672
 20
5270.0265485555
 10
6849.7880567168
 20
5270.0707243536
 10
6853.3760542099
 20
5270.1169750508
 10
6856.1369618531
 20
5270.1647569551
 10
6857.8567774914
 20
5270.2102361171
 10
6858.4961713849
 20
5270.2549699541
 10
6858.4580874296
 20
5270.2587186323
  0
LWPOLYLINE
  5
12E
330
1F
100
AcDbEntity
  8
0
  6
Continuous
 62
     7
370
    25
100
AcDbPolyline
 90
       17
 70
   128
 43
0.0
 10
6816.6330044822
 20
5270.8839407107
 10
6816.5808077192
 20
5270.9014952607
 10
6817.5822556834
 20
5270.9492402938
 10
6819.6279166748
 20
5270.9944307175
 10
6822.2766356287
 20
5271.0348165704
 10
6825.6476984893
 20
5271.0777015111
 10
6829.5417615576
 20
5271.120360257
 10
6831.2949874585
 20
5271.1377813553
 10
6836.0025695622
 20
5271.1819198589
 10
6840.8972483499
 20
5271.2292130742
 10
6845.6083200672
 20
5271.2765485555
 10
6849.7880567168
 20
5271.3207243536
 10
6853.3760542099
 20
5271.3669750508
 10
6856.1369618531
 20
5271.4147569551
 10
6857.8567774914
 20
5271.4602361171
 10
6858.4961713849
 20
5271.5049699541
 10
6858.4580874296
 20
5271.5087186323
  0
ARC
  5
12F
330
1F
100
AcDbEntity
  8
0
  6
Continuous
 62
     7
370
    25
100
AcDbCircle
 10
6850.9796518421
 20
5410.3583775909
 30
0.0
 40
140.6570495681554
100
AcDbArc
 50
270.00291303
 51
272.7611410107
  0
LWPOLYLINE
  5
130
330
1F
100
AcDbEntity
  8
0
  6
Continuous
 62
     7
370
    25
100
AcDbPolyline
 90
       15
 70
   128
 43
0.0
 10
6817.3059971407
 20
5270.4930714415
 10
6817.254779156
 20
5270.5108702636
 10
6818.2239622925
 20
5270.5586152968
 10
6820.2037157814
 20
5270.6038057204
 10
6823.0926548155
 20
5270.6488076046
 10
6826.8184275431
 20
5270.6965196678
 10
6831.0939896383
 20
5270.743128898
 10
6835.6274714913
 20
5270.7871575041
 10
6840.361478548
 20
5270.8342562641
 10
6844.9523618541
 20
5270.8817477907
 10
6849.0496543502
 20
5270.9261229706
 10
6852.5795782134
 20
5270.9720526163
 10
6855.4971818778
 20
5271.0232865184
 10
6857.2611094139
 20
5271.071956695
 10
6857.7553429682
 20
5271.1146177212
  0
LINE
  5
131
330
1F
100
AcDbEntity
  8
0
  6
Continuous
 62
     7
370
    25
100
AcDbLine
 10
6811.626824572
 20
5271.620360257
 30
0.0
 11
6811.626824572
 21
5304.620360257
 31
0.0
  0
LINE
  5
132
330
1F
100
AcDbEntity
  8
0
  6
Continuous
 62
     7
370
    25
100
AcDbLine
 10
6819.3726268529
 20
5271.620360257
 30
0.0
 11
6811.626824572
 21
5271.620360257
 31
0.0
  0
LINE
  5
133
330
1F
100
AcDbEntity
  8
0
  6
Continuous
 62
     7
370
    25
100
AcDbLine
 10
6664.9997691276
 20
5385.8409723332
 30
0.0
 11
6664.9997691276
 21
5310.8409723332
 31
0.0
  0
LINE
  5
134
330
1F
100
AcDbEntity
  8
0
  6
Continuous
 62
     7
370
    25
100
AcDbLine
 10
6662.4997691276
 20
5308.3409723332
 30
0.0
 11
6664.9997691276
 21
5310.8409723332
 31
0.0
  0
LINE
  5
135
330
1F
100
AcDbEntity
  8
0
  6
Continuous
 62
     7
370
    25
100
AcDbLine
 10
6662.4997691276
 20
5308.3409723332
 30
0.0
 11
6662.4997691276
 21
5385.8409723332
 31
0.0
  0
LINE
  5
136
330
1F
100
AcDbEntity
  8
0
  6
Continuous
 62
     7
370
    25
100
AcDbLine
 10
6664.9997691276
 20
5385.8409723332
 30
0.0
 11
6662.4997691276
 21
5385.8409723332
 31
0.0
  0
LINE
  5
137
330
1F
100
AcDbEntity
  8
0
  6
Continuous
 62
     7
370
    25
100
AcDbLine
 10
7064.9997691276
 20
5310.8409723332
 30
0.0
 11
7064.9997691276
 21
5385.8409723332
 31
0.0
  0
LINE
  5
138
330
1F
100
AcDbEntity
  8
0
  6
Continuous
 62
     7
370
    25
100
AcDbLine
 10
6664.9997691276
 20
5310.8409723332
 30
0.0
 11
7064.9997691276
 21
5310.8409723332
 31
0.0
  0
LINE
  5
139
330
1F
100
AcDbEntity
  8
0
  6
Continuous
 62
     7
370
    25
100
AcDbLine
 10
7064.9997691276
 20
5385.8409723332
 30
0.0
 11
6664.9997691276
 21
5385.8409723332
 31
0.0
  0
ARC
  5
13A
330
1F
100
AcDbEntity
  8
0
  6
Continuous
 62
     7
370
    25
100
AcDbCircle
 10
6664.9997691276
 20
5385.8409723332
 30
0.0
 40
2.5
100
AcDbArc
 50
90.0
 51
180.0
  0
LINE
  5
13B
330
1F
100
AcDbEntity
  8
0
  6
Continuous
 62
     7
370
    25
100
AcDbLine
 10
6664.9997691276
 20
5385.8409723332
 30
0.0
 11
6664.9997691276
 21
5388.3409723332
 31
0.0
  0
LINE
  5
13C
330
1F
100
AcDbEntity
  8
0
  6
Continuous
 62
     7
370
    25
100
AcDbLine
 10
6664.9997691276
 20
5388.3409723332
 30
0.0
 11
7064.9997691276
 21
5388.3409723332
 31
0.0
  0
LINE
  5
13D
330
1F
100
AcDbEntity
  8
0
  6
Continuous
 62
     7
370
    25
100
AcDbLine
 10
7064.9997691276
 20
5385.8409723332
 30
0.0
 11
7064.9997691276
 21
5388.3409723332
 31
0.0
  0
LINE
  5
13E
330
1F
100
AcDbEntity
  8
0
  6
Continuous
 62
     7
370
    25
100
AcDbLine
 10
7064.9997691276
 20
5308.3409723332
 30
0.0
 11
6662.4997691276
 21
5308.3409723332
 31
0.0
  0
LINE
  5
13F
330
1F
100
AcDbEntity
  8
0
  6
Continuous
 62
     7
370
    25
100
AcDbLine
 10
7064.9997691276
 20
5308.3409723332
 30
0.0
 11
7064.9997691276
 21
5310.8409723332
 31
0.0
  0
LINE
  5
140
330
1F
100
AcDbEntity
  8
0
  6
Continuous
 62
     7
370
    25
100
AcDbLine
 10
7067.4997691276
 20
5310.8409723332
 30
0.0
 11
7064.9997691276
 21
5310.8409723332
 31
0.0
  0
ARC
  5
141
330
1F
100
AcDbEntity
  8
0
  6
Continuous
 62
     7
370
    25
100
AcDbCircle
 10
7064.9997691276
 20
5310.8409723332
 30
0.0
 40
2.500000000000909
100
AcDbArc
 50
270.0
 51
0.0
  0
LINE
  5
142
330
1F
100
AcDbEntity
  8
0
  6
Continuous
 62
     7
370
    25
100
AcDbLine
 10
7067.4997691276
 20
5385.8409723332
 30
0.0
 11
7067.4997691276
 21
5310.8409723332
 31
0.0
  0
LINE
  5
143
330
1F
100
AcDbEntity
  8
0
  6
Continuous
 62
     7
370
    25
100
AcDbLine
 10
7067.4997691276
 20
5385.8409723332
 30
0.0
 11
7064.9997691276
 21
5385.8409723332
 31
0.0
  0
ARC
  5
144
330
1F
100
AcDbEntity
  8
0
  6
Continuous
 62
     7
370
    25
100
AcDbCircle
 10
7064.9997691276
 20
5385.8409723332
 30
0.0
 40
2.5
100
AcDbArc
 50
0.0
 51
90.0
  0
LINE
  5
145
330
1F
100
AcDbEntity
  8
0
  6
Continuous
 62
     8
370
    25
100
AcDbLine
 10
6677.4997691276
 20
5187.0579368522
 30
0.0
 11
6677.4997691276
 21
5107.0579368522
 31
0.0
  0
LINE
  5
146
330
1F
100
AcDbEntity
  8
0
  6
Continuous
 62
     8
370
    25
100
AcDbLine
 10
6809.4997691276
 20
5258.7013282045
 30
0.0
 11
6865.4997691276
 21
5258.7013282045
 31
0.0
  0
LINE
  5
147
330
1F
100
AcDbEntity
  8
0
  6
Continuous
 62
     8
370
    25
100
AcDbLine
 10
6864.8092108827
 20
5166.4055789509
 30
0.0
 11
6812.2780153472
 21
5166.4055789509
 31
0.0
  0
LINE
  5
148
330
1F
100
AcDbEntity
  8
0
  6
Continuous
 62
     8
370
    25
100
AcDbLine
 10
6810.3935548474
 20
5041.7522609909
 30
0.0
 11
6864.6059834077
 21
5041.7522609909
 31
0.0
  0
LINE
  5
149
330
1F
100
AcDbEntity
  8
0
  6
Continuous
 62
     8
370
    25
100
AcDbLine
 10
6780.4997691276
 20
5173.0579368522
 30
0.0
 11
6780.4997691276
 21
5121.0579368522
 31
0.0
  0
LINE
  5
14A
330
1F
100
AcDbEntity
  8
0
  6
Continuous
 62
     8
370
    25
100
AcDbLine
 10
6814.4997691276
 20
5182.5579368522
 30
0.0
 11
6860.4997691276
 21
5182.5579368522
 31
0.0
  0
LINE
  5
14B
330
1F
100
AcDbEntity
  8
0
  6
Continuous
 62
     7
370
    25
100
AcDbLine
 10
6294.0187553361
 20
4844.5765017723
 30
0.0
 11
6294.0187553361
 21
4854.5765017723
 31
0.0
  0
LINE
  5
14C
330
1F
100
AcDbEntity
  8
0
  6
Continuous
 62
     7
370
    25
100
AcDbLine
 10
6254.0187553361
 20
4854.5765017723
 30
0.0
 11
6254.0187553361
 21
4844.5765017723
 31
0.0
  0
LINE
  5
14D
330
1F
100
AcDbEntity
  8
0
  6
Continuous
 62
     7
370
    25
100
AcDbLine
 10
6287.4235119546
 20
4809.5765017723
 30
0.0
 11
6260.6139987176
 21
4809.5765017723
 31
0.0
  0
LINE
  5
14E
330
1F
100
AcDbEntity
  8
0
  6
Continuous
 62
     7
370
    25
100
AcDbLine
 10
6294.0187553361
 20
4854.5765017723
 30
0.0
 11
6254.0187553361
 21
4854.5765017723
 31
0.0
  0
LINE
  5
14F
330
1F
100
AcDbEntity
  8
0
  6
Continuous
 62
     7
370
    25
100
AcDbLine
 10
6288.1608909598
 20
4674.5765017723
 30
0.0
 11
6283.018755337
 21
4674.5765017723
 31
0.0
  0
LINE
  5
150
330
1F
100
AcDbEntity
  8
0
  6
Continuous
 62
     7
370
    25
100
AcDbLine
 10
6281.018755337
 20
4674.5765017723
 30
0.0
 11
6275.018755337
 21
4674.5765017723
 31
0.0
  0
LINE
  5
151
330
1F
100
AcDbEntity
  8
0
  6
Continuous
 62
     7
370
    25
100
AcDbLine
 10
6273.018755337
 20
4674.5765017723
 30
0.0
 11
6267.018755337
 21
4674.5765017723
 31
0.0
  0
LINE
  5
152
330
1F
100
AcDbEntity
  8
0
  6
Continuous
 62
     7
370
    25
100
AcDbLine
 10
6265.018755337
 20
4674.5765017723
 30
0.0
 11
6259.8766197124
 21
4674.5765017723
 31
0.0
  0
LINE
  5
153
330
1F
100
AcDbEntity
  8
0
  6
Continuous
 62
     7
370
    25
100
AcDbLine
 10
6280.7878751088
 20
4656.1907250857
 30
0.0
 11
6281.0187553338
 21
4656.3100026096
 31
0.0
  0
ARC
  5
154
330
1F
100
AcDbEntity
  8
0
  6
Continuous
 62
     7
370
    25
100
AcDbCircle
 10
6274.0187553361
 20
4669.5765017723
 30
0.0
 40
15.00000000000018
100
AcDbArc
 50
311.5350475737
 51
48.4649316973
  0
ARC
  5
155
330
1F
100
AcDbEntity
  8
0
  6
Continuous
 62
     7
370
    25
100
AcDbCircle
 10
6274.0187553361
 20
4669.5765017723
 30
0.0
 40
15.00000000000056
100
AcDbArc
 50
62.1818607054
 51
85.6686754171
  0
ARC
  5
156
330
1F
100
AcDbEntity
  8
0
  6
Continuous
 62
     7
370
    25
100
AcDbCircle
 10
6274.0187553361
 20
4669.5765017723
 30
0.0
 40
15.00000000000088
100
AcDbArc
 50
94.3313245161
 51
117.8181392747
  0
ARC
  5
157
330
1F
100
AcDbEntity
  8
0
  6
Continuous
 62
     7
370
    25
100
AcDbCircle
 10
6274.0187553361
 20
4669.5765017723
 30
0.0
 40
14.99999999999993
100
AcDbArc
 50
131.5352683515
 51
228.4646067311
  0
ARC
  5
158
330
1F
100
AcDbEntity
  8
0
  6
Continuous
 62
     7
370
    25
100
AcDbCircle
 10
6274.0187553361
 20
4669.5765017723
 30
0.0
 40
14.99999999999981
100
AcDbArc
 50
242.1818607054
 51
265.6686748
  0
ARC
  5
159
330
1F
100
AcDbEntity
  8
0
  6
Continuous
 62
     7
370
    25
100
AcDbCircle
 10
6274.0187553361
 20
4669.5765017723
 30
0.0
 40
14.99999999999992
100
AcDbArc
 50
274.3313262115
 51
296.8254937192
  0
ARC
  5
15A
330
1F
100
AcDbEntity
  8
0
  6
Continuous
 62
     7
370
    25
100
AcDbCircle
 10
6274.0187553361
 20
4669.5765017776
 30
0.0
 40
31.42261826174066
100
AcDbArc
 50
225.8701663154
 51
314.1299471871
  0
CIRCLE
  5
15B
330
1F
100
AcDbEntity
  8
0
  6
Continuous
 62
     7
370
    25
100
AcDbCircle
 10
6274.0187553361
 20
4669.5765017776
 30
0.0
 40
31.0
  0
ARC
  5
15C
330
1F
100
AcDbEntity
  8
0
  6
Continuous
 62
     7
370
    25
100
AcDbCircle
 10
6279.0187553385
 20
4683.2435504183
 30
0.0
 40
2.000000000000236
100
AcDbArc
 50
359.9999999901
 51
69.9052854957
  0
ARC
  5
15D
330
1F
100
AcDbEntity
  8
0
  6
Continuous
 62
     7
370
    25
100
AcDbCircle
 10
6274.0187553361
 20
4669.5765017776
 30
0.0
 40
16.55294535724683
100
AcDbArc
 50
69.9052854957
 51
78.1035335995
  0
ARC
  5
15E
330
1F
100
AcDbEntity
  8
0
  6
Continuous
 62
     7
370
    25
100
AcDbCircle
 10
6277.0187553386
 20
4683.8168746153
 30
0.0
 40
2.0
100
AcDbArc
 50
78.1035335995
 51
179.9999999901
  0
LINE
  5
15F
330
1F
100
AcDbEntity
  8
0
  6
Continuous
 62
     7
370
    25
100
AcDbLine
 10
6275.0187553386
 20
4683.8168746156
 30
0.0
 11
6275.0187553336
 21
4655.3361289392
 31
0.0
  0
ARC
  5
160
330
1F
100
AcDbEntity
  8
0
  6
Continuous
 62
     7
370
    25
100
AcDbCircle
 10
6277.0187553336
 20
4655.3361289389
 30
0.0
 40
2.0
100
AcDbArc
 50
179.9999999901
 51
281.8964663806
  0
ARC
  5
161
330
1F
100
AcDbEntity
  8
0
  6
Continuous
 62
     7
370
    25
100
AcDbCircle
 10
6274.0187553361
 20
4669.5765017776
 30
0.0
 40
16.55294535724695
100
AcDbArc
 50
281.8964663806
 51
290.0947144845
  0
ARC
  5
162
330
1F
100
AcDbEntity
  8
0
  6
Continuous
 62
     7
370
    25
100
AcDbCircle
 10
6279.0187553337
 20
4655.9094531351
 30
0.0
 40
2.0
100
AcDbArc
 50
290.0947144845
 51
359.9999999901
  0
LINE
  5
163
330
1F
100
AcDbEntity
  8
0
  6
Continuous
 62
     7
370
    25
100
AcDbLine
 10
6281.0187553337
 20
4655.9094531348
 30
0.0
 11
6281.0187553385
 21
4683.2435504179
 31
0.0
  0
ARC
  5
164
330
1F
100
AcDbEntity
  8
0
  6
Continuous
 62
     7
370
    25
100
AcDbCircle
 10
6263.0187553345
 20
4660.0482165943
 30
0.0
 40
2.0
100
AcDbArc
 50
220.8993640041
 51
359.9999999901
  0
LINE
  5
165
330
1F
100
AcDbEntity
  8
0
  6
Continuous
 62
     7
370
    25
100
AcDbLine
 10
6265.0187553345
 20
4660.0482165939
 30
0.0
 11
6265.0187553378
 21
4679.1047869644
 31
0.0
  0
ARC
  5
166
330
1F
100
AcDbEntity
  8
0
  6
Continuous
 62
     7
370
    25
100
AcDbCircle
 10
6263.0187553377
 20
4679.1047869647
 30
0.0
 40
2.000000000000909
100
AcDbArc
 50
359.9999999901
 51
139.100635976
  0
ARC
  5
167
330
1F
100
AcDbEntity
  8
0
  6
Continuous
 62
     7
370
    25
100
AcDbCircle
 10
6274.0187553361
 20
4669.5765017776
 30
0.0
 40
16.55294535724672
100
AcDbArc
 50
139.1006359761
 51
220.8993640041
  0
ARC
  5
168
330
1F
100
AcDbEntity
  8
0
  6
Continuous
 62
     7
370
    25
100
AcDbCircle
 10
6269.0187553385
 20
4683.24355042
 30
0.0
 40
2.0
100
AcDbArc
 50
110.0947144845
 51
179.9999999901
  0
LINE
  5
169
330
1F
100
AcDbEntity
  8
0
  6
Continuous
 62
     7
370
    25
100
AcDbLine
 10
6267.0187553385
 20
4683.2435504204
 30
0.0
 11
6267.0187553337
 21
4655.9094531372
 31
0.0
  0
ARC
  5
16A
330
1F
100
AcDbEntity
  8
0
  6
Continuous
 62
     7
370
    25
100
AcDbCircle
 10
6269.0187553337
 20
4655.9094531369
 30
0.0
 40
2.0
100
AcDbArc
 50
179.9999999901
 51
249.9052854957
  0
ARC
  5
16B
330
1F
100
AcDbEntity
  8
0
  6
Continuous
 62
     7
370
    25
100
AcDbCircle
 10
6274.0187553361
 20
4669.5765017776
 30
0.0
 40
16.55294535724683
100
AcDbArc
 50
249.9052854957
 51
258.1035335995
  0
ARC
  5
16C
330
1F
100
AcDbEntity
  8
0
  6
Continuous
 62
     7
370
    25
100
AcDbCircle
 10
6271.0187553336
 20
4655.3361289399
 30
0.0
 40
2.0
100
AcDbArc
 50
258.1035335995
 51
359.9999999901
  0
LINE
  5
16D
330
1F
100
AcDbEntity
  8
0
  6
Continuous
 62
     7
370
    25
100
AcDbLine
 10
6273.0187553336
 20
4655.3361289395
 30
0.0
 11
6273.0187553386
 21
4683.816874616
 31
0.0
  0
ARC
  5
16E
330
1F
100
AcDbEntity
  8
0
  6
Continuous
 62
     7
370
    25
100
AcDbCircle
 10
6271.0187553386
 20
4683.8168746163
 30
0.0
 40
2.000000000001745
100
AcDbArc
 50
359.9999999901
 51
101.8964663806
  0
ARC
  5
16F
330
1F
100
AcDbEntity
  8
0
  6
Continuous
 62
     7
370
    25
100
AcDbCircle
 10
6274.0187553361
 20
4669.5765017776
 30
0.0
 40
16.55294535724754
100
AcDbArc
 50
101.8964663806
 51
110.0947144845
  0
ARC
  5
170
330
1F
100
AcDbEntity
  8
0
  6
Continuous
 62
     7
370
    25
100
AcDbCircle
 10
6285.0187553345
 20
4660.0482165904
 30
0.0
 40
2.000000000000909
100
AcDbArc
 50
179.9999999901
 51
319.1006359761
  0
ARC
  5
171
330
1F
100
AcDbEntity
  8
0
  6
Continuous
 62
     7
370
    25
100
AcDbCircle
 10
6274.0187553361
 20
4669.5765017776
 30
0.0
 40
16.55294535724698
100
AcDbArc
 50
319.1006359761
 51
40.8993640041
  0
ARC
  5
172
330
1F
100
AcDbEntity
  8
0
  6
Continuous
 62
     7
370
    25
100
AcDbCircle
 10
6285.0187553378
 20
4679.1047869609
 30
0.0
 40
2.0
100
AcDbArc
 50
40.8993640041
 51
179.9999999901
  0
LINE
  5
173
330
1F
100
AcDbEntity
  8
0
  6
Continuous
 62
     7
370
    25
100
AcDbLine
 10
6283.0187553378
 20
4679.1047869612
 30
0.0
 11
6283.0187553345
 21
4660.0482165908
 31
0.0
  0
LINE
  5
174
330
1F
100
AcDbEntity
  8
0
  6
Continuous
 62
     7
370
    25
100
AcDbLine
 10
6469.0187553361
 20
4842.0765017723
 30
0.0
 11
6079.0187553361
 21
4842.0765017723
 31
0.0
  0
LINE
  5
175
330
1F
100
AcDbEntity
  8
0
  6
Continuous
 62
     7
370
    25
100
AcDbLine
 10
6079.0187553361
 20
4842.0765017723
 30
0.0
 11
6079.0187553361
 21
4844.5765017723
 31
0.0
  0
LINE
  5
176
330
1F
100
AcDbEntity
  8
0
  6
Continuous
 62
     7
370
    25
100
AcDbLine
 10
6079.0187553361
 20
4844.5765017723
 30
0.0
 11
6469.0187553361
 21
4844.5765017723
 31
0.0
  0
LINE
  5
177
330
1F
100
AcDbEntity
  8
0
  6
Continuous
 62
     7
370
    25
100
AcDbLine
 10
6469.0187553361
 20
4842.0765017723
 30
0.0
 11
6469.0187553361
 21
4844.5765017723
 31
0.0
  0
ARC
  5
178
330
1F
100
AcDbEntity
  8
0
  6
Continuous
 62
     7
370
    25
100
AcDbCircle
 10
6469.0187553361
 20
4842.0765017723
 30
0.0
 40
2.5
100
AcDbArc
 50
0.0
 51
90.0
  0
LINE
  5
179
330
1F
100
AcDbEntity
  8
0
  6
Continuous
 62
     7
370
    25
100
AcDbLine
 10
6469.0187553361
 20
4842.0765017723
 30
0.0
 11
6471.5187553361
 21
4842.0765017723
 31
0.0
  0
LINE
  5
17A
330
1F
100
AcDbEntity
  8
0
  6
Continuous
 62
     7
370
    25
100
AcDbLine
 10
6469.0187553361
 20
4442.0765017723
 30
0.0
 11
6469.0187553361
 21
4842.0765017723
 31
0.0
  0
LINE
  5
17B
330
1F
100
AcDbEntity
  8
0
  6
Continuous
 62
     7
370
    25
100
AcDbLine
 10
6471.5187553361
 20
4842.0765017723
 30
0.0
 11
6471.5187553361
 21
4442.0765017723
 31
0.0
  0
LINE
  5
17C
330
1F
100
AcDbEntity
  8
0
  6
Continuous
 62
     7
370
    25
100
AcDbLine
 10
6469.0187553361
 20
4442.0765017723
 30
0.0
 11
6471.5187553361
 21
4442.0765017723
 31
0.0
  0
LINE
  5
17D
330
1F
100
AcDbEntity
  8
0
  6
Continuous
 62
     7
370
    25
100
AcDbLine
 10
6111.5187553361
 20
4764.5765017723
 30
0.0
 11
6436.5187553361
 21
4764.5765017723
 31
0.0
  0
ARC
  5
17E
330
1F
100
AcDbEntity
  8
0
  6
Continuous
 62
     7
370
    25
100
AcDbCircle
 10
6111.5187553361
 20
4754.5765017723
 30
0.0
 40
10.0
100
AcDbArc
 50
90.0
 51
180.0
  0
LINE
  5
17F
330
1F
100
AcDbEntity
  8
0
  6
Continuous
 62
     7
370
    25
100
AcDbLine
 10
6101.5187553361
 20
4474.5765017723
 30
0.0
 11
6101.5187553361
 21
4754.5765017723
 31
0.0
  0
ARC
  5
180
330
1F
100
AcDbEntity
  8
0
  6
Continuous
 62
     7
370
    25
100
AcDbCircle
 10
6111.5187553361
 20
4474.5765017723
 30
0.0
 40
10.00000000000091
100
AcDbArc
 50
180.0
 51
270.0
  0
LINE
  5
181
330
1F
100
AcDbEntity
  8
0
  6
Continuous
 62
     7
370
    25
100
AcDbLine
 10
6436.5187553361
 20
4464.5765017723
 30
0.0
 11
6111.5187553361
 21
4464.5765017723
 31
0.0
  0
ARC
  5
182
330
1F
100
AcDbEntity
  8
0
  6
Continuous
 62
     7
370
    25
100
AcDbCircle
 10
6436.5187553361
 20
4474.5765017723
 30
0.0
 40
10.00000000000091
100
AcDbArc
 50
270.0
 51
0.0
  0
LINE
  5
183
330
1F
100
AcDbEntity
  8
0
  6
Continuous
 62
     7
370
    25
100
AcDbLine
 10
6446.5187553361
 20
4754.5765017723
 30
0.0
 11
6446.5187553361
 21
4474.5765017723
 31
0.0
  0
ARC
  5
184
330
1F
100
AcDbEntity
  8
0
  6
Continuous
 62
     7
370
    25
100
AcDbCircle
 10
6436.5187553361
 20
4754.5765017723
 30
0.0
 40
10.0
100
AcDbArc
 50
0.0
 51
90.0
  0
LINE
  5
185
330
1F
100
AcDbEntity
  8
0
  6
Continuous
 62
     7
370
    25
100
AcDbLine
 10
6079.0187553361
 20
4442.0765017723
 30
0.0
 11
6469.0187553361
 21
4442.0765017723
 31
0.0
  0
LINE
  5
186
330
1F
100
AcDbEntity
  8
0
  6
Continuous
 62
     7
370
    25
100
AcDbLine
 10
6079.0187553361
 20
4842.0765017723
 30
0.0
 11
6079.0187553361
 21
4442.0765017723
 31
0.0
  0
CIRCLE
  5
187
330
1F
100
AcDbEntity
  8
0
  6
Continuous
 62
     7
370
    25
100
AcDbCircle
 10
6274.0187553361
 20
4798.3265017723
 30
0.0
 40
17.5
  0
LINE
  5
188
330
1F
100
AcDbEntity
  8
0
  6
Continuous
 62
     7
370
    25
100
AcDbLine
 10
6076.5187553361
 20
4442.0765017723
 30
0.0
 11
6076.5187553361
 21
4842.0765017723
 31
0.0
  0
LINE
  5
189
330
1F
100
AcDbEntity
  8
0
  6
Continuous
 62
     7
370
    25
100
AcDbLine
 10
6076.5187553361
 20
4842.0765017723
 30
0.0
 11
6079.0187553361
 21
4842.0765017723
 31
0.0
  0
LINE
  5
18A
330
1F
100
AcDbEntity
  8
0
  6
Continuous
 62
     7
370
    25
100
AcDbLine
 10
6076.5187553361
 20
4442.0765017723
 30
0.0
 11
6079.0187553361
 21
4442.0765017723
 31
0.0
  0
ARC
  5
18B
330
1F
100
AcDbEntity
  8
0
  6
Continuous
 62
     7
370
    25
100
AcDbCircle
 10
6079.0187553361
 20
4842.0765017723
 30
0.0
 40
2.5
100
AcDbArc
 50
90.0
 51
180.0
  0
LINE
  5
18C
330
1F
100
AcDbEntity
  8
0
  6
Continuous
 62
     7
370
    25
100
AcDbLine
 10
6436.5187553361
 20
4764.5765017723
 30
0.0
 11
6436.5187553361
 21
4759.5765017723
 31
0.0
  0
LINE
  5
18D
330
1F
100
AcDbEntity
  8
0
  6
Continuous
 62
     7
370
    25
100
AcDbLine
 10
6436.5187553361
 20
4759.5765017723
 30
0.0
 11
6111.5187553361
 21
4759.5765017723
 31
0.0
  0
LINE
  5
18E
330
1F
100
AcDbEntity
  8
0
  6
Continuous
 62
     7
370
    25
100
AcDbLine
 10
6111.5187553361
 20
4764.5765017723
 30
0.0
 11
6111.5187553361
 21
4759.5765017723
 31
0.0
  0
LINE
  5
18F
330
1F
100
AcDbEntity
  8
0
  6
Continuous
 62
     7
370
    25
100
AcDbLine
 10
6441.5187553361
 20
4754.5765017723
 30
0.0
 11
6446.5187553361
 21
4754.5765017723
 31
0.0
  0
ARC
  5
190
330
1F
100
AcDbEntity
  8
0
  6
Continuous
 62
     7
370
    25
100
AcDbCircle
 10
6436.5187553361
 20
4754.5765017723
 30
0.0
 40
5.000000000000909
100
AcDbArc
 50
0.0
 51
90.0
  0
LINE
  5
191
330
1F
100
AcDbEntity
  8
0
  6
Continuous
 62
     7
370
    25
100
AcDbLine
 10
6441.5187553361
 20
4474.5765017723
 30
0.0
 11
6441.5187553361
 21
4754.5765017723
 31
0.0
  0
LINE
  5
192
330
1F
100
AcDbEntity
  8
0
  6
Continuous
 62
     7
370
    25
100
AcDbLine
 10
6446.5187553361
 20
4474.5765017723
 30
0.0
 11
6441.5187553361
 21
4474.5765017723
 31
0.0
  0
ARC
  5
193
330
1F
100
AcDbEntity
  8
0
  6
Continuous
 62
     7
370
    25
100
AcDbCircle
 10
6111.5187553361
 20
4754.5765017723
 30
0.0
 40
5.000000000000909
100
AcDbArc
 50
90.0
 51
180.0
  0
LINE
  5
194
330
1F
100
AcDbEntity
  8
0
  6
Continuous
 62
     7
370
    25
100
AcDbLine
 10
6101.5187553361
 20
4754.5765017723
 30
0.0
 11
6106.5187553361
 21
4754.5765017723
 31
0.0
  0
LINE
  5
195
330
1F
100
AcDbEntity
  8
0
  6
Continuous
 62
     7
370
    25
100
AcDbLine
 10
6106.5187553361
 20
4754.5765017723
 30
0.0
 11
6106.5187553361
 21
4474.5765017723
 31
0.0
  0
LINE
  5
196
330
1F
100
AcDbEntity
  8
0
  6
Continuous
 62
     7
370
    25
100
AcDbLine
 10
6106.5187553361
 20
4474.5765017723
 30
0.0
 11
6101.5187553361
 21
4474.5765017723
 31
0.0
  0
LINE
  5
197
330
1F
100
AcDbEntity
  8
0
  6
Continuous
 62
     7
370
    25
100
AcDbLine
 10
6436.5187553361
 20
4469.5765017723
 30
0.0
 11
6436.5187553361
 21
4464.5765017723
 31
0.0
  0
ARC
  5
198
330
1F
100
AcDbEntity
  8
0
  6
Continuous
 62
     7
370
    25
100
AcDbCircle
 10
6436.5187553361
 20
4474.5765017723
 30
0.0
 40
5.000000000000909
100
AcDbArc
 50
270.0
 51
0.0
  0
LINE
  5
199
330
1F
100
AcDbEntity
  8
0
  6
Continuous
 62
     7
370
    25
100
AcDbLine
 10
6111.5187553361
 20
4469.5765017723
 30
0.0
 11
6436.5187553361
 21
4469.5765017723
 31
0.0
  0
LINE
  5
19A
330
1F
100
AcDbEntity
  8
0
  6
Continuous
 62
     7
370
    25
100
AcDbLine
 10
6111.5187553361
 20
4469.5765017723
 30
0.0
 11
6111.5187553361
 21
4464.5765017723
 31
0.0
  0
ARC
  5
19B
330
1F
100
AcDbEntity
  8
0
  6
Continuous
 62
     7
370
    25
100
AcDbCircle
 10
6111.5187553361
 20
4474.5765017723
 30
0.0
 40
5.000000000000909
100
AcDbArc
 50
180.0
 51
270.0
  0
ARC
  5
19C
330
1F
100
AcDbEntity
  8
0
  6
Continuous
 62
     7
370
    25
100
AcDbCircle
 10
6469.0187553361
 20
4442.0765017723
 30
0.0
 40
2.5
100
AcDbArc
 50
270.0
 51
0.0
  0
LINE
  5
19D
330
1F
100
AcDbEntity
  8
0
  6
Continuous
 62
     7
370
    25
100
AcDbLine
 10
6469.0187553361
 20
4439.5765017723
 30
0.0
 11
6469.0187553361
 21
4442.0765017723
 31
0.0
  0
LINE
  5
19E
330
1F
100
AcDbEntity
  8
0
  6
Continuous
 62
     7
370
    25
100
AcDbLine
 10
6469.0187553361
 20
4439.5765017723
 30
0.0
 11
6079.0187553361
 21
4439.5765017723
 31
0.0
  0
LINE
  5
19F
330
1F
100
AcDbEntity
  8
0
  6
Continuous
 62
     7
370
    25
100
AcDbLine
 10
6079.0187553361
 20
4439.5765017723
 30
0.0
 11
6079.0187553361
 21
4442.0765017723
 31
0.0
  0
ARC
  5
1A0
330
1F
100
AcDbEntity
  8
0
  6
Continuous
 62
     7
370
    25
100
AcDbCircle
 10
6079.0187553361
 20
4442.0765017723
 30
0.0
 40
2.5
100
AcDbArc
 50
180.0
 51
270.0
  0
LWPOLYLINE
  5
1A1
330
1F
100
AcDbEntity
  8
0
  6
Continuous
 62
     7
370
    25
100
AcDbPolyline
 90
       17
 70
   128
 43
0.0
 10
6110.0779666569
 20
4474.3618335048
 10
6127.3818705299
 20
4474.29909652
 10
6144.8283143424
 20
4474.220190579
 10
6162.4704600695
 20
4474.1308229983
 10
6180.225207755
 20
4474.0374303472
 10
6203.4451208678
 20
4473.9200850701
 10
6226.7885010146
 20
4473.819592713
 10
6250.3822057381
 20
4473.7488129878
 10
6274.0187553361
 20
4473.7221468956
 10
6297.7325111189
 20
4473.7489799071
 10
6321.4030026105
 20
4473.8201702618
 10
6345.1595626269
 20
4473.9227972916
 10
6368.7872498849
 20
4474.0425456253
 10
6386.2272188826
 20
4474.1342664456
 10
6403.5578880096
 20
4474.2218805692
 10
6420.8286447221
 20
4474.2998106772
 10
6437.9595440153
 20
4474.3618335048
  0
LWPOLYLINE
  5
1A2
330
1F
100
AcDbEntity
  8
0
  6
Continuous
 62
     7
370
    25
100
AcDbPolyline
 90
        9
 70
   128
 43
0.0
 10
6437.9595440153
 20
4474.3618335048
 10
6437.9215953262
 20
4473.4175000026
 10
6437.8326350462
 20
4472.5153113812
 10
6437.6958980457
 20
4471.6880740028
 10
6437.5163565038
 20
4470.9658687712
 10
6437.3005391051
 20
4470.374957297
 10
6437.0562936361
 20
4469.936826945
 10
6436.7925016158
 20
4469.6674094867
 10
6436.5187553361
 20
4469.5765017723
  0
LWPOLYLINE
  5
1A3
330
1F
100
AcDbEntity
  8
0
  6
Continuous
 62
     7
370
    25
100
AcDbPolyline
 90
        9
 70
   128
 43
0.0
 10
6110.0779666569
 20
4474.3618335048
 10
6110.115915346
 20
4473.4175000026
 10
6110.204875626
 20
4472.5153113812
 10
6110.3416126265
 20
4471.6880740028
 10
6110.5211541684
 20
4470.9658687712
 10
6110.7369715671
 20
4470.374957297
 10
6110.9812170361
 20
4469.936826945
 10
6111.2450090564
 20
4469.6674094867
 10
6111.5187553361
 20
4469.5765017723
  0
LWPOLYLINE
  5
1A4
330
1F
100
AcDbEntity
  8
0
  6
Continuous
 62
     7
370
    25
100
AcDbPolyline
 90
        5
 70
   128
 43
0.0
 10
6110.0766774818
 20
4754.4606156097
 10
6109.9415492061
 20
4684.483820032
 10
6109.8955267526
 20
4614.5150550531
 10
6109.9464558652
 20
4538.655593262
 10
6110.0779666569
 20
4474.3618335048
  0
ARC
  5
1A5
330
1F
100
AcDbEntity
  8
0
  6
Continuous
 62
     7
370
    25
100
AcDbCircle
 10
6109.3542896297
 20
4491.9765206754
 30
0.0
 40
17.62954657842108
100
AcDbArc
 50
260.7443503381
 51
272.3526012205
  0
ARC
  5
1A6
330
1F
100
AcDbEntity
  8
0
  6
Continuous
 62
     7
370
    25
100
AcDbCircle
 10
6109.3503148532
 20
4786.8353015246
 30
0.0
 40
32.38283327254863
100
AcDbArc
 50
264.983642715
 51
271.2852798662
  0
LWPOLYLINE
  5
1A7
330
1F
100
AcDbEntity
  8
0
  6
Continuous
 62
     7
370
    25
100
AcDbPolyline
 90
        5
 70
   128
 43
0.0
 10
6437.9595440153
 20
4474.3618335048
 10
6438.091054807
 20
4538.655593262
 10
6438.1419839196
 20
4614.5150550531
 10
6438.0959636268
 20
4684.4821413582
 10
6437.9608331904
 20
4754.4606156097
  0
ARC
  5
1A8
330
1F
100
AcDbEntity
  8
0
  6
Continuous
 62
     7
370
    25
100
AcDbCircle
 10
6438.687195819
 20
4786.8353015248
 30
0.0
 40
32.38283327282312
100
AcDbArc
 50
268.7147201338
 51
275.016357285
  0
ARC
  5
1A9
330
1F
100
AcDbEntity
  8
0
  6
Continuous
 62
     7
370
    25
100
AcDbCircle
 10
6438.6832210425
 20
4491.9765206755
 30
0.0
 40
17.62954657844569
100
AcDbArc
 50
267.6473987795
 51
279.2556496619
  0
LWPOLYLINE
  5
1AA
330
1F
100
AcDbEntity
  8
0
  6
Continuous
 62
     7
370
    25
100
AcDbPolyline
 90
        9
 70
   128
 43
0.0
 10
6436.5187553361
 20
4759.5765017723
 10
6436.8042642892
 20
4759.4775813073
 10
6437.078476171
 20
4759.1847340159
 10
6437.3305409147
 20
4758.709547334
 10
6437.5504847757
 20
4758.0708235367
 10
6437.7296049743
 20
4757.293835766
 10
6437.8608140493
 20
4756.4093280184
 10
6437.9389202955
 20
4755.4522986611
 10
6437.9608331904
 20
4754.4606156097
  0
LWPOLYLINE
  5
1AB
330
1F
100
AcDbEntity
  8
0
  6
Continuous
 62
     7
370
    25
100
AcDbPolyline
 90
       15
 70
   128
 43
0.0
 10
6437.9608331904
 20
4754.4606156097
 10
6414.8047777104
 20
4754.5415902638
 10
6391.3940724089
 20
4754.6493838793
 10
6367.7848014827
 20
4754.7705206603
 10
6344.4999639223
 20
4754.888033509
 10
6321.0694177426
 20
4754.9896238446
 10
6297.5550518963
 20
4755.0610338088
 10
6274.0187553361
 20
4755.0880055432
 10
6250.2366430587
 20
4755.0604865886
 10
6226.477158552
 20
4754.9877430675
 10
6202.8041061072
 20
4754.8844949936
 10
6179.2812900153
 20
4754.7654623808
 10
6156.0008397641
 20
4754.6461772353
 10
6132.9147166525
 20
4754.5402621078
 10
6110.0766774818
 20
4754.4606156097
  0
LWPOLYLINE
  5
1AC
330
1F
100
AcDbEntity
  8
0
  6
Continuous
 62
     7
370
    25
100
AcDbPolyline
 90
        9
 70
   128
 43
0.0
 10
6111.5187553361
 20
4759.5765017723
 10
6111.233246383
 20
4759.4775813073
 10
6110.9590345012
 20
4759.1847340159
 10
6110.7069697575
 20
4758.709547334
 10
6110.4870258965
 20
4758.0708235367
 10
6110.3079056979
 20
4757.293835766
 10
6110.1766966229
 20
4756.4093280184
 10
6110.0985903767
 20
4755.4522986611
 10
6110.0766774818
 20
4754.4606156097
  0
LWPOLYLINE
  5
1AD
330
1F
100
AcDbEntity
  8
0
  6
Continuous
 62
     7
370
    25
100
AcDbPolyline
 90
       33
 70
   128
 43
0.0
 10
6305.8055437867
 20
4669.5813009331
 10
6305.2093026347
 20
4663.241321319
 10
6303.4228034029
 20
4657.1717587478
 10
6300.4968745693
 20
4651.5400907773
 10
6296.5737409077
 20
4646.6203970499
 10
6291.7782086493
 20
4642.5620452598
 10
6286.3016365388
 20
4639.5345097182
 10
6280.378274834
 20
4637.6612440059
 10
6274.1839712372
 20
4637.0018054371
 10
6268.0187633228
 20
4637.5881068718
 10
6262.0484367907
 20
4639.4022594411
 10
6256.5492074673
 20
4642.3643927455
 10
6251.7176989319
 20
4646.3617034171
 10
6247.7257415611
 20
4651.25842954
 10
6244.7565934607
 20
4656.8246636018
 10
6242.8914552795
 20
4662.9214534851
 10
6242.23258095
 20
4669.2684971064
 10
6242.7984411202
 20
4675.5746822862
 10
6244.5706641916
 20
4681.6700081788
 10
6247.4757403224
 20
4687.2794868287
 10
6251.3983841114
 20
4692.1927839588
 10
6256.2110161377
 20
4696.2443829114
 10
6261.6822229318
 20
4699.2460007319
 10
6267.6616367652
 20
4701.1172194507
 10
6273.8582343972
 20
4701.7665115188
 10
6280.0760123347
 20
4701.1776221254
 10
6286.0660217166
 20
4699.3675779512
 10
6291.5693605595
 20
4696.4186651099
 10
6296.4222642854
 20
4692.4133485445
 10
6300.3859278465
 20
4687.5474779756
 10
6303.3505703682
 20
4681.9568853667
 10
6305.1776820146
 20
4675.892521722
 10
6305.8055437867
 20
4669.5813009331
  0
ENDSEC
  0
SECTION
  2
OBJECTS
  0
DICTIONARY
  5
C
330
0
100
AcDbDictionary
281
     1
  3
ACAD_GROUP
350
D
  3
ACAD_LAYOUT
350
1A
  3
ACAD_MLINESTYLE
350
17
  3
ACAD_PLOTSETTINGS
350
19
  3
ACAD_PLOTSTYLENAME
350
E
  3
ACAD_SCALELIST
350
47
  3
DWGPROPS
350
1AE
  0
DICTIONARY
  5
D
102
{ACAD_REACTORS
330
C
102
}
330
C
100
AcDbDictionary
281
     1
  0
DICTIONARY
  5
1A
102
{ACAD_REACTORS
330
C
102
}
330
C
100
AcDbDictionary
281
     1
  3
Layout1
350
1E
  3
Layout2
350
26
  3
Model
350
22
  0
DICTIONARY
  5
17
102
{ACAD_REACTORS
330
C
102
}
330
C
100
AcDbDictionary
281
     1
  3
Standard
350
18
  0
DICTIONARY
  5
19
102
{ACAD_REACTORS
330
C
102
}
330
C
100
AcDbDictionary
281
     1
  0
ACDBDICTIONARYWDFLT
  5
E
102
{ACAD_REACTORS
330
C
102
}
330
C
100
AcDbDictionary
281
     1
  3
Normal
350
F
100
AcDbDictionaryWithDefault
340
F
  0
DICTIONARY
  5
47
102
{ACAD_REACTORS
330
C
102
}
330
C
100
AcDbDictionary
281
     1
  3
A0
350
48
  3
A1
350
49
  3
A2
350
4A
  3
A3
350
4B
  3
A4
350
4C
  3
A5
350
4D
  3
A6
350
4E
  3
A7
350
4F
  3
A8
350
50
  3
A9
350
51
  3
B0
350
52
  3
B1
350
53
  3
B2
350
54
  3
B3
350
55
  3
B4
350
56
  3
B5
350
57
  3
B6
350
58
  3
B7
350
59
  3
B8
350
5A
  3
B9
350
5B
  3
C0
350
5C
  3
C1
350
5D
  3
C2
350
5E
  3
C3
350
5F
  3
C4
350
60
  3
C5
350
61
  3
C6
350
62
  3
C7
350
63
  3
C8
350
64
  3
C9
350
65
  3
D0
350
66
  3
D1
350
67
  3
D2
350
68
  0
XRECORD
  5
1AE
102
{ACAD_REACTORS
330
C
102
}
330
C
100
AcDbXrecord
280
     1
  1
DWGPROPS COOKIE
  2

  3

  4

  6

  7

  8
radek.stransky
  9

300
=
301
=
302
=
303
=
304
=
305
=
306
=
307
=
308
=
309
=
 40
0.0
 41
2459741.304444861
 42
2459741.304445243
  1

 90
        0
  0
LAYOUT
  5
1E
102
{ACAD_REACTORS
330
1A
102
}
330
1A
100
AcDbPlotSettings
  1

  2
none_device
  4

  6

 40
0.0
 41
0.0
 42
0.0
 43
0.0
 44
0.0
 45
0.0
 46
0.0
 47
0.0
 48
0.0
 49
0.0
140
0.0
141
0.0
142
1.0
143
1.0
 70
   688
 72
     1
 73
     0
 74
     5
  7

 75
    16
147
1.0
148
0.0
149
0.0
100
AcDbLayout
  1
Layout1
 70
     1
 71
     1
 10
0.0
 20
0.0
 11
420.0
 21
297.0
 12
0.0
 22
0.0
 32
0.0
 14
1.0000000000E+20
 24
1.0000000000E+20
 34
1.0000000000E+20
 15
-1.0000000000E+20
 25
-1.0000000000E+20
 35
-1.0000000000E+20
146
0.0
 13
0.0
 23
0.0
 33
0.0
 16
1.0
 26
0.0
 36
0.0
 17
0.0
 27
1.0
 37
0.0
 76
     0
330
1B
  0
LAYOUT
  5
26
102
{ACAD_REACTORS
330
1A
102
}
330
1A
100
AcDbPlotSettings
  1

  2
none_device
  4

  6

 40
0.0
 41
0.0
 42
0.0
 43
0.0
 44
0.0
 45
0.0
 46
0.0
 47
0.0
 48
0.0
 49
0.0
140
0.0
141
0.0
142
1.0
143
1.0
 70
   688
 72
     1
 73
     0
 74
     5
  7

 75
    16
147
1.0
148
0.0
149
0.0
100
AcDbLayout
  1
Layout2
 70
     1
 71
     2
 10
0.0
 20
0.0
 11
0.0
 21
0.0
 12
0.0
 22
0.0
 32
0.0
 14
0.0
 24
0.0
 34
0.0
 15
0.0
 25
0.0
 35
0.0
146
0.0
 13
0.0
 23
0.0
 33
0.0
 16
1.0
 26
0.0
 36
0.0
 17
0.0
 27
1.0
 37
0.0
 76
     0
330
23
  0
LAYOUT
  5
22
102
{ACAD_REACTORS
330
1A
102
}
330
1A
100
AcDbPlotSettings
  1

  2
none_device
  4
Letter_(8.50_x_11.00_Inches)
  6

 40
6.35
 41
6.35
 42
6.35000508
 43
6.35000508
 44
215.9
 45
279.4
 46
0.0
 47
0.0
 48
0.0
 49
0.0
140
0.0
141
0.0
142
1.0
143
1.0
 70
  1712
 72
     1
 73
     0
 74
     0
  7

 75
     0
147
1.0
148
0.0
149
0.0
100
AcDbLayout
  1
Model
 70
     1
 71
     0
 10
0.0
 20
0.0
 11
20000.0
 21
10000.0
 12
0.0
 22
0.0
 32
0.0
 14
0.0
 24
0.0
 34
0.0
 15
20000.0
 25
10000.0
 35
0.0
146
0.0
 13
0.0
 23
0.0
 33
0.0
 16
1.0
 26
0.0
 36
0.0
 17
0.0
 27
1.0
 37
0.0
 76
     0
330
1F
331
29
  0
MLINESTYLE
  5
18
102
{ACAD_REACTORS
330
17
102
}
330
17
100
AcDbMlineStyle
  2
Standard
 70
     0
  3

 62
   256
 51
90.0
 52
90.0
 71
     2
 49
0.5
 62
   256
  6
BYLAYER
 49
-0.5
 62
   256
  6
BYLAYER
  0
ACDBPLACEHOLDER
  5
F
102
{ACAD_REACTORS
330
E
102
}
330
E
  0
SCALE
  5
48
102
{ACAD_REACTORS
330
47
102
}
330
47
100
AcDbScale
 70
     0
300
1:1
140
1.0
141
1.0
290
     1
  0
SCALE
  5
49
102
{ACAD_REACTORS
330
47
102
}
330
47
100
AcDbScale
 70
     0
300
1:2
140
1.0
141
2.0
290
     0
  0
SCALE
  5
4A
102
{ACAD_REACTORS
330
47
102
}
330
47
100
AcDbScale
 70
     0
300
1:4
140
1.0
141
4.0
290
     0
  0
SCALE
  5
4B
102
{ACAD_REACTORS
330
47
102
}
330
47
100
AcDbScale
 70
     0
300
1:5
140
1.0
141
5.0
290
     0
  0
SCALE
  5
4C
102
{ACAD_REACTORS
330
47
102
}
330
47
100
AcDbScale
 70
     0
300
1:8
140
1.0
141
8.0
290
     0
  0
SCALE
  5
4D
102
{ACAD_REACTORS
330
47
102
}
330
47
100
AcDbScale
 70
     0
300
1:10
140
1.0
141
10.0
290
     0
  0
SCALE
  5
4E
102
{ACAD_REACTORS
330
47
102
}
330
47
100
AcDbScale
 70
     0
300
1:16
140
1.0
141
16.0
290
     0
  0
SCALE
  5
4F
102
{ACAD_REACTORS
330
47
102
}
330
47
100
AcDbScale
 70
     0
300
1:20
140
1.0
141
20.0
290
     0
  0
SCALE
  5
50
102
{ACAD_REACTORS
330
47
102
}
330
47
100
AcDbScale
 70
     0
300
1:30
140
1.0
141
30.0
290
     0
  0
SCALE
  5
51
102
{ACAD_REACTORS
330
47
102
}
330
47
100
AcDbScale
 70
     0
300
1:40
140
1.0
141
40.0
290
     0
  0
SCALE
  5
52
102
{ACAD_REACTORS
330
47
102
}
330
47
100
AcDbScale
 70
     0
300
1:50
140
1.0
141
50.0
290
     0
  0
SCALE
  5
53
102
{ACAD_REACTORS
330
47
102
}
330
47
100
AcDbScale
 70
     0
300
1:100
140
1.0
141
100.0
290
     0
  0
SCALE
  5
54
102
{ACAD_REACTORS
330
47
102
}
330
47
100
AcDbScale
 70
     0
300
2:1
140
2.0
141
1.0
290
     0
  0
SCALE
  5
55
102
{ACAD_REACTORS
330
47
102
}
330
47
100
AcDbScale
 70
     0
300
4:1
140
4.0
141
1.0
290
     0
  0
SCALE
  5
56
102
{ACAD_REACTORS
330
47
102
}
330
47
100
AcDbScale
 70
     0
300
8:1
140
8.0
141
1.0
290
     0
  0
SCALE
  5
57
102
{ACAD_REACTORS
330
47
102
}
330
47
100
AcDbScale
 70
     0
300
10:1
140
10.0
141
1.0
290
     0
  0
SCALE
  5
58
102
{ACAD_REACTORS
330
47
102
}
330
47
100
AcDbScale
 70
     0
300
100:1
140
100.0
141
1.0
290
     0
  0
SCALE
  5
59
102
{ACAD_REACTORS
330
47
102
}
330
47
100
AcDbScale
 70
     0
300
1/128" = 1'-0"
140
0.0078125
141
12.0
290
     0
  0
SCALE
  5
5A
102
{ACAD_REACTORS
330
47
102
}
330
47
100
AcDbScale
 70
     0
300
1/64" = 1'-0"
140
0.015625
141
12.0
290
     0
  0
SCALE
  5
5B
102
{ACAD_REACTORS
330
47
102
}
330
47
100
AcDbScale
 70
     0
300
1/32" = 1'-0"
140
0.03125
141
12.0
290
     0
  0
SCALE
  5
5C
102
{ACAD_REACTORS
330
47
102
}
330
47
100
AcDbScale
 70
     0
300
1/16" = 1'-0"
140
0.0625
141
12.0
290
     0
  0
SCALE
  5
5D
102
{ACAD_REACTORS
330
47
102
}
330
47
100
AcDbScale
 70
     0
300
3/32" = 1'-0"
140
0.09375
141
12.0
290
     0
  0
SCALE
  5
5E
102
{ACAD_REACTORS
330
47
102
}
330
47
100
AcDbScale
 70
     0
300
1/8" = 1'-0"
140
0.125
141
12.0
290
     0
  0
SCALE
  5
5F
102
{ACAD_REACTORS
330
47
102
}
330
47
100
AcDbScale
 70
     0
300
3/16" = 1'-0"
140
0.1875
141
12.0
290
     0
  0
SCALE
  5
60
102
{ACAD_REACTORS
330
47
102
}
330
47
100
AcDbScale
 70
     0
300
1/4" = 1'-0"
140
0.25
141
12.0
290
     0
  0
SCALE
  5
61
102
{ACAD_REACTORS
330
47
102
}
330
47
100
AcDbScale
 70
     0
300
3/8" = 1'-0"
140
0.375
141
12.0
290
     0
  0
SCALE
  5
62
102
{ACAD_REACTORS
330
47
102
}
330
47
100
AcDbScale
 70
     0
300
1/2" = 1'-0"
140
0.5
141
12.0
290
     0
  0
SCALE
  5
63
102
{ACAD_REACTORS
330
47
102
}
330
47
100
AcDbScale
 70
     0
300
3/4" = 1'-0"
140
0.75
141
12.0
290
     0
  0
SCALE
  5
64
102
{ACAD_REACTORS
330
47
102
}
330
47
100
AcDbScale
 70
     0
300
1" = 1'-0"
140
1.0
141
12.0
290
     0
  0
SCALE
  5
65
102
{ACAD_REACTORS
330
47
102
}
330
47
100
AcDbScale
 70
     0
300
1-1/2" = 1'-0"
140
1.5
141
12.0
290
     0
  0
SCALE
  5
66
102
{ACAD_REACTORS
330
47
102
}
330
47
100
AcDbScale
 70
     0
300
3" = 1'-0"
140
3.0
141
12.0
290
     0
  0
SCALE
  5
67
102
{ACAD_REACTORS
330
47
102
}
330
47
100
AcDbScale
 70
     0
300
6" = 1'-0"
140
6.0
141
12.0
290
     0
  0
SCALE
  5
68
102
{ACAD_REACTORS
330
47
102
}
330
47
100
AcDbScale
 70
     0
300
1'-0" = 1'-0"
140
12.0
141
12.0
290
     0
  0
ENDSEC
  0
EOF
