  0
SECTION
  2
HEADER
  9
$ACADVER
  1
AC1015
  9
$ACADMAINTVER
 70
     6
  9
$DWGCODEPAGE
  3
ANSI_1250
  9
$INSBASE
 10
0.0
 20
0.0
 30
0.0
  9
$EXTMIN
 10
0.0
 20
0.0
 30
0.0
  9
$EXTMAX
 10
20000.0
 20
10000.0
 30
0.0
  9
$LIMMIN
 10
0.0
 20
0.0
  9
$LIMMAX
 10
20000.0
 20
10000.0
  9
$ORTHOMODE
 70
     0
  9
$REGENMODE
 70
     1
  9
$FILLMODE
 70
     1
  9
$QTEXTMODE
 70
     0
  9
$MIRRTEXT
 70
     1
  9
$LTSCALE
 40
1.0
  9
$ATTMODE
 70
     1
  9
$TEXTSIZE
 40
2.0
  9
$TRACEWID
 40
1.0
  9
$TEXTSTYLE
  7
Standard
  9
$CLAYER
  8
0
  9
$CELTYPE
  6
ByLayer
  9
$CECOLOR
 62
   256
  9
$CELTSCALE
 40
1.0
  9
$DISPSILH
 70
     0
  9
$DIMSCALE
 40
1.0
  9
$DIMASZ
 40
2.0
  9
$DIMEXO
 40
1.0
  9
$DIMDLI
 40
3.75
  9
$DIMRND
 40
0.0
  9
$DIMDLE
 40
0.0
  9
$DIMEXE
 40
1.0
  9
$DIMTP
 40
0.0
  9
$DIMTM
 40
0.0
  9
$DIMTXT
 40
2.0
  9
$DIMCEN
 40
2.5
  9
$DIMTSZ
 40
0.0
  9
$DIMTOL
 70
     0
  9
$DIMLIM
 70
     0
  9
$DIMTIH
 70
     1
  9
$DIMTOH
 70
     1
  9
$DIMSE1
 70
     0
  9
$DIMSE2
 70
     0
  9
$DIMTAD
 70
     1
  9
$DIMZIN
 70
     0
  9
$DIMBLK
  1

  9
$DIMASO
 70
     1
  9
$DIMSHO
 70
     1
  9
$DIMPOST
  1

  9
$DIMAPOST
  1

  9
$DIMALT
 70
     0
  9
$DIMALTD
 70
     3
  9
$DIMALTF
 40
0.0393700787
  9
$DIMLFAC
 40
1.0
  9
$DIMTOFL
 70
     1
  9
$DIMTVP
 40
0.0
  9
$DIMTIX
 70
     0
  9
$DIMSOXD
 70
     0
  9
$DIMSAH
 70
     0
  9
$DIMBLK1
  1

  9
$DIMBLK2
  1

  9
$DIMSTYLE
  2
ISO-25
  9
$DIMCLRD
 70
     0
  9
$DIMCLRE
 70
     0
  9
$DIMCLRT
 70
     0
  9
$DIMTFAC
 40
1.0
  9
$DIMGAP
 40
1.524
  9
$DIMJUST
 70
     0
  9
$DIMSD1
 70
     0
  9
$DIMSD2
 70
     0
  9
$DIMTOLJ
 70
     0
  9
$DIMTZIN
 70
     0
  9
$DIMALTZ
 70
     0
  9
$DIMALTTZ
 70
     0
  9
$DIMUPT
 70
     0
  9
$DIMDEC
 70
     2
  9
$DIMTDEC
 70
     0
  9
$DIMALTU
 70
     2
  9
$DIMALTTD
 70
     3
  9
$DIMTXSTY
  7
Standard
  9
$DIMAUNIT
 70
     0
  9
$DIMADEC
 70
     2
  9
$DIMALTRND
 40
0.0
  9
$DIMAZIN
 70
     0
  9
$DIMDSEP
 70
    44
  9
$DIMATFIT
 70
     3
  9
$DIMFRAC
 70
     0
  9
$DIMLDRBLK
  1

  9
$DIMLUNIT
 70
     2
  9
$DIMLWD
 70
    -2
  9
$DIMLWE
 70
    -2
  9
$DIMTMOVE
 70
     0
  9
$LUNITS
 70
     2
  9
$LUPREC
 70
     3
  9
$SKETCHINC
 40
1.0
  9
$FILLETRAD
 40
10.0
  9
$AUNITS
 70
     0
  9
$AUPREC
 70
     2
  9
$MENU
  1
.
  9
$ELEVATION
 40
0.0
  9
$PELEVATION
 40
0.0
  9
$THICKNESS
 40
0.0
  9
$LIMCHECK
 70
     0
  9
$CHAMFERA
 40
0.0
  9
$CHAMFERB
 40
0.0
  9
$CHAMFERC
 40
0.0
  9
$CHAMFERD
 40
0.0
  9
$SKPOLY
 70
     0
  9
$TDCREATE
 40
2459838.548467026
  9
$TDUCREATE
 40
2459838.465133692
  9
$TDUPDATE
 40
2459838.548467396
  9
$TDUUPDATE
 40
2459838.465134062
  9
$TDINDWG
 40
0.0000000116
  9
$TDUSRTIMER
 40
0.0000000116
  9
$USRTIMER
 70
     1
  9
$ANGBASE
 50
0.0
  9
$ANGDIR
 70
     0
  9
$PDMODE
 70
     0
  9
$PDSIZE
 40
-1.0
  9
$PLINEWID
 40
0.0
  9
$SPLFRAME
 70
     0
  9
$SPLINETYPE
 70
     6
  9
$SPLINESEGS
 70
     8
  9
$HANDSEED
  5
5C0
  9
$SURFTAB1
 70
     6
  9
$SURFTAB2
 70
     6
  9
$SURFTYPE
 70
     6
  9
$SURFU
 70
     6
  9
$SURFV
 70
     6
  9
$UCSBASE
  2

  9
$UCSNAME
  2

  9
$UCSORG
 10
0.0
 20
0.0
 30
0.0
  9
$UCSXDIR
 10
1.0
 20
0.0
 30
0.0
  9
$UCSYDIR
 10
0.0
 20
1.0
 30
0.0
  9
$UCSORTHOREF
  2

  9
$UCSORTHOVIEW
 70
     0
  9
$UCSORGTOP
 10
0.0
 20
0.0
 30
0.0
  9
$UCSORGBOTTOM
 10
0.0
 20
0.0
 30
0.0
  9
$UCSORGLEFT
 10
0.0
 20
0.0
 30
0.0
  9
$UCSORGRIGHT
 10
0.0
 20
0.0
 30
0.0
  9
$UCSORGFRONT
 10
0.0
 20
0.0
 30
0.0
  9
$UCSORGBACK
 10
0.0
 20
0.0
 30
0.0
  9
$PUCSBASE
  2

  9
$PUCSNAME
  2

  9
$PUCSORG
 10
0.0
 20
0.0
 30
0.0
  9
$PUCSXDIR
 10
1.0
 20
0.0
 30
0.0
  9
$PUCSYDIR
 10
0.0
 20
1.0
 30
0.0
  9
$PUCSORTHOREF
  2

  9
$PUCSORTHOVIEW
 70
     0
  9
$PUCSORGTOP
 10
0.0
 20
0.0
 30
0.0
  9
$PUCSORGBOTTOM
 10
0.0
 20
0.0
 30
0.0
  9
$PUCSORGLEFT
 10
0.0
 20
0.0
 30
0.0
  9
$PUCSORGRIGHT
 10
0.0
 20
0.0
 30
0.0
  9
$PUCSORGFRONT
 10
0.0
 20
0.0
 30
0.0
  9
$PUCSORGBACK
 10
0.0
 20
0.0
 30
0.0
  9
$USERI1
 70
     0
  9
$USERI2
 70
     0
  9
$USERI3
 70
     0
  9
$USERI4
 70
     0
  9
$USERI5
 70
     0
  9
$USERR1
 40
0.0
  9
$USERR2
 40
0.0
  9
$USERR3
 40
0.0
  9
$USERR4
 40
0.0
  9
$USERR5
 40
0.0
  9
$WORLDVIEW
 70
     1
  9
$SHADEDGE
 70
     3
  9
$SHADEDIF
 70
    70
  9
$TILEMODE
 70
     1
  9
$MAXACTVP
 70
    64
  9
$PINSBASE
 10
0.0
 20
0.0
 30
0.0
  9
$PLIMCHECK
 70
     0
  9
$PEXTMIN
 10
1.0000000000E+20
 20
1.0000000000E+20
 30
1.0000000000E+20
  9
$PEXTMAX
 10
-1.0000000000E+20
 20
-1.0000000000E+20
 30
-1.0000000000E+20
  9
$PLIMMIN
 10
0.0
 20
0.0
  9
$PLIMMAX
 10
420.0
 20
297.0
  9
$UNITMODE
 70
     0
  9
$VISRETAIN
 70
     1
  9
$PLINEGEN
 70
     0
  9
$PSLTSCALE
 70
     1
  9
$TREEDEPTH
 70
  3020
  9
$CMLSTYLE
  2
Standard
  9
$CMLJUST
 70
     0
  9
$CMLSCALE
 40
20.0
  9
$PROXYGRAPHICS
 70
     1
  9
$MEASUREMENT
 70
     1
  9
$CELWEIGHT
370
    -1
  9
$ENDCAPS
280
     0
  9
$JOINSTYLE
280
     0
  9
$LWDISPLAY
290
     1
  9
$INSUNITS
 70
     4
  9
$HYPERLINKBASE
  1

  9
$STYLESHEET
  1

  9
$XEDIT
290
     1
  9
$CEPSNTYPE
380
     0
  9
$PSTYLEMODE
290
     1
  9
$FINGERPRINTGUID
  2
{ceed3acf-8941-47e9-8af5-c070fa08a58f}
  9
$VERSIONGUID
  2
{FAEB1C32-E019-11D5-929B-00C0DF256EC4}
  9
$EXTNAMES
290
     1
  9
$PSVPSCALE
 40
0.0
  9
$OLESTARTUP
290
     0
  0
ENDSEC
  0
SECTION
  2
CLASSES
  0
CLASS
  1
ACDBDICTIONARYWDFLT
  2
AcDbDictionaryWithDefault
  3
ObjectDBX Classes
 90
        0
280
     0
281
     0
  0
CLASS
  1
VISUALSTYLE
  2
AcDbVisualStyle
  3
ObjectDBX Classes
 90
     4095
280
     0
281
     0
  0
CLASS
  1
MATERIAL
  2
AcDbMaterial
  3
ObjectDBX Classes
 90
     1153
280
     0
281
     0
  0
CLASS
  1
SCALE
  2
AcDbScale
  3
ObjectDBX Classes
 90
     1153
280
     0
281
     0
  0
CLASS
  1
TABLESTYLE
  2
AcDbTableStyle
  3
ObjectDBX Classes
 90
     4095
280
     0
281
     0
  0
CLASS
  1
MLEADERSTYLE
  2
AcDbMLeaderStyle
  3
ACDB_MLEADERSTYLE_CLASS
 90
     4095
280
     0
281
     0
  0
CLASS
  1
SUN
  2
AcDbSun
  3
SCENEOE
 90
     1153
280
     0
281
     0
  0
CLASS
  1
ACDBPLACEHOLDER
  2
AcDbPlaceHolder
  3
ObjectDBX Classes
 90
        0
280
     0
281
     0
  0
CLASS
  1
LAYOUT
  2
AcDbLayout
  3
ObjectDBX Classes
 90
        0
280
     0
281
     0
  0
ENDSEC
  0
SECTION
  2
TABLES
  0
TABLE
  2
VPORT
  5
8
330
0
100
AcDbSymbolTable
 70
     1
  0
VPORT
  5
29
330
8
100
AcDbSymbolTableRecord
100
AcDbViewportTableRecord
  2
*Active
 70
     0
 10
0.0
 20
0.0
 11
1.0
 21
1.0
 12
10000.0
 22
5000.0
 13
0.0
 23
0.0
 14
10.0
 24
10.0
 15
10.0
 25
10.0
 16
0.0
 26
0.0
 36
1.0
 17
0.0
 27
0.0
 37
0.0
 40
10000.0
 41
2.0
 42
50.0
 43
0.0
 44
0.0
 50
0.0
 51
0.0
 71
     0
 72
  2000
 73
     1
 74
     3
 75
     0
 76
     0
 77
     0
 78
     0
281
     0
 65
     1
110
0.0
120
0.0
130
0.0
111
1.0
121
0.0
131
0.0
112
0.0
122
1.0
132
0.0
 79
     0
146
0.0
  0
ENDTAB
  0
TABLE
  2
LTYPE
  5
5
330
0
100
AcDbSymbolTable
 70
     6
  0
LTYPE
  5
14
330
5
100
AcDbSymbolTableRecord
100
AcDbLinetypeTableRecord
  2
ByBlock
 70
     0
  3

 72
    65
 73
     0
 40
0.0
  0
LTYPE
  5
15
330
5
100
AcDbSymbolTableRecord
100
AcDbLinetypeTableRecord
  2
ByLayer
 70
     0
  3

 72
    65
 73
     0
 40
0.0
  0
LTYPE
  5
16
330
5
100
AcDbSymbolTableRecord
100
AcDbLinetypeTableRecord
  2
Continuous
 70
     0
  3
Solid line
 72
    65
 73
     0
 40
0.0
  0
LTYPE
  5
6E
330
5
100
AcDbSymbolTableRecord
100
AcDbLinetypeTableRecord
  2
HIDDEN
 70
     0
  3
Hidden __ __ __ __ __ __ __ __ __ __ __ __ __ __
 72
    65
 73
     2
 40
1.905
 49
1.27
 74
     0
 49
-0.635
 74
     0
  0
LTYPE
  5
6F
330
5
100
AcDbSymbolTableRecord
100
AcDbLinetypeTableRecord
  2
PHANTOM
 70
     0
  3
Phantom ______  __  __  ______  __  __  ______
 72
    65
 73
     6
 40
12.7
 49
6.35
 74
     0
 49
-1.27
 74
     0
 49
1.27
 74
     0
 49
-1.27
 74
     0
 49
1.27
 74
     0
 49
-1.27
 74
     0
  0
LTYPE
  5
70
330
5
100
AcDbSymbolTableRecord
100
AcDbLinetypeTableRecord
  2
CENTER
 70
     0
  3
Center ____ _ ____ _ ____ _ ____ _ ____ _ ____
 72
    65
 73
     4
 40
10.16
 49
6.35
 74
     0
 49
-1.27
 74
     0
 49
1.27
 74
     0
 49
-1.27
 74
     0
  0
LTYPE
  5
71
330
5
100
AcDbSymbolTableRecord
100
AcDbLinetypeTableRecord
  2
CENTERX2
 70
     0
  3
Center (2x) ________  __  ________  __  _____
 72
    65
 73
     4
 40
20.32
 49
12.7
 74
     0
 49
-2.54
 74
     0
 49
2.54
 74
     0
 49
-2.54
 74
     0
  0
LTYPE
  5
72
330
5
100
AcDbSymbolTableRecord
100
AcDbLinetypeTableRecord
  2
DOT2
 70
     0
  3
Dot (.5x) ........................................
 72
    65
 73
     2
 40
0.635
 49
0.0
 74
     0
 49
-0.635
 74
     0
  0
ENDTAB
  0
TABLE
  2
LAYER
  5
2
330
0
100
AcDbSymbolTable
 70
    13
  0
LAYER
  5
10
330
2
100
AcDbSymbolTableRecord
100
AcDbLayerTableRecord
  2
0
 70
     0
 62
     7
  6
Continuous
370
    -3
390
F
  0
LAYER
  5
73
330
2
100
AcDbSymbolTableRecord
100
AcDbLayerTableRecord
  2
FORMAT
 70
     0
 62
     7
  6
Continuous
370
    -3
390
F
  0
LAYER
  5
74
330
2
100
AcDbSymbolTableRecord
100
AcDbLayerTableRecord
  2
OSA
 70
     0
 62
     7
  6
CENTER
370
    -3
390
F
  0
LAYER
  5
75
330
2
100
AcDbSymbolTableRecord
100
AcDbLayerTableRecord
  2
0_35
 70
     0
 62
     7
  6
Continuous
370
    35
390
F
  0
LAYER
  5
76
330
2
100
AcDbSymbolTableRecord
100
AcDbLayerTableRecord
  2
0_5
 70
     0
 62
     7
  6
Continuous
370
    50
390
F
  0
LAYER
  5
77
330
2
100
AcDbSymbolTableRecord
100
AcDbLayerTableRecord
  2
0_25
 70
     0
 62
     7
  6
Continuous
370
    25
390
F
  0
LAYER
  5
78
330
2
100
AcDbSymbolTableRecord
100
AcDbLayerTableRecord
  2
0_18
 70
     0
 62
     7
  6
Continuous
370
    -3
390
F
  0
LAYER
  5
79
330
2
100
AcDbSymbolTableRecord
100
AcDbLayerTableRecord
  2
SLD-0
 70
     0
 62
   179
  6
Continuous
370
    -3
390
F
  0
LAYER
  5
7A
330
2
100
AcDbSymbolTableRecord
100
AcDbLayerTableRecord
  2
KOTY
 70
     0
 62
     7
  6
Continuous
370
    -3
390
F
  0
LAYER
  5
7B
330
2
100
AcDbSymbolTableRecord
100
AcDbLayerTableRecord
  2
SILNA
 70
     0
 62
   179
  6
Continuous
370
    -3
390
F
  0
LAYER
  5
7C
330
2
100
AcDbSymbolTableRecord
100
AcDbLayerTableRecord
  2
0_18_1
 70
     0
 62
   179
  6
Continuous
370
    -3
390
F
  0
LAYER
  5
7D
330
2
100
AcDbSymbolTableRecord
100
AcDbLayerTableRecord
  2
0_35_1
 70
     0
 62
   179
  6
Continuous
370
    35
390
F
  0
LAYER
  5
7E
330
2
100
AcDbSymbolTableRecord
100
AcDbLayerTableRecord
  2
0_5_1
 70
     0
 62
   179
  6
Continuous
370
    50
390
F
  0
ENDTAB
  0
TABLE
  2
STYLE
  5
3
330
0
100
AcDbSymbolTable
 70
     1
  0
STYLE
  5
11
330
3
100
AcDbSymbolTableRecord
100
AcDbTextStyleTableRecord
  2
Standard
 70
     0
 40
0.0
 41
1.0
 50
0.0
 71
     0
 42
2.0
  3
txt
  4

  0
ENDTAB
  0
TABLE
  2
VIEW
  5
6
330
0
100
AcDbSymbolTable
 70
     0
  0
ENDTAB
  0
TABLE
  2
UCS
  5
7
330
0
100
AcDbSymbolTable
 70
     0
  0
ENDTAB
  0
TABLE
  2
APPID
  5
9
330
0
100
AcDbSymbolTable
 70
     1
  0
APPID
  5
12
330
9
100
AcDbSymbolTableRecord
100
AcDbRegAppTableRecord
  2
ACAD
 70
     0
  0
ENDTAB
  0
TABLE
  2
DIMSTYLE
  5
A
330
0
100
AcDbSymbolTable
 70
     1
100
AcDbDimStyleTable
  0
DIMSTYLE
105
27
330
A
100
AcDbSymbolTableRecord
100
AcDbDimStyleTableRecord
  2
ISO-25
 70
     0
 41
2.5
 42
0.625
 43
3.75
 44
1.25
 73
     0
 74
     0
 77
     1
 78
     8
140
2.5
141
2.5
143
0.0393700787
147
0.625
171
     3
172
     1
178
     0
271
     2
272
     2
274
     3
278
    44
283
     0
284
     8
340
11
  0
ENDTAB
  0
TABLE
  2
BLOCK_RECORD
  5
1
330
0
100
AcDbSymbolTable
 70
     1
  0
BLOCK_RECORD
  5
1F
330
1
100
AcDbSymbolTableRecord
100
AcDbBlockTableRecord
  2
*Model_Space
340
22
  0
BLOCK_RECORD
  5
1B
330
1
100
AcDbSymbolTableRecord
100
AcDbBlockTableRecord
  2
*Paper_Space
340
1E
  0
BLOCK_RECORD
  5
23
330
1
100
AcDbSymbolTableRecord
100
AcDbBlockTableRecord
  2
*Paper_Space0
340
26
  0
ENDTAB
  0
ENDSEC
  0
SECTION
  2
BLOCKS
  0
BLOCK
  5
20
330
1F
100
AcDbEntity
  8
0
100
AcDbBlockBegin
  2
*Model_Space
 70
     0
 10
0.0
 20
0.0
 30
0.0
  3
*Model_Space
  1

  0
ENDBLK
  5
21
330
1F
100
AcDbEntity
  8
0
100
AcDbBlockEnd
  0
BLOCK
  5
1C
330
1B
100
AcDbEntity
 67
     1
  8
0
100
AcDbBlockBegin
  2
*Paper_Space
 70
     0
 10
0.0
 20
0.0
 30
0.0
  3
*Paper_Space
  1

  0
ENDBLK
  5
1D
330
1B
100
AcDbEntity
 67
     1
  8
0
100
AcDbBlockEnd
  0
BLOCK
  5
24
330
23
100
AcDbEntity
  8
0
100
AcDbBlockBegin
  2
*Paper_Space0
 70
     0
 10
0.0
 20
0.0
 30
0.0
  3
*Paper_Space0
  1

  0
ENDBLK
  5
25
330
23
100
AcDbEntity
  8
0
100
AcDbBlockEnd
  0
ENDSEC
  0
SECTION
  2
ENTITIES
  0
LINE
  5
7F
330
1F
100
AcDbEntity
  8
0
  6
Continuous
 62
     7
370
    25
100
AcDbLine
 10
5175.9269011044
 20
4716.5042541414
 30
0.0
 11
5175.9269011044
 21
4701.2601443687
 31
0.0
  0
LINE
  5
80
330
1F
100
AcDbEntity
  8
0
  6
Continuous
 62
     7
370
    25
100
AcDbLine
 10
5175.9269011044
 20
4687.2601443687
 30
0.0
 11
5175.9269011044
 21
4684.7601443687
 31
0.0
  0
LINE
  5
81
330
1F
100
AcDbEntity
  8
0
  6
Continuous
 62
     7
370
    25
100
AcDbLine
 10
5207.9269011044
 20
4684.7601443687
 30
0.0
 11
5207.9269011044
 21
4687.2601443687
 31
0.0
  0
LINE
  5
82
330
1F
100
AcDbEntity
  8
0
  6
Continuous
 62
     7
370
    25
100
AcDbLine
 10
5207.9269011044
 20
4701.2601443687
 30
0.0
 11
5207.9269011044
 21
4716.5042541414
 31
0.0
  0
LINE
  5
83
330
1F
100
AcDbEntity
  8
0
  6
Continuous
 62
     7
370
    25
100
AcDbLine
 10
5157.9269011044
 20
4624.7601443687
 30
0.0
 11
5164.8206868242
 21
4557.4544685073
 31
0.0
  0
LINE
  5
84
330
1F
100
AcDbEntity
  8
0
  6
Continuous
 62
     7
370
    25
100
AcDbLine
 10
5219.0331153845
 20
4557.4544685073
 30
0.0
 11
5225.9269011044
 21
4624.7601443687
 31
0.0
  0
LINE
  5
85
330
1F
100
AcDbEntity
  8
0
  6
Continuous
 62
     7
370
    25
100
AcDbLine
 10
5225.9269011044
 20
4624.7601443687
 30
0.0
 11
5219.2363428595
 21
4682.1077864674
 31
0.0
  0
LINE
  5
86
330
1F
100
AcDbEntity
  8
0
  6
Continuous
 62
     7
370
    25
100
AcDbLine
 10
5164.6174593492
 20
4682.1077864674
 30
0.0
 11
5157.9269011044
 21
4624.7601443687
 31
0.0
  0
ARC
  5
87
330
1F
100
AcDbEntity
  8
0
  6
Continuous
 62
     7
370
    25
100
AcDbCircle
 10
5167.5972487665
 20
4681.7601443687
 30
0.0
 40
2.999999999999798
100
AcDbArc
 50
90.0
 51
173.345574954
  0
ARC
  5
88
330
1F
100
AcDbEntity
  8
0
  6
Continuous
 62
     7
370
    25
100
AcDbCircle
 10
5216.2565534423
 20
4681.7601443687
 30
0.0
 40
3.000000000000701
100
AcDbArc
 50
6.654425046
 51
90.0
  0
ARC
  5
89
330
1F
100
AcDbEntity
  8
0
  6
Continuous
 62
     7
370
    25
100
AcDbCircle
 10
5167.8050732382
 20
4557.7601443687
 30
0.0
 40
3.000000000000332
100
AcDbArc
 50
185.8481280261
 51
270.0
  0
ARC
  5
8A
330
1F
100
AcDbEntity
  8
0
  6
Continuous
 62
     7
370
    25
100
AcDbCircle
 10
5216.0487289706
 20
4557.7601443687
 30
0.0
 40
3.0
100
AcDbArc
 50
270.0
 51
354.1518719739
  0
LINE
  5
8B
330
1F
100
AcDbEntity
  8
0
  6
Continuous
 62
     7
370
    25
100
AcDbLine
 10
5216.9269011044
 20
4687.2601443687
 30
0.0
 11
5214.9269011044
 21
4691.2601443687
 31
0.0
  0
LINE
  5
8C
330
1F
100
AcDbEntity
  8
0
  6
Continuous
 62
     7
370
    25
100
AcDbLine
 10
5168.9269011044
 20
4691.2601443687
 30
0.0
 11
5166.9269011044
 21
4687.2601443687
 31
0.0
  0
LINE
  5
8D
330
1F
100
AcDbEntity
  8
0
  6
Continuous
 62
     7
370
    25
100
AcDbLine
 10
5168.9269011044
 20
4698.2601443687
 30
0.0
 11
5168.9269011044
 21
4691.2601443687
 31
0.0
  0
LINE
  5
8E
330
1F
100
AcDbEntity
  8
0
  6
Continuous
 62
     7
370
    25
100
AcDbLine
 10
5214.9269011044
 20
4691.2601443687
 30
0.0
 11
5214.9269011044
 21
4698.2601443687
 31
0.0
  0
ARC
  5
8F
330
1F
100
AcDbEntity
  8
0
  6
Continuous
 62
     7
370
    25
100
AcDbCircle
 10
5171.9269011044
 20
4698.2601443687
 30
0.0
 40
3.0
100
AcDbArc
 50
90.0
 51
180.0
  0
ARC
  5
90
330
1F
100
AcDbEntity
  8
0
  6
Continuous
 62
     7
370
    25
100
AcDbCircle
 10
5211.9269011044
 20
4698.2601443687
 30
0.0
 40
3.0
100
AcDbArc
 50
0.0
 51
90.0
  0
LINE
  5
91
330
1F
100
AcDbEntity
  8
0
  6
Continuous
 62
     7
370
    25
100
AcDbLine
 10
6534.4269011044
 20
4128.5042541414
 30
0.0
 11
6534.4269011044
 21
4124.5042541414
 31
0.0
  0
LINE
  5
92
330
1F
100
AcDbEntity
  8
0
  6
Continuous
 62
     7
370
    25
100
AcDbLine
 10
6544.4269011044
 20
4124.5042541414
 30
0.0
 11
6544.4269011044
 21
4128.5042541414
 31
0.0
  0
LINE
  5
93
330
1F
100
AcDbEntity
  8
0
  6
Continuous
 62
     7
370
    25
100
AcDbLine
 10
5056.4269011044
 20
4128.5042541414
 30
0.0
 11
5056.4269011044
 21
4124.5042541414
 31
0.0
  0
LINE
  5
94
330
1F
100
AcDbEntity
  8
0
  6
Continuous
 62
     7
370
    25
100
AcDbLine
 10
5066.4269011044
 20
4124.5042541414
 30
0.0
 11
5066.4269011044
 21
4128.5042541414
 31
0.0
  0
LINE
  5
95
330
1F
100
AcDbEntity
  8
0
  6
Continuous
 62
     7
370
    25
100
AcDbLine
 10
8012.4269011044
 20
4128.5042541414
 30
0.0
 11
8012.4269011044
 21
4124.5042541414
 31
0.0
  0
LINE
  5
96
330
1F
100
AcDbEntity
  8
0
  6
Continuous
 62
     7
370
    25
100
AcDbLine
 10
8022.4269011044
 20
4124.5042541414
 30
0.0
 11
8022.4269011044
 21
4128.5042541414
 31
0.0
  0
LINE
  5
97
330
1F
100
AcDbEntity
  8
0
  6
Continuous
 62
     7
370
    25
100
AcDbLine
 10
8039.4269011044
 20
5385.987480397
 30
0.0
 11
8037.4269011044
 21
5385.987480397
 31
0.0
  0
LINE
  5
98
330
1F
100
AcDbEntity
  8
0
  6
Continuous
 62
     7
370
    25
100
AcDbLine
 10
5041.4269011044
 20
5385.987480397
 30
0.0
 11
5039.4269011044
 21
5385.987480397
 31
0.0
  0
LINE
  5
99
330
1F
100
AcDbEntity
  8
0
  6
Continuous
 62
     7
370
    25
100
AcDbLine
 10
8037.4269011044
 20
5385.987480397
 30
0.0
 11
5041.4269011044
 21
5385.987480397
 31
0.0
  0
ARC
  5
9A
330
1F
100
AcDbEntity
  8
0
  6
Continuous
 62
     7
370
    25
100
AcDbCircle
 10
5161.4269011044
 20
5346.9699535347
 30
0.0
 40
36.99999999999939
100
AcDbArc
 50
75.2574286589
 51
104.7425713411
  0
LINE
  5
9B
330
1F
100
AcDbEntity
  8
0
  6
Continuous
 62
     7
370
    25
100
AcDbLine
 10
7137.8362435836
 20
5262.5949116442
 30
0.0
 11
7137.9269011006
 21
5262.5042541272
 31
0.0
  0
LINE
  5
9C
330
1F
100
AcDbEntity
  8
0
  6
Continuous
 62
     7
370
    25
100
AcDbLine
 10
7140.9269011006
 20
5262.5042541272
 30
0.0
 11
7141.0175586167
 21
5262.5949116433
 31
0.0
  0
LINE
  5
9D
330
1F
100
AcDbEntity
  8
0
  6
Continuous
 62
     7
370
    25
100
AcDbLine
 10
5337.8362435822
 20
5262.5949116442
 30
0.0
 11
5337.9269011003
 21
5262.504254126
 31
0.0
  0
LINE
  5
9E
330
1F
100
AcDbEntity
  8
0
  6
Continuous
 62
     7
370
    25
100
AcDbLine
 10
5340.9269011003
 20
5262.504254126
 30
0.0
 11
5341.0175586175
 21
5262.5949116432
 31
0.0
  0
LINE
  5
9F
330
1F
100
AcDbEntity
  8
0
  6
Continuous
 62
     7
370
    25
100
AcDbLine
 10
6537.8362435836
 20
5262.5949116442
 30
0.0
 11
6537.9269011006
 21
5262.5042541272
 31
0.0
  0
LINE
  5
A0
330
1F
100
AcDbEntity
  8
0
  6
Continuous
 62
     7
370
    25
100
AcDbLine
 10
6540.9269011006
 20
5262.5042541272
 30
0.0
 11
6541.0175586167
 21
5262.5949116433
 31
0.0
  0
LINE
  5
A1
330
1F
100
AcDbEntity
  8
0
  6
Continuous
 62
     7
370
    25
100
AcDbLine
 10
7737.8362435836
 20
5262.5949116442
 30
0.0
 11
7737.9269011006
 21
5262.5042541272
 31
0.0
  0
LINE
  5
A2
330
1F
100
AcDbEntity
  8
0
  6
Continuous
 62
     7
370
    25
100
AcDbLine
 10
7740.9269011006
 20
5262.5042541272
 30
0.0
 11
7741.0175586167
 21
5262.5949116433
 31
0.0
  0
LINE
  5
A3
330
1F
100
AcDbEntity
  8
0
  6
Continuous
 62
     7
370
    25
100
AcDbLine
 10
5937.8362435836
 20
5262.5949116442
 30
0.0
 11
5937.9269011006
 21
5262.5042541272
 31
0.0
  0
LINE
  5
A4
330
1F
100
AcDbEntity
  8
0
  6
Continuous
 62
     7
370
    25
100
AcDbLine
 10
5940.9269011006
 20
5262.5042541272
 30
0.0
 11
5941.0175586167
 21
5262.5949116433
 31
0.0
  0
LINE
  5
A5
330
1F
100
AcDbEntity
  8
0
  6
Continuous
 62
     7
370
    25
100
AcDbLine
 10
7730.1769011038
 20
5268.3450747945
 30
0.0
 11
7730.1769011038
 21
5267.7413711533
 31
0.0
  0
LINE
  5
A6
330
1F
100
AcDbEntity
  8
0
  6
Continuous
 62
     7
370
    25
100
AcDbLine
 10
7748.6769011038
 20
5267.7413711533
 30
0.0
 11
7748.6769011038
 21
5268.3450747948
 31
0.0
  0
LINE
  5
A7
330
1F
100
AcDbEntity
  8
0
  6
Continuous
 62
     7
370
    25
100
AcDbLine
 10
7746.9269011038
 20
5268.7072969795
 30
0.0
 11
7746.9269011038
 21
5268.907852826
 31
0.0
  0
LINE
  5
A8
330
1F
100
AcDbEntity
  8
0
  6
Continuous
 62
     7
370
    25
100
AcDbLine
 10
7731.9269011038
 20
5269.4039813668
 30
0.0
 11
7731.9269011038
 21
5268.7072969795
 31
0.0
  0
LINE
  5
A9
330
1F
100
AcDbEntity
  8
0
  6
Continuous
 62
     7
370
    25
100
AcDbLine
 10
5930.1769011038
 20
5268.3450747945
 30
0.0
 11
5930.1769011038
 21
5267.7413711533
 31
0.0
  0
LINE
  5
AA
330
1F
100
AcDbEntity
  8
0
  6
Continuous
 62
     7
370
    25
100
AcDbLine
 10
5948.6769011038
 20
5267.7413711533
 30
0.0
 11
5948.6769011038
 21
5268.3450747948
 31
0.0
  0
LINE
  5
AB
330
1F
100
AcDbEntity
  8
0
  6
Continuous
 62
     7
370
    25
100
AcDbLine
 10
5946.9269011038
 20
5268.7072969795
 30
0.0
 11
5946.9269011038
 21
5268.907852826
 31
0.0
  0
LINE
  5
AC
330
1F
100
AcDbEntity
  8
0
  6
Continuous
 62
     7
370
    25
100
AcDbLine
 10
5931.9269011038
 20
5269.4039813668
 30
0.0
 11
5931.9269011038
 21
5268.7072969795
 31
0.0
  0
LINE
  5
AD
330
1F
100
AcDbEntity
  8
0
  6
Continuous
 62
     7
370
    25
100
AcDbLine
 10
7130.1769011038
 20
5268.3450747945
 30
0.0
 11
7130.1769011038
 21
5267.7413711533
 31
0.0
  0
LINE
  5
AE
330
1F
100
AcDbEntity
  8
0
  6
Continuous
 62
     7
370
    25
100
AcDbLine
 10
7148.6769011038
 20
5267.7413711533
 30
0.0
 11
7148.6769011038
 21
5268.3450747948
 31
0.0
  0
LINE
  5
AF
330
1F
100
AcDbEntity
  8
0
  6
Continuous
 62
     7
370
    25
100
AcDbLine
 10
7146.9269011038
 20
5268.7072969795
 30
0.0
 11
7146.9269011038
 21
5268.907852826
 31
0.0
  0
LINE
  5
B0
330
1F
100
AcDbEntity
  8
0
  6
Continuous
 62
     7
370
    25
100
AcDbLine
 10
7131.9269011038
 20
5269.4039813668
 30
0.0
 11
7131.9269011038
 21
5268.7072969795
 31
0.0
  0
LINE
  5
B1
330
1F
100
AcDbEntity
  8
0
  6
Continuous
 62
     7
370
    25
100
AcDbLine
 10
5330.1769011038
 20
5268.3450747943
 30
0.0
 11
5330.1769011038
 21
5267.7413711531
 31
0.0
  0
LINE
  5
B2
330
1F
100
AcDbEntity
  8
0
  6
Continuous
 62
     7
370
    25
100
AcDbLine
 10
5348.6769011038
 20
5267.7413711531
 30
0.0
 11
5348.6769011038
 21
5268.3450747947
 31
0.0
  0
LINE
  5
B3
330
1F
100
AcDbEntity
  8
0
  6
Continuous
 62
     7
370
    25
100
AcDbLine
 10
5346.9269011038
 20
5268.7072969794
 30
0.0
 11
5346.9269011038
 21
5268.9078528259
 31
0.0
  0
LINE
  5
B4
330
1F
100
AcDbEntity
  8
0
  6
Continuous
 62
     7
370
    25
100
AcDbLine
 10
5331.9269011038
 20
5269.4039813667
 30
0.0
 11
5331.9269011038
 21
5268.7072969794
 31
0.0
  0
LINE
  5
B5
330
1F
100
AcDbEntity
  8
0
  6
Continuous
 62
     7
370
    25
100
AcDbLine
 10
6530.1769011038
 20
5268.3450747945
 30
0.0
 11
6530.1769011038
 21
5267.7413711533
 31
0.0
  0
LINE
  5
B6
330
1F
100
AcDbEntity
  8
0
  6
Continuous
 62
     7
370
    25
100
AcDbLine
 10
6548.6769011038
 20
5267.7413711533
 30
0.0
 11
6548.6769011038
 21
5268.3450747948
 31
0.0
  0
LINE
  5
B7
330
1F
100
AcDbEntity
  8
0
  6
Continuous
 62
     7
370
    25
100
AcDbLine
 10
6546.9269011038
 20
5268.7072969795
 30
0.0
 11
6546.9269011038
 21
5268.907852826
 31
0.0
  0
LINE
  5
B8
330
1F
100
AcDbEntity
  8
0
  6
Continuous
 62
     7
370
    25
100
AcDbLine
 10
6531.9269011038
 20
5269.4039813668
 30
0.0
 11
6531.9269011038
 21
5268.7072969795
 31
0.0
  0
LINE
  5
B9
330
1F
100
AcDbEntity
  8
0
  6
Continuous
 62
     7
370
    25
100
AcDbLine
 10
5941.076901104
 20
5262.5993863526
 30
0.0
 11
5941.076901104
 21
5262.601826294
 31
0.0
  0
LINE
  5
BA
330
1F
100
AcDbEntity
  8
0
  6
Continuous
 62
     7
370
    25
100
AcDbLine
 10
7741.076901104
 20
5262.5993863526
 30
0.0
 11
7741.076901104
 21
5262.601826294
 31
0.0
  0
LINE
  5
BB
330
1F
100
AcDbEntity
  8
0
  6
Continuous
 62
     7
370
    25
100
AcDbLine
 10
7141.076901104
 20
5262.5993863526
 30
0.0
 11
7141.076901104
 21
5262.601826294
 31
0.0
  0
LINE
  5
BC
330
1F
100
AcDbEntity
  8
0
  6
Continuous
 62
     7
370
    25
100
AcDbLine
 10
6541.076901104
 20
5262.5993863526
 30
0.0
 11
6541.076901104
 21
5262.601826294
 31
0.0
  0
LINE
  5
BD
330
1F
100
AcDbEntity
  8
0
  6
Continuous
 62
     7
370
    25
100
AcDbLine
 10
5341.076901104
 20
5262.5993863525
 30
0.0
 11
5341.076901104
 21
5262.6018262938
 31
0.0
  0
ARC
  5
BE
330
1F
100
AcDbEntity
  8
0
  6
Continuous
 62
     7
370
    25
100
AcDbCircle
 10
5191.9269011044
 20
4662.7601443687
 30
0.0
 40
40.00000000000063
100
AcDbArc
 50
125.0996321954
 51
216.1070114058
  0
ARC
  5
BF
330
1F
100
AcDbEntity
  8
0
  6
Continuous
 62
     7
370
    25
100
AcDbCircle
 10
5191.9269011044
 20
4662.7601443687
 30
0.0
 40
39.9999999999999
100
AcDbArc
 50
323.8929885942
 51
54.9003678046
  0
LINE
  5
C0
330
1F
100
AcDbEntity
  8
0
  6
Continuous
 62
     7
370
    25
100
AcDbLine
 10
5157.9269011044
 20
4624.7601443687
 30
0.0
 11
5225.9269011044
 21
4624.7601443687
 31
0.0
  0
LINE
  5
C1
330
1F
100
AcDbEntity
  8
0
  6
Continuous
 62
     7
370
    25
100
AcDbLine
 10
5167.5972487665
 20
4684.7601443687
 30
0.0
 11
5216.2565534423
 21
4684.7601443687
 31
0.0
  0
LINE
  5
C2
330
1F
100
AcDbEntity
  8
0
  6
Continuous
 62
     7
370
    25
100
AcDbLine
 10
5167.8050732382
 20
4554.7601443687
 30
0.0
 11
5216.0487289706
 21
4554.7601443687
 31
0.0
  0
LINE
  5
C3
330
1F
100
AcDbEntity
  8
0
  6
Continuous
 62
     7
370
    25
100
AcDbLine
 10
5168.9269011044
 20
4691.2601443687
 30
0.0
 11
5214.9269011044
 21
4691.2601443687
 31
0.0
  0
LINE
  5
C4
330
1F
100
AcDbEntity
  8
0
  6
Continuous
 62
     7
370
    25
100
AcDbLine
 10
5166.9269011044
 20
4687.2601443687
 30
0.0
 11
5216.9269011044
 21
4687.2601443687
 31
0.0
  0
LINE
  5
C5
330
1F
100
AcDbEntity
  8
0
  6
Continuous
 62
     7
370
    25
100
AcDbLine
 10
5171.9269011044
 20
4701.2601443687
 30
0.0
 11
5211.9269011044
 21
4701.2601443687
 31
0.0
  0
LINE
  5
C6
330
1F
100
AcDbEntity
  8
0
  6
Continuous
 62
     7
370
    25
100
AcDbLine
 10
5208.4269011044
 20
4684.7601443687
 30
0.0
 11
5207.9269011044
 21
4685.126413615
 31
0.0
  0
LINE
  5
C7
330
1F
100
AcDbEntity
  8
0
  6
Continuous
 62
     7
370
    25
100
AcDbLine
 10
5175.9269011044
 20
4685.126413615
 30
0.0
 11
5175.4269011044
 21
4684.7601443687
 31
0.0
  0
LINE
  5
C8
330
1F
100
AcDbEntity
  8
0
  6
Continuous
 62
     7
370
    25
100
AcDbLine
 10
6521.4269011044
 20
4134.5042541414
 30
0.0
 11
6557.4269011044
 21
4134.5042541414
 31
0.0
  0
ELLIPSE
  5
C9
330
1F
100
AcDbEntity
  8
0
  6
Continuous
 62
     7
370
    25
100
AcDbEllipse
 10
6553.9269011044
 20
4134.5042541414
 30
0.0
 11
0.0
 21
6.0
 31
0.0
210
0.0
220
0.0
230
1.0
 40
0.5833333333
 41
3.141592653589793
 42
4.712388980384698
  0
LINE
  5
CA
330
1F
100
AcDbEntity
  8
0
  6
Continuous
 62
     7
370
    25
100
AcDbLine
 10
6553.9269011044
 20
4128.5042541414
 30
0.0
 11
6524.9269011044
 21
4128.5042541414
 31
0.0
  0
ELLIPSE
  5
CB
330
1F
100
AcDbEntity
  8
0
  6
Continuous
 62
     7
370
    25
100
AcDbEllipse
 10
6524.9269011044
 20
4134.5042541414
 30
0.0
 11
0.0
 21
6.0
 31
0.0
210
0.0
220
0.0
230
1.0
 40
0.5833333333
 41
1.570796326794897
 42
3.141592653589793
  0
ARC
  5
CC
330
1F
100
AcDbEntity
  8
0
  6
Continuous
 62
     7
370
    25
100
AcDbCircle
 10
6553.9269011044
 20
4134.5042541414
 30
0.0
 40
6.000000000000909
100
AcDbArc
 50
270.0
 51
0.0
  0
LINE
  5
CD
330
1F
100
AcDbEntity
  8
0
  6
Continuous
 62
     7
370
    25
100
AcDbLine
 10
6557.4269011044
 20
4134.5042541414
 30
0.0
 11
6559.9269011044
 21
4134.5042541414
 31
0.0
  0
LINE
  5
CE
330
1F
100
AcDbEntity
  8
0
  6
Continuous
 62
     7
370
    25
100
AcDbLine
 10
6559.9269011044
 20
4136.5042541414
 30
0.0
 11
6557.4269011044
 21
4136.5042541414
 31
0.0
  0
LINE
  5
CF
330
1F
100
AcDbEntity
  8
0
  6
Continuous
 62
     7
370
    25
100
AcDbLine
 10
6559.9269011044
 20
4134.5042541414
 30
0.0
 11
6559.9269011044
 21
4136.5042541414
 31
0.0
  0
LINE
  5
D0
330
1F
100
AcDbEntity
  8
0
  6
Continuous
 62
     7
370
    25
100
AcDbLine
 10
6557.4269011044
 20
4134.5042541414
 30
0.0
 11
6557.4269011044
 21
4136.5042541414
 31
0.0
  0
LINE
  5
D1
330
1F
100
AcDbEntity
  8
0
  6
Continuous
 62
     7
370
    25
100
AcDbLine
 10
6557.4269011044
 20
4136.5042541414
 30
0.0
 11
6521.4269011044
 21
4136.5042541414
 31
0.0
  0
LINE
  5
D2
330
1F
100
AcDbEntity
  8
0
  6
Continuous
 62
     7
370
    25
100
AcDbLine
 10
6521.4269011044
 20
4134.5042541414
 30
0.0
 11
6521.4269011044
 21
4136.5042541414
 31
0.0
  0
ARC
  5
D3
330
1F
100
AcDbEntity
  8
0
  6
Continuous
 62
     7
370
    25
100
AcDbCircle
 10
6524.9269011044
 20
4134.5042541414
 30
0.0
 40
6.000000000000909
100
AcDbArc
 50
180.0
 51
270.0
  0
LINE
  5
D4
330
1F
100
AcDbEntity
  8
0
  6
Continuous
 62
     7
370
    25
100
AcDbLine
 10
6518.9269011044
 20
4134.5042541414
 30
0.0
 11
6521.4269011044
 21
4134.5042541414
 31
0.0
  0
LINE
  5
D5
330
1F
100
AcDbEntity
  8
0
  6
Continuous
 62
     7
370
    25
100
AcDbLine
 10
6518.9269011044
 20
4134.5042541414
 30
0.0
 11
6518.9269011044
 21
4136.5042541414
 31
0.0
  0
LINE
  5
D6
330
1F
100
AcDbEntity
  8
0
  6
Continuous
 62
     7
370
    25
100
AcDbLine
 10
6521.4269011044
 20
4136.5042541414
 30
0.0
 11
6518.9269011044
 21
4136.5042541414
 31
0.0
  0
LINE
  5
D7
330
1F
100
AcDbEntity
  8
0
  6
Continuous
 62
     7
370
    25
100
AcDbLine
 10
6530.7666470665
 20
4116.5042541414
 30
0.0
 11
6530.7666470665
 21
4124.5042541414
 31
0.0
  0
LINE
  5
D8
330
1F
100
AcDbEntity
  8
0
  6
Continuous
 62
     7
370
    25
100
AcDbLine
 10
6530.7666470665
 20
4116.5042541414
 30
0.0
 11
6522.1063930287
 21
4116.5042541414
 31
0.0
  0
LINE
  5
D9
330
1F
100
AcDbEntity
  8
0
  6
Continuous
 62
     7
370
    25
100
AcDbLine
 10
6522.1063930287
 20
4116.5042541414
 30
0.0
 11
6522.1063930287
 21
4124.5042541414
 31
0.0
  0
LINE
  5
DA
330
1F
100
AcDbEntity
  8
0
  6
Continuous
 62
     7
370
    25
100
AcDbLine
 10
6530.7666470665
 20
4124.5042541414
 30
0.0
 11
6522.1063930287
 21
4124.5042541414
 31
0.0
  0
LINE
  5
DB
330
1F
100
AcDbEntity
  8
0
  6
Continuous
 62
     7
370
    25
100
AcDbLine
 10
6548.0871551422
 20
4116.5042541414
 30
0.0
 11
6548.0871551422
 21
4124.5042541414
 31
0.0
  0
LINE
  5
DC
330
1F
100
AcDbEntity
  8
0
  6
Continuous
 62
     7
370
    25
100
AcDbLine
 10
6548.0871551422
 20
4116.5042541414
 30
0.0
 11
6530.7666470665
 21
4116.5042541414
 31
0.0
  0
LINE
  5
DD
330
1F
100
AcDbEntity
  8
0
  6
Continuous
 62
     7
370
    25
100
AcDbLine
 10
6548.0871551422
 20
4124.5042541414
 30
0.0
 11
6530.7666470665
 21
4124.5042541414
 31
0.0
  0
LINE
  5
DE
330
1F
100
AcDbEntity
  8
0
  6
Continuous
 62
     7
370
    25
100
AcDbLine
 10
6556.7474091801
 20
4116.5042541414
 30
0.0
 11
6556.7474091801
 21
4124.5042541414
 31
0.0
  0
LINE
  5
DF
330
1F
100
AcDbEntity
  8
0
  6
Continuous
 62
     7
370
    25
100
AcDbLine
 10
6556.7474091801
 20
4124.5042541414
 30
0.0
 11
6548.0871551422
 21
4124.5042541414
 31
0.0
  0
LINE
  5
E0
330
1F
100
AcDbEntity
  8
0
  6
Continuous
 62
     7
370
    25
100
AcDbLine
 10
6556.7474091801
 20
4116.5042541414
 30
0.0
 11
6548.0871551422
 21
4116.5042541414
 31
0.0
  0
LINE
  5
E1
330
1F
100
AcDbEntity
  8
0
  6
Continuous
 62
     7
370
    25
100
AcDbLine
 10
5079.4269011044
 20
4136.5042541414
 30
0.0
 11
5043.4269011044
 21
4136.5042541414
 31
0.0
  0
LINE
  5
E2
330
1F
100
AcDbEntity
  8
0
  6
Continuous
 62
     7
370
    25
100
AcDbLine
 10
5079.4269011044
 20
4134.5042541414
 30
0.0
 11
5079.4269011044
 21
4136.5042541414
 31
0.0
  0
LINE
  5
E3
330
1F
100
AcDbEntity
  8
0
  6
Continuous
 62
     7
370
    25
100
AcDbLine
 10
5043.4269011044
 20
4134.5042541414
 30
0.0
 11
5079.4269011044
 21
4134.5042541414
 31
0.0
  0
LINE
  5
E4
330
1F
100
AcDbEntity
  8
0
  6
Continuous
 62
     7
370
    25
100
AcDbLine
 10
5043.4269011044
 20
4134.5042541414
 30
0.0
 11
5043.4269011044
 21
4136.5042541414
 31
0.0
  0
LINE
  5
E5
330
1F
100
AcDbEntity
  8
0
  6
Continuous
 62
     7
370
    25
100
AcDbLine
 10
5081.9269011044
 20
4136.5042541414
 30
0.0
 11
5079.4269011044
 21
4136.5042541414
 31
0.0
  0
LINE
  5
E6
330
1F
100
AcDbEntity
  8
0
  6
Continuous
 62
     7
370
    25
100
AcDbLine
 10
5081.9269011044
 20
4134.5042541414
 30
0.0
 11
5081.9269011044
 21
4136.5042541414
 31
0.0
  0
LINE
  5
E7
330
1F
100
AcDbEntity
  8
0
  6
Continuous
 62
     7
370
    25
100
AcDbLine
 10
5079.4269011044
 20
4134.5042541414
 30
0.0
 11
5081.9269011044
 21
4134.5042541414
 31
0.0
  0
ARC
  5
E8
330
1F
100
AcDbEntity
  8
0
  6
Continuous
 62
     7
370
    25
100
AcDbCircle
 10
5075.9269011044
 20
4134.5042541414
 30
0.0
 40
6.0
100
AcDbArc
 50
270.0
 51
0.0
  0
ELLIPSE
  5
E9
330
1F
100
AcDbEntity
  8
0
  6
Continuous
 62
     7
370
    25
100
AcDbEllipse
 10
5075.9269011044
 20
4134.5042541414
 30
0.0
 11
0.0
 21
6.0
 31
0.0
210
0.0
220
0.0
230
1.0
 40
0.5833333333
 41
3.141592653589793
 42
4.712388980384698
  0
LINE
  5
EA
330
1F
100
AcDbEntity
  8
0
  6
Continuous
 62
     7
370
    25
100
AcDbLine
 10
5075.9269011044
 20
4128.5042541414
 30
0.0
 11
5046.9269011044
 21
4128.5042541414
 31
0.0
  0
ELLIPSE
  5
EB
330
1F
100
AcDbEntity
  8
0
  6
Continuous
 62
     7
370
    25
100
AcDbEllipse
 10
5046.9269011044
 20
4134.5042541414
 30
0.0
 11
0.0
 21
6.0
 31
0.0
210
0.0
220
0.0
230
1.0
 40
0.5833333333
 41
1.570796326794897
 42
3.141592653589793
  0
ARC
  5
EC
330
1F
100
AcDbEntity
  8
0
  6
Continuous
 62
     7
370
    25
100
AcDbCircle
 10
5046.9269011044
 20
4134.5042541414
 30
0.0
 40
6.0
100
AcDbArc
 50
180.0
 51
270.0
  0
LINE
  5
ED
330
1F
100
AcDbEntity
  8
0
  6
Continuous
 62
     7
370
    25
100
AcDbLine
 10
5040.9269011044
 20
4134.5042541414
 30
0.0
 11
5043.4269011044
 21
4134.5042541414
 31
0.0
  0
LINE
  5
EE
330
1F
100
AcDbEntity
  8
0
  6
Continuous
 62
     7
370
    25
100
AcDbLine
 10
5040.9269011044
 20
4134.5042541414
 30
0.0
 11
5040.9269011044
 21
4136.5042541414
 31
0.0
  0
LINE
  5
EF
330
1F
100
AcDbEntity
  8
0
  6
Continuous
 62
     7
370
    25
100
AcDbLine
 10
5043.4269011044
 20
4136.5042541414
 30
0.0
 11
5040.9269011044
 21
4136.5042541414
 31
0.0
  0
LINE
  5
F0
330
1F
100
AcDbEntity
  8
0
  6
Continuous
 62
     7
370
    25
100
AcDbLine
 10
5052.7666470665
 20
4116.5042541414
 30
0.0
 11
5052.7666470665
 21
4124.5042541414
 31
0.0
  0
LINE
  5
F1
330
1F
100
AcDbEntity
  8
0
  6
Continuous
 62
     7
370
    25
100
AcDbLine
 10
5052.7666470665
 20
4116.5042541414
 30
0.0
 11
5044.1063930287
 21
4116.5042541414
 31
0.0
  0
LINE
  5
F2
330
1F
100
AcDbEntity
  8
0
  6
Continuous
 62
     7
370
    25
100
AcDbLine
 10
5044.1063930287
 20
4116.5042541414
 30
0.0
 11
5044.1063930287
 21
4124.5042541414
 31
0.0
  0
LINE
  5
F3
330
1F
100
AcDbEntity
  8
0
  6
Continuous
 62
     7
370
    25
100
AcDbLine
 10
5052.7666470665
 20
4124.5042541414
 30
0.0
 11
5044.1063930287
 21
4124.5042541414
 31
0.0
  0
LINE
  5
F4
330
1F
100
AcDbEntity
  8
0
  6
Continuous
 62
     7
370
    25
100
AcDbLine
 10
5070.0871551422
 20
4116.5042541414
 30
0.0
 11
5070.0871551422
 21
4124.5042541414
 31
0.0
  0
LINE
  5
F5
330
1F
100
AcDbEntity
  8
0
  6
Continuous
 62
     7
370
    25
100
AcDbLine
 10
5070.0871551422
 20
4124.5042541414
 30
0.0
 11
5052.7666470665
 21
4124.5042541414
 31
0.0
  0
LINE
  5
F6
330
1F
100
AcDbEntity
  8
0
  6
Continuous
 62
     7
370
    25
100
AcDbLine
 10
5070.0871551422
 20
4116.5042541414
 30
0.0
 11
5052.7666470665
 21
4116.5042541414
 31
0.0
  0
LINE
  5
F7
330
1F
100
AcDbEntity
  8
0
  6
Continuous
 62
     7
370
    25
100
AcDbLine
 10
5078.7474091801
 20
4116.5042541414
 30
0.0
 11
5078.7474091801
 21
4124.5042541414
 31
0.0
  0
LINE
  5
F8
330
1F
100
AcDbEntity
  8
0
  6
Continuous
 62
     7
370
    25
100
AcDbLine
 10
5078.7474091801
 20
4124.5042541414
 30
0.0
 11
5070.0871551422
 21
4124.5042541414
 31
0.0
  0
LINE
  5
F9
330
1F
100
AcDbEntity
  8
0
  6
Continuous
 62
     7
370
    25
100
AcDbLine
 10
5078.7474091801
 20
4116.5042541414
 30
0.0
 11
5070.0871551422
 21
4116.5042541414
 31
0.0
  0
LINE
  5
FA
330
1F
100
AcDbEntity
  8
0
  6
Continuous
 62
     7
370
    25
100
AcDbLine
 10
6559.4269011044
 20
4136.5042541414
 30
0.0
 11
6559.4269011044
 21
4716.5042541414
 31
0.0
  0
LINE
  5
FB
330
1F
100
AcDbEntity
  8
0
  6
Continuous
 62
     7
370
    25
100
AcDbLine
 10
6519.4269011044
 20
4136.5042541414
 30
0.0
 11
6519.4269011044
 21
4716.5042541414
 31
0.0
  0
LINE
  5
FC
330
1F
100
AcDbEntity
  8
0
  6
Continuous
 62
     7
370
    25
100
AcDbLine
 10
5081.4269011044
 20
4136.5042541414
 30
0.0
 11
5081.4269011044
 21
4716.5042541414
 31
0.0
  0
LINE
  5
FD
330
1F
100
AcDbEntity
  8
0
  6
Continuous
 62
     7
370
    25
100
AcDbLine
 10
5041.4269011044
 20
4136.5042541414
 30
0.0
 11
5041.4269011044
 21
4716.5042541414
 31
0.0
  0
LINE
  5
FE
330
1F
100
AcDbEntity
  8
0
  6
Continuous
 62
     7
370
    25
100
AcDbLine
 10
5081.4269011044
 20
4311.5042541414
 30
0.0
 11
6519.4269011044
 21
4311.5042541414
 31
0.0
  0
LINE
  5
FF
330
1F
100
AcDbEntity
  8
0
  6
Continuous
 62
     7
370
    25
100
AcDbLine
 10
6559.4269011044
 20
4311.5042541414
 30
0.0
 11
7997.4269011044
 21
4311.5042541414
 31
0.0
  0
LINE
  5
100
330
1F
100
AcDbEntity
  8
0
  6
Continuous
 62
     7
370
    25
100
AcDbLine
 10
5081.4269011044
 20
4271.5042541414
 30
0.0
 11
6519.4269011044
 21
4271.5042541414
 31
0.0
  0
LINE
  5
101
330
1F
100
AcDbEntity
  8
0
  6
Continuous
 62
     7
370
    25
100
AcDbLine
 10
6559.4269011044
 20
4271.5042541414
 30
0.0
 11
7997.4269011044
 21
4271.5042541414
 31
0.0
  0
LINE
  5
102
330
1F
100
AcDbEntity
  8
0
  6
Continuous
 62
     7
370
    25
100
AcDbLine
 10
8035.4269011044
 20
4134.5042541414
 30
0.0
 11
7999.4269011044
 21
4134.5042541414
 31
0.0
  0
LINE
  5
103
330
1F
100
AcDbEntity
  8
0
  6
Continuous
 62
     7
370
    25
100
AcDbLine
 10
7999.4269011044
 20
4134.5042541414
 30
0.0
 11
7999.4269011044
 21
4136.5042541414
 31
0.0
  0
LINE
  5
104
330
1F
100
AcDbEntity
  8
0
  6
Continuous
 62
     7
370
    25
100
AcDbLine
 10
7999.4269011044
 20
4136.5042541414
 30
0.0
 11
8035.4269011044
 21
4136.5042541414
 31
0.0
  0
LINE
  5
105
330
1F
100
AcDbEntity
  8
0
  6
Continuous
 62
     7
370
    25
100
AcDbLine
 10
8035.4269011044
 20
4134.5042541414
 30
0.0
 11
8035.4269011044
 21
4136.5042541414
 31
0.0
  0
ELLIPSE
  5
106
330
1F
100
AcDbEntity
  8
0
  6
Continuous
 62
     7
370
    25
100
AcDbEllipse
 10
8002.9269011044
 20
4134.5042541414
 30
0.0
 11
0.0
 21
6.0
 31
0.0
210
0.0
220
0.0
230
1.0
 40
0.5833333333
 41
1.570796326794897
 42
3.141592653589793
  0
ARC
  5
107
330
1F
100
AcDbEntity
  8
0
  6
Continuous
 62
     7
370
    25
100
AcDbCircle
 10
8002.9269011044
 20
4134.5042541414
 30
0.0
 40
6.000000000000909
100
AcDbArc
 50
180.0
 51
270.0
  0
LINE
  5
108
330
1F
100
AcDbEntity
  8
0
  6
Continuous
 62
     7
370
    25
100
AcDbLine
 10
7999.4269011044
 20
4134.5042541414
 30
0.0
 11
7996.9269011044
 21
4134.5042541414
 31
0.0
  0
LINE
  5
109
330
1F
100
AcDbEntity
  8
0
  6
Continuous
 62
     7
370
    25
100
AcDbLine
 10
8002.9269011044
 20
4128.5042541414
 30
0.0
 11
8031.9269011044
 21
4128.5042541414
 31
0.0
  0
ELLIPSE
  5
10A
330
1F
100
AcDbEntity
  8
0
  6
Continuous
 62
     7
370
    25
100
AcDbEllipse
 10
8031.9269011044
 20
4134.5042541414
 30
0.0
 11
0.0
 21
6.0
 31
0.0
210
0.0
220
0.0
230
1.0
 40
0.5833333333
 41
3.141592653589793
 42
4.712388980384698
  0
LINE
  5
10B
330
1F
100
AcDbEntity
  8
0
  6
Continuous
 62
     7
370
    25
100
AcDbLine
 10
7996.9269011044
 20
4134.5042541414
 30
0.0
 11
7996.9269011044
 21
4136.5042541414
 31
0.0
  0
LINE
  5
10C
330
1F
100
AcDbEntity
  8
0
  6
Continuous
 62
     7
370
    25
100
AcDbLine
 10
7996.9269011044
 20
4136.5042541414
 30
0.0
 11
7999.4269011044
 21
4136.5042541414
 31
0.0
  0
ARC
  5
10D
330
1F
100
AcDbEntity
  8
0
  6
Continuous
 62
     7
370
    25
100
AcDbCircle
 10
8031.9269011044
 20
4134.5042541414
 30
0.0
 40
6.0
100
AcDbArc
 50
270.0
 51
0.0
  0
LINE
  5
10E
330
1F
100
AcDbEntity
  8
0
  6
Continuous
 62
     7
370
    25
100
AcDbLine
 10
8037.9269011044
 20
4134.5042541414
 30
0.0
 11
8035.4269011044
 21
4134.5042541414
 31
0.0
  0
LINE
  5
10F
330
1F
100
AcDbEntity
  8
0
  6
Continuous
 62
     7
370
    25
100
AcDbLine
 10
8037.9269011044
 20
4134.5042541414
 30
0.0
 11
8037.9269011044
 21
4136.5042541414
 31
0.0
  0
LINE
  5
110
330
1F
100
AcDbEntity
  8
0
  6
Continuous
 62
     7
370
    25
100
AcDbLine
 10
8035.4269011044
 20
4136.5042541414
 30
0.0
 11
8037.9269011044
 21
4136.5042541414
 31
0.0
  0
LINE
  5
111
330
1F
100
AcDbEntity
  8
0
  6
Continuous
 62
     7
370
    25
100
AcDbLine
 10
8026.0871551422
 20
4116.5042541414
 30
0.0
 11
8026.0871551422
 21
4124.5042541414
 31
0.0
  0
LINE
  5
112
330
1F
100
AcDbEntity
  8
0
  6
Continuous
 62
     7
370
    25
100
AcDbLine
 10
8008.7666470665
 20
4116.5042541414
 30
0.0
 11
8026.0871551422
 21
4116.5042541414
 31
0.0
  0
LINE
  5
113
330
1F
100
AcDbEntity
  8
0
  6
Continuous
 62
     7
370
    25
100
AcDbLine
 10
8008.7666470665
 20
4116.5042541414
 30
0.0
 11
8008.7666470665
 21
4124.5042541414
 31
0.0
  0
LINE
  5
114
330
1F
100
AcDbEntity
  8
0
  6
Continuous
 62
     7
370
    25
100
AcDbLine
 10
8008.7666470665
 20
4124.5042541414
 30
0.0
 11
8026.0871551422
 21
4124.5042541414
 31
0.0
  0
LINE
  5
115
330
1F
100
AcDbEntity
  8
0
  6
Continuous
 62
     7
370
    25
100
AcDbLine
 10
8034.74740918
 20
4116.5042541414
 30
0.0
 11
8034.74740918
 21
4124.5042541414
 31
0.0
  0
LINE
  5
116
330
1F
100
AcDbEntity
  8
0
  6
Continuous
 62
     7
370
    25
100
AcDbLine
 10
8026.0871551422
 20
4116.5042541414
 30
0.0
 11
8034.74740918
 21
4116.5042541414
 31
0.0
  0
LINE
  5
117
330
1F
100
AcDbEntity
  8
0
  6
Continuous
 62
     7
370
    25
100
AcDbLine
 10
8026.0871551422
 20
4124.5042541414
 30
0.0
 11
8034.74740918
 21
4124.5042541414
 31
0.0
  0
LINE
  5
118
330
1F
100
AcDbEntity
  8
0
  6
Continuous
 62
     7
370
    25
100
AcDbLine
 10
8000.1063930287
 20
4116.5042541414
 30
0.0
 11
8000.1063930287
 21
4124.5042541414
 31
0.0
  0
LINE
  5
119
330
1F
100
AcDbEntity
  8
0
  6
Continuous
 62
     7
370
    25
100
AcDbLine
 10
8000.1063930287
 20
4124.5042541414
 30
0.0
 11
8008.7666470665
 21
4124.5042541414
 31
0.0
  0
LINE
  5
11A
330
1F
100
AcDbEntity
  8
0
  6
Continuous
 62
     7
370
    25
100
AcDbLine
 10
8000.1063930287
 20
4116.5042541414
 30
0.0
 11
8008.7666470665
 21
4116.5042541414
 31
0.0
  0
LINE
  5
11B
330
1F
100
AcDbEntity
  8
0
  6
Continuous
 62
     7
370
    25
100
AcDbLine
 10
7997.4269011044
 20
4136.5042541414
 30
0.0
 11
7997.4269011044
 21
4716.5042541414
 31
0.0
  0
LINE
  5
11C
330
1F
100
AcDbEntity
  8
0
  6
Continuous
 62
     7
370
    25
100
AcDbLine
 10
8037.4269011044
 20
4136.5042541414
 30
0.0
 11
8037.4269011044
 21
4716.5042541414
 31
0.0
  0
LINE
  5
11D
330
1F
100
AcDbEntity
  8
0
  6
Continuous
 62
     7
370
    25
100
AcDbLine
 10
5086.0769011044
 20
4718.1542541414
 30
0.0
 11
5084.4269011044
 21
4718.1542541414
 31
0.0
  0
LINE
  5
11E
330
1F
100
AcDbEntity
  8
0
  6
Continuous
 62
     7
370
    25
100
AcDbLine
 10
5084.4269011044
 20
4718.1542541414
 30
0.0
 11
5084.4269011044
 21
4939.8442541414
 31
0.0
  0
LINE
  5
11F
330
1F
100
AcDbEntity
  8
0
  6
Continuous
 62
     7
370
    25
100
AcDbLine
 10
5084.4269011044
 20
4939.8442541414
 30
0.0
 11
5086.0769011044
 21
4939.8442541414
 31
0.0
  0
LINE
  5
120
330
1F
100
AcDbEntity
  8
0
  6
Continuous
 62
     7
370
    25
100
AcDbLine
 10
5086.0769011044
 20
4718.1542541414
 30
0.0
 11
5086.0769011044
 21
4939.8442541414
 31
0.0
  0
LINE
  5
121
330
1F
100
AcDbEntity
  8
0
  6
Continuous
 62
     7
370
    25
100
AcDbLine
 10
7992.7769011044
 20
4939.8442541414
 30
0.0
 11
5086.0769011044
 21
4939.8442541414
 31
0.0
  0
LINE
  5
122
330
1F
100
AcDbEntity
  8
0
  6
Continuous
 62
     7
370
    25
100
AcDbLine
 10
5086.0769011044
 20
4939.8442541414
 30
0.0
 11
5086.0769011044
 21
4941.4942541414
 31
0.0
  0
LINE
  5
123
330
1F
100
AcDbEntity
  8
0
  6
Continuous
 62
     7
370
    25
100
AcDbLine
 10
7992.7769011044
 20
4941.4942541414
 30
0.0
 11
5086.0769011044
 21
4941.4942541414
 31
0.0
  0
LINE
  5
124
330
1F
100
AcDbEntity
  8
0
  6
Continuous
 62
     7
370
    25
100
AcDbLine
 10
7992.7769011044
 20
4939.8442541414
 30
0.0
 11
7992.7769011044
 21
4941.4942541414
 31
0.0
  0
LINE
  5
125
330
1F
100
AcDbEntity
  8
0
  6
Continuous
 62
     7
370
    25
100
AcDbLine
 10
7992.7769011044
 20
4716.5042541414
 30
0.0
 11
5086.0769011044
 21
4716.5042541414
 31
0.0
  0
LINE
  5
126
330
1F
100
AcDbEntity
  8
0
  6
Continuous
 62
     7
370
    25
100
AcDbLine
 10
5086.0769011044
 20
4716.5042541414
 30
0.0
 11
5086.0769011044
 21
4718.1542541414
 31
0.0
  0
LINE
  5
127
330
1F
100
AcDbEntity
  8
0
  6
Continuous
 62
     7
370
    25
100
AcDbLine
 10
7992.7769011044
 20
4718.1542541414
 30
0.0
 11
5086.0769011044
 21
4718.1542541414
 31
0.0
  0
LINE
  5
128
330
1F
100
AcDbEntity
  8
0
  6
Continuous
 62
     7
370
    25
100
AcDbLine
 10
7992.7769011044
 20
4716.5042541414
 30
0.0
 11
7992.7769011044
 21
4718.1542541414
 31
0.0
  0
LINE
  5
129
330
1F
100
AcDbEntity
  8
0
  6
Continuous
 62
     7
370
    25
100
AcDbLine
 10
7992.7769011044
 20
4718.1542541414
 30
0.0
 11
7992.7769011044
 21
4939.8442541414
 31
0.0
  0
LINE
  5
12A
330
1F
100
AcDbEntity
  8
0
  6
Continuous
 62
     7
370
    25
100
AcDbLine
 10
7994.4269011044
 20
4718.1542541414
 30
0.0
 11
7994.4269011044
 21
4939.8442541414
 31
0.0
  0
LINE
  5
12B
330
1F
100
AcDbEntity
  8
0
  6
Continuous
 62
     7
370
    25
100
AcDbLine
 10
7992.7769011044
 20
4939.8442541414
 30
0.0
 11
7994.4269011044
 21
4939.8442541414
 31
0.0
  0
LINE
  5
12C
330
1F
100
AcDbEntity
  8
0
  6
Continuous
 62
     7
370
    25
100
AcDbLine
 10
7994.4269011044
 20
4718.1542541414
 30
0.0
 11
7992.7769011044
 21
4718.1542541414
 31
0.0
  0
LINE
  5
12D
330
1F
100
AcDbEntity
  8
0
  6
Continuous
 62
     7
370
    25
100
AcDbLine
 10
8039.4269011044
 20
4716.5042541414
 30
0.0
 11
8039.4269011044
 21
4941.4942541414
 31
0.0
  0
LINE
  5
12E
330
1F
100
AcDbEntity
  8
0
  6
Continuous
 62
     7
370
    25
100
AcDbLine
 10
8036.3269011044
 20
4716.5042541414
 30
0.0
 11
8039.4269011044
 21
4716.5042541414
 31
0.0
  0
LINE
  5
12F
330
1F
100
AcDbEntity
  8
0
  6
Continuous
 62
     7
370
    25
100
AcDbLine
 10
8036.3269011044
 20
4716.5042541414
 30
0.0
 11
8036.3269011044
 21
4941.4942541414
 31
0.0
  0
LINE
  5
130
330
1F
100
AcDbEntity
  8
0
  6
Continuous
 62
     7
370
    25
100
AcDbLine
 10
8039.4269011044
 20
4941.4942541414
 30
0.0
 11
8036.3269011044
 21
4941.4942541414
 31
0.0
  0
LINE
  5
131
330
1F
100
AcDbEntity
  8
0
  6
Continuous
 62
     7
370
    25
100
AcDbLine
 10
7997.5269011044
 20
4716.5042541414
 30
0.0
 11
8036.3269011044
 21
4716.5042541414
 31
0.0
  0
LINE
  5
132
330
1F
100
AcDbEntity
  8
0
  6
Continuous
 62
     7
370
    25
100
AcDbLine
 10
7997.5269011044
 20
4716.5042541414
 30
0.0
 11
7997.5269011044
 21
4941.4942541414
 31
0.0
  0
LINE
  5
133
330
1F
100
AcDbEntity
  8
0
  6
Continuous
 62
     7
370
    25
100
AcDbLine
 10
8036.3269011044
 20
4941.4942541414
 30
0.0
 11
7997.5269011044
 21
4941.4942541414
 31
0.0
  0
LINE
  5
134
330
1F
100
AcDbEntity
  8
0
  6
Continuous
 62
     7
370
    25
100
AcDbLine
 10
7997.5269011044
 20
4716.5042541414
 30
0.0
 11
7994.4269011044
 21
4716.5042541414
 31
0.0
  0
LINE
  5
135
330
1F
100
AcDbEntity
  8
0
  6
Continuous
 62
     7
370
    25
100
AcDbLine
 10
7994.4269011044
 20
4716.5042541414
 30
0.0
 11
7994.4269011044
 21
4718.1542541414
 31
0.0
  0
LINE
  5
136
330
1F
100
AcDbEntity
  8
0
  6
Continuous
 62
     7
370
    25
100
AcDbLine
 10
7994.4269011044
 20
4939.8442541414
 30
0.0
 11
7994.4269011044
 21
4941.4942541414
 31
0.0
  0
LINE
  5
137
330
1F
100
AcDbEntity
  8
0
  6
Continuous
 62
     7
370
    25
100
AcDbLine
 10
7994.4269011044
 20
4941.4942541414
 30
0.0
 11
7997.5269011044
 21
4941.4942541414
 31
0.0
  0
LINE
  5
138
330
1F
100
AcDbEntity
  8
0
  6
Continuous
 62
     7
370
    25
100
AcDbLine
 10
8039.4269011044
 20
4964.3042541414
 30
0.0
 11
8037.4269011044
 21
4964.3042541414
 31
0.0
  0
LINE
  5
139
330
1F
100
AcDbEntity
  8
0
  6
Continuous
 62
     7
370
    25
100
AcDbLine
 10
8039.4269011044
 20
4964.3042541414
 30
0.0
 11
8039.4269011044
 21
4941.5042541414
 31
0.0
  0
LINE
  5
13A
330
1F
100
AcDbEntity
  8
0
  6
Continuous
 62
     7
370
    25
100
AcDbLine
 10
8039.4269011044
 20
4941.5042541414
 30
0.0
 11
8037.4269011044
 21
4941.5042541414
 31
0.0
  0
LINE
  5
13B
330
1F
100
AcDbEntity
  8
0
  6
Continuous
 62
     7
370
    25
100
AcDbLine
 10
8037.4269011044
 20
4964.3042541414
 30
0.0
 11
8037.4269011044
 21
4941.5042541414
 31
0.0
  0
LINE
  5
13C
330
1F
100
AcDbEntity
  8
0
  6
Continuous
 62
     7
370
    25
100
AcDbLine
 10
8039.4269011044
 20
4966.5042541414
 30
0.0
 11
8037.4269011044
 21
4966.5042541414
 31
0.0
  0
LINE
  5
13D
330
1F
100
AcDbEntity
  8
0
  6
Continuous
 62
     7
370
    25
100
AcDbLine
 10
8039.4269011044
 20
4966.5042541414
 30
0.0
 11
8039.4269011044
 21
4964.3042541414
 31
0.0
  0
LINE
  5
13E
330
1F
100
AcDbEntity
  8
0
  6
Continuous
 62
     7
370
    25
100
AcDbLine
 10
8037.4269011044
 20
4966.5042541414
 30
0.0
 11
8037.4269011044
 21
4964.3042541414
 31
0.0
  0
LINE
  5
13F
330
1F
100
AcDbEntity
  8
0
  6
Continuous
 62
     7
370
    25
100
AcDbLine
 10
8039.4269011044
 20
4941.5042541414
 30
0.0
 11
8039.4269011044
 21
4941.4942541414
 31
0.0
  0
LINE
  5
140
330
1F
100
AcDbEntity
  8
0
  6
Continuous
 62
     7
370
    25
100
AcDbLine
 10
8037.4269011044
 20
4941.5042541414
 30
0.0
 11
8037.4269011044
 21
4941.4942541414
 31
0.0
  0
LINE
  5
141
330
1F
100
AcDbEntity
  8
0
  6
Continuous
 62
     7
370
    25
100
AcDbLine
 10
8039.4269011044
 20
5376.2468259065
 30
0.0
 11
8037.4269011044
 21
5376.2468259065
 31
0.0
  0
LINE
  5
142
330
1F
100
AcDbEntity
  8
0
  6
Continuous
 62
     7
370
    25
100
AcDbLine
 10
8039.4269011044
 20
5374.0949011849
 30
0.0
 11
8037.4269011044
 21
5374.0949011849
 31
0.0
  0
LINE
  5
143
330
1F
100
AcDbEntity
  8
0
  6
Continuous
 62
     7
370
    25
100
AcDbLine
 10
8039.4269011044
 20
5376.2468259065
 30
0.0
 11
8039.4269011044
 21
5374.0949011849
 31
0.0
  0
LINE
  5
144
330
1F
100
AcDbEntity
  8
0
  6
Continuous
 62
     7
370
    25
100
AcDbLine
 10
8037.4269011044
 20
5376.2468259065
 30
0.0
 11
8037.4269011044
 21
5374.0949011849
 31
0.0
  0
LINE
  5
145
330
1F
100
AcDbEntity
  8
0
  6
Continuous
 62
     7
370
    25
100
AcDbLine
 10
8039.4269011044
 20
5374.0949011849
 30
0.0
 11
8039.4269011044
 21
4966.5042541414
 31
0.0
  0
LINE
  5
146
330
1F
100
AcDbEntity
  8
0
  6
Continuous
 62
     7
370
    25
100
AcDbLine
 10
8037.4269011044
 20
5374.0949011849
 30
0.0
 11
8037.4269011044
 21
4966.5042541414
 31
0.0
  0
LINE
  5
147
330
1F
100
AcDbEntity
  8
0
  6
Continuous
 62
     7
370
    25
100
AcDbLine
 10
8039.4269011044
 20
5385.9394051187
 30
0.0
 11
8037.4269011044
 21
5385.9394051187
 31
0.0
  0
LINE
  5
148
330
1F
100
AcDbEntity
  8
0
  6
Continuous
 62
     7
370
    25
100
AcDbLine
 10
8039.4269011044
 20
5385.9394051187
 30
0.0
 11
8039.4269011044
 21
5376.2468259065
 31
0.0
  0
LINE
  5
149
330
1F
100
AcDbEntity
  8
0
  6
Continuous
 62
     7
370
    25
100
AcDbLine
 10
8037.4269011044
 20
5385.9394051187
 30
0.0
 11
8037.4269011044
 21
5376.2468259065
 31
0.0
  0
LINE
  5
14A
330
1F
100
AcDbEntity
  8
0
  6
Continuous
 62
     7
370
    25
100
AcDbLine
 10
8039.4269011044
 20
5385.987480397
 30
0.0
 11
8039.4269011044
 21
5385.9394051187
 31
0.0
  0
LINE
  5
14B
330
1F
100
AcDbEntity
  8
0
  6
Continuous
 62
     7
370
    25
100
AcDbLine
 10
8037.4269011044
 20
5385.987480397
 30
0.0
 11
8037.4269011044
 21
5385.9394051187
 31
0.0
  0
LINE
  5
14C
330
1F
100
AcDbEntity
  8
0
  6
Continuous
 62
     7
370
    25
100
AcDbLine
 10
5042.5269011044
 20
4716.5042541414
 30
0.0
 11
5042.5269011044
 21
4941.4942541414
 31
0.0
  0
LINE
  5
14D
330
1F
100
AcDbEntity
  8
0
  6
Continuous
 62
     7
370
    25
100
AcDbLine
 10
5042.5269011044
 20
4716.5042541414
 30
0.0
 11
5039.4269011044
 21
4716.5042541414
 31
0.0
  0
LINE
  5
14E
330
1F
100
AcDbEntity
  8
0
  6
Continuous
 62
     7
370
    25
100
AcDbLine
 10
5039.4269011044
 20
4716.5042541414
 30
0.0
 11
5039.4269011044
 21
4941.4942541414
 31
0.0
  0
LINE
  5
14F
330
1F
100
AcDbEntity
  8
0
  6
Continuous
 62
     7
370
    25
100
AcDbLine
 10
5039.4269011044
 20
4941.4942541414
 30
0.0
 11
5042.5269011044
 21
4941.4942541414
 31
0.0
  0
LINE
  5
150
330
1F
100
AcDbEntity
  8
0
  6
Continuous
 62
     7
370
    25
100
AcDbLine
 10
5081.3269011044
 20
4716.5042541414
 30
0.0
 11
5081.3269011044
 21
4941.4942541414
 31
0.0
  0
LINE
  5
151
330
1F
100
AcDbEntity
  8
0
  6
Continuous
 62
     7
370
    25
100
AcDbLine
 10
5081.3269011044
 20
4716.5042541414
 30
0.0
 11
5042.5269011044
 21
4716.5042541414
 31
0.0
  0
LINE
  5
152
330
1F
100
AcDbEntity
  8
0
  6
Continuous
 62
     7
370
    25
100
AcDbLine
 10
5042.5269011044
 20
4941.4942541414
 30
0.0
 11
5081.3269011044
 21
4941.4942541414
 31
0.0
  0
LINE
  5
153
330
1F
100
AcDbEntity
  8
0
  6
Continuous
 62
     7
370
    25
100
AcDbLine
 10
5081.3269011044
 20
4716.5042541414
 30
0.0
 11
5084.4269011044
 21
4716.5042541414
 31
0.0
  0
LINE
  5
154
330
1F
100
AcDbEntity
  8
0
  6
Continuous
 62
     7
370
    25
100
AcDbLine
 10
5084.4269011044
 20
4716.5042541414
 30
0.0
 11
5084.4269011044
 21
4718.1542541414
 31
0.0
  0
LINE
  5
155
330
1F
100
AcDbEntity
  8
0
  6
Continuous
 62
     7
370
    25
100
AcDbLine
 10
5084.4269011044
 20
4939.8442541414
 30
0.0
 11
5084.4269011044
 21
4941.4942541414
 31
0.0
  0
LINE
  5
156
330
1F
100
AcDbEntity
  8
0
  6
Continuous
 62
     7
370
    25
100
AcDbLine
 10
5084.4269011044
 20
4941.4942541414
 30
0.0
 11
5081.3269011044
 21
4941.4942541414
 31
0.0
  0
LINE
  5
157
330
1F
100
AcDbEntity
  8
0
  6
Continuous
 62
     7
370
    25
100
AcDbLine
 10
5039.4269011044
 20
4964.3042541414
 30
0.0
 11
5041.4269011044
 21
4964.3042541414
 31
0.0
  0
LINE
  5
158
330
1F
100
AcDbEntity
  8
0
  6
Continuous
 62
     7
370
    25
100
AcDbLine
 10
5039.4269011044
 20
4966.5042541414
 30
0.0
 11
5039.4269011044
 21
4964.3042541414
 31
0.0
  0
LINE
  5
159
330
1F
100
AcDbEntity
  8
0
  6
Continuous
 62
     7
370
    25
100
AcDbLine
 10
5039.4269011044
 20
4966.5042541414
 30
0.0
 11
5041.4269011044
 21
4966.5042541414
 31
0.0
  0
LINE
  5
15A
330
1F
100
AcDbEntity
  8
0
  6
Continuous
 62
     7
370
    25
100
AcDbLine
 10
5041.4269011044
 20
4966.5042541414
 30
0.0
 11
5041.4269011044
 21
4964.3042541414
 31
0.0
  0
LINE
  5
15B
330
1F
100
AcDbEntity
  8
0
  6
Continuous
 62
     7
370
    25
100
AcDbLine
 10
5039.4269011044
 20
4964.3042541414
 30
0.0
 11
5039.4269011044
 21
4941.5042541414
 31
0.0
  0
LINE
  5
15C
330
1F
100
AcDbEntity
  8
0
  6
Continuous
 62
     7
370
    25
100
AcDbLine
 10
5041.4269011044
 20
4964.3042541414
 30
0.0
 11
5041.4269011044
 21
4941.5042541414
 31
0.0
  0
LINE
  5
15D
330
1F
100
AcDbEntity
  8
0
  6
Continuous
 62
     7
370
    25
100
AcDbLine
 10
5039.4269011044
 20
4941.5042541414
 30
0.0
 11
5041.4269011044
 21
4941.5042541414
 31
0.0
  0
LINE
  5
15E
330
1F
100
AcDbEntity
  8
0
  6
Continuous
 62
     7
370
    25
100
AcDbLine
 10
5039.4269011044
 20
4941.5042541414
 30
0.0
 11
5039.4269011044
 21
4941.4942541414
 31
0.0
  0
LINE
  5
15F
330
1F
100
AcDbEntity
  8
0
  6
Continuous
 62
     7
370
    25
100
AcDbLine
 10
5041.4269011044
 20
4941.5042541414
 30
0.0
 11
5041.4269011044
 21
4941.4942541414
 31
0.0
  0
LINE
  5
160
330
1F
100
AcDbEntity
  8
0
  6
Continuous
 62
     7
370
    25
100
AcDbLine
 10
5039.4269011044
 20
5374.0949011849
 30
0.0
 11
5041.4269011044
 21
5374.0949011849
 31
0.0
  0
LINE
  5
161
330
1F
100
AcDbEntity
  8
0
  6
Continuous
 62
     7
370
    25
100
AcDbLine
 10
5039.4269011044
 20
5376.2468259065
 30
0.0
 11
5041.4269011044
 21
5376.2468259065
 31
0.0
  0
LINE
  5
162
330
1F
100
AcDbEntity
  8
0
  6
Continuous
 62
     7
370
    25
100
AcDbLine
 10
5039.4269011044
 20
5376.2468259065
 30
0.0
 11
5039.4269011044
 21
5374.0949011849
 31
0.0
  0
LINE
  5
163
330
1F
100
AcDbEntity
  8
0
  6
Continuous
 62
     7
370
    25
100
AcDbLine
 10
5041.4269011044
 20
5376.2468259065
 30
0.0
 11
5041.4269011044
 21
5374.0949011849
 31
0.0
  0
LINE
  5
164
330
1F
100
AcDbEntity
  8
0
  6
Continuous
 62
     7
370
    25
100
AcDbLine
 10
5039.4269011044
 20
5374.0949011849
 30
0.0
 11
5039.4269011044
 21
4966.5042541414
 31
0.0
  0
LINE
  5
165
330
1F
100
AcDbEntity
  8
0
  6
Continuous
 62
     7
370
    25
100
AcDbLine
 10
5041.4269011044
 20
5374.0949011849
 30
0.0
 11
5041.4269011044
 21
4966.5042541414
 31
0.0
  0
LINE
  5
166
330
1F
100
AcDbEntity
  8
0
  6
Continuous
 62
     7
370
    25
100
AcDbLine
 10
5039.4269011044
 20
5385.9394051187
 30
0.0
 11
5041.4269011044
 21
5385.9394051187
 31
0.0
  0
LINE
  5
167
330
1F
100
AcDbEntity
  8
0
  6
Continuous
 62
     7
370
    25
100
AcDbLine
 10
5039.4269011044
 20
5385.9394051187
 30
0.0
 11
5039.4269011044
 21
5376.2468259065
 31
0.0
  0
LINE
  5
168
330
1F
100
AcDbEntity
  8
0
  6
Continuous
 62
     7
370
    25
100
AcDbLine
 10
5041.4269011044
 20
5385.9394051187
 30
0.0
 11
5041.4269011044
 21
5376.2468259065
 31
0.0
  0
LINE
  5
169
330
1F
100
AcDbEntity
  8
0
  6
Continuous
 62
     7
370
    25
100
AcDbLine
 10
5039.4269011044
 20
5385.987480397
 30
0.0
 11
5039.4269011044
 21
5385.9394051187
 31
0.0
  0
LINE
  5
16A
330
1F
100
AcDbEntity
  8
0
  6
Continuous
 62
     7
370
    25
100
AcDbLine
 10
5041.4269011044
 20
5385.987480397
 30
0.0
 11
5041.4269011044
 21
5385.9394051187
 31
0.0
  0
LINE
  5
16B
330
1F
100
AcDbEntity
  8
0
  6
Continuous
 62
     7
370
    25
100
AcDbLine
 10
8037.4269011044
 20
4966.5042541414
 30
0.0
 11
5041.4269011044
 21
4966.5042541414
 31
0.0
  0
LINE
  5
16C
330
1F
100
AcDbEntity
  8
0
  6
Continuous
 62
     7
370
    25
100
AcDbLine
 10
5041.4269011044
 20
4964.3042541414
 30
0.0
 11
8037.4269011044
 21
4964.3042541414
 31
0.0
  0
LINE
  5
16D
330
1F
100
AcDbEntity
  8
0
  6
Continuous
 62
     7
370
    25
100
AcDbLine
 10
5041.4269011044
 20
4941.5042541414
 30
0.0
 11
8037.4269011044
 21
4941.5042541414
 31
0.0
  0
LINE
  5
16E
330
1F
100
AcDbEntity
  8
0
  6
Continuous
 62
     7
370
    25
100
AcDbLine
 10
5041.4269011044
 20
5374.0949011849
 30
0.0
 11
8037.4269011044
 21
5374.0949011849
 31
0.0
  0
LINE
  5
16F
330
1F
100
AcDbEntity
  8
0
  6
Continuous
 62
     7
370
    25
100
AcDbLine
 10
8037.4269011044
 20
5376.2468259065
 30
0.0
 11
5041.4269011044
 21
5376.2468259065
 31
0.0
  0
LINE
  5
170
330
1F
100
AcDbEntity
  8
0
  6
Continuous
 62
     7
370
    25
100
AcDbLine
 10
5041.4269011044
 20
5385.9394051187
 30
0.0
 11
8037.4269011044
 21
5385.9394051187
 31
0.0
  0
LWPOLYLINE
  5
171
330
1F
100
AcDbEntity
  8
0
  6
Continuous
 62
     7
370
    25
100
AcDbPolyline
 90
       14
 70
   128
 43
0.0
 10
5161.4269011044
 20
5378.7101792706
 10
5163.5106792364
 20
5378.7480830197
 10
5165.5311428243
 20
5378.8606425808
 10
5167.4269011044
 20
5379.0444378885
 10
5169.1403524206
 20
5379.2938844155
 10
5170.6194344218
 20
5379.6014028552
 10
5171.8192059498
 20
5379.9576494155
 10
5172.7032125538
 20
5380.3517997249
 10
5173.2445941405
 20
5380.7718777257
 10
5173.4269011044
 20
5381.2051195604
 10
5173.2445941405
 20
5381.6383613951
 10
5172.7032125538
 20
5382.0584393959
 10
5171.8192059498
 20
5382.4525897053
 10
5170.842533978
 20
5382.751874355
  0
LWPOLYLINE
  5
172
330
1F
100
AcDbEntity
  8
0
  6
Continuous
 62
     7
370
    25
100
AcDbPolyline
 90
       14
 70
   128
 43
0.0
 10
5152.0112682307
 20
5382.751874355
 10
5151.034596259
 20
5382.4525897053
 10
5150.1505896549
 20
5382.0584393959
 10
5149.6092080682
 20
5381.6383613951
 10
5149.4269011044
 20
5381.2051195604
 10
5149.6092080682
 20
5380.7718777257
 10
5150.1505896549
 20
5380.3517997249
 10
5151.034596259
 20
5379.9576494155
 10
5152.2343677869
 20
5379.6014028552
 10
5153.7134497881
 20
5379.2938844155
 10
5155.4269011044
 20
5379.0444378885
 10
5157.3226593845
 20
5378.8606425808
 10
5159.3431229724
 20
5378.7480830197
 10
5161.4269011044
 20
5378.7101792706
  0
ARC
  5
173
330
1F
100
AcDbEntity
  8
0
  6
Continuous
 62
     7
370
    25
100
AcDbCircle
 10
5458.6749935576
 20
5277.5755273248
 30
0.0
 40
0.6676186886570576
100
AcDbArc
 50
180.0
 51
0.0
  0
LINE
  5
174
330
1F
100
AcDbEntity
  8
0
  6
Continuous
 62
     7
370
    25
100
AcDbLine
 10
5459.3426122463
 20
5280.5165588594
 30
0.0
 11
5459.3426122463
 21
5277.5755273248
 31
0.0
  0
ARC
  5
175
330
1F
100
AcDbEntity
  8
0
  6
Continuous
 62
     7
370
    25
100
AcDbCircle
 10
5459.5827223626
 20
5280.5165588594
 30
0.0
 40
0.2401101162877239
100
AcDbArc
 50
90.0
 51
180.0
  0
LINE
  5
176
330
1F
100
AcDbEntity
  8
0
  6
Continuous
 62
     7
370
    25
100
AcDbLine
 10
5460.2071355415
 20
5280.7566689757
 30
0.0
 11
5459.5827223626
 21
5280.7566689757
 31
0.0
  0
ARC
  5
177
330
1F
100
AcDbEntity
  8
0
  6
Continuous
 62
     7
370
    25
100
AcDbCircle
 10
5460.2071355415
 20
5280.5165588594
 30
0.0
 40
0.2401101162877239
100
AcDbArc
 50
0.0
 51
90.0
  0
LINE
  5
178
330
1F
100
AcDbEntity
  8
0
  6
Continuous
 62
     7
370
    25
100
AcDbLine
 10
5460.4472456578
 20
5277.5755273248
 30
0.0
 11
5460.4472456578
 21
5280.5165588594
 31
0.0
  0
ARC
  5
179
330
1F
100
AcDbEntity
  8
0
  6
Continuous
 62
     7
370
    25
100
AcDbCircle
 10
5461.1148643464
 20
5277.5755273248
 30
0.0
 40
0.6676186886570576
100
AcDbArc
 50
180.0
 51
0.0
  0
LINE
  5
17A
330
1F
100
AcDbEntity
  8
0
  6
Continuous
 62
     7
370
    25
100
AcDbLine
 10
5461.7824830351
 20
5280.0074046242
 30
0.0
 11
5461.7824830351
 21
5277.5755273248
 31
0.0
  0
ARC
  5
17B
330
1F
100
AcDbEntity
  8
0
  6
Continuous
 62
     7
370
    25
100
AcDbCircle
 10
5462.0225931514
 20
5280.0074046242
 30
0.0
 40
0.2401101162877239
100
AcDbArc
 50
90.0
 51
180.0
  0
LINE
  5
17C
330
1F
100
AcDbEntity
  8
0
  6
Continuous
 62
     7
370
    25
100
AcDbLine
 10
5462.7697126933
 20
5280.2475147405
 30
0.0
 11
5462.0225931514
 21
5280.2475147405
 31
0.0
  0
ARC
  5
17D
330
1F
100
AcDbEntity
  8
0
  6
Continuous
 62
     7
370
    25
100
AcDbCircle
 10
5462.7697126933
 20
5280.0074046242
 30
0.0
 40
0.2401101162877239
100
AcDbArc
 50
0.0
 51
90.0
  0
LINE
  5
17E
330
1F
100
AcDbEntity
  8
0
  6
Continuous
 62
     7
370
    25
100
AcDbLine
 10
5463.0098228096
 20
5277.5755273248
 30
0.0
 11
5463.0098228096
 21
5280.0074046242
 31
0.0
  0
ARC
  5
17F
330
1F
100
AcDbEntity
  8
0
  6
Continuous
 62
     7
370
    25
100
AcDbCircle
 10
5463.6774414982
 20
5277.5755273248
 30
0.0
 40
0.6676186886570576
100
AcDbArc
 50
180.0
 51
0.0
  0
LINE
  5
180
330
1F
100
AcDbEntity
  8
0
  6
Continuous
 62
     7
370
    25
100
AcDbLine
 10
5464.3450601869
 20
5279.0910543155
 30
0.0
 11
5464.3450601869
 21
5277.5755273248
 31
0.0
  0
ARC
  5
181
330
1F
100
AcDbEntity
  8
0
  6
Continuous
 62
     7
370
    25
100
AcDbCircle
 10
5464.5851703032
 20
5279.0910543155
 30
0.0
 40
0.2401101162877239
100
AcDbArc
 50
90.0
 51
180.0
  0
LINE
  5
182
330
1F
100
AcDbEntity
  8
0
  6
Continuous
 62
     7
370
    25
100
AcDbLine
 10
5465.2471980277
 20
5279.3311644318
 30
0.0
 11
5464.5851703032
 21
5279.3311644318
 31
0.0
  0
ARC
  5
183
330
1F
100
AcDbEntity
  8
0
  6
Continuous
 62
     7
370
    25
100
AcDbCircle
 10
5465.2471980277
 20
5279.0910543155
 30
0.0
 40
0.2401101162877239
100
AcDbArc
 50
0.0
 51
90.0
  0
LINE
  5
184
330
1F
100
AcDbEntity
  8
0
  6
Continuous
 62
     7
370
    25
100
AcDbLine
 10
5465.487308144
 20
5271.2078920347
 30
0.0
 11
5465.487308144
 21
5279.0910543155
 31
0.0
  0
ARC
  5
185
330
1F
100
AcDbEntity
  8
0
  6
Continuous
 62
     7
370
    25
100
AcDbCircle
 10
5461.9613075933
 20
5271.2078920347
 30
0.0
 40
3.526000550637946
100
AcDbArc
 50
270.0
 51
0.0
  0
LINE
  5
186
330
1F
100
AcDbEntity
  8
0
  6
Continuous
 62
     7
370
    25
100
AcDbLine
 10
5459.5940831864
 20
5267.6818914841
 30
0.0
 11
5461.9613075933
 21
5267.6818914841
 31
0.0
  0
ARC
  5
187
330
1F
100
AcDbEntity
  8
0
  6
Continuous
 62
     7
370
    25
100
AcDbCircle
 10
5459.5940831864
 20
5272.9748218118
 30
0.0
 40
5.292930327734211
100
AcDbArc
 50
180.0
 51
270.0
  0
LINE
  5
188
330
1F
100
AcDbEntity
  8
0
  6
Continuous
 62
     7
370
    25
100
AcDbLine
 10
5454.3011528586
 20
5277.4209295739
 30
0.0
 11
5454.3011528586
 21
5272.9748218118
 31
0.0
  0
ARC
  5
189
330
1F
100
AcDbEntity
  8
0
  6
Continuous
 62
     7
370
    25
100
AcDbCircle
 10
5453.9578388153
 20
5275.9202872112
 30
0.0
 40
1.539412885871721
100
AcDbArc
 50
0.0
 51
77.1137478469
  0
LINE
  5
18A
330
1F
100
AcDbEntity
  8
0
  6
Continuous
 62
     7
370
    25
100
AcDbLine
 10
5455.4972517012
 20
5273.9658663291
 30
0.0
 11
5455.4972517012
 21
5275.9202872112
 31
0.0
  0
ARC
  5
18B
330
1F
100
AcDbEntity
  8
0
  6
Continuous
 62
     7
370
    25
100
AcDbCircle
 10
5456.1648703898
 20
5273.9658663291
 30
0.0
 40
0.6676186886570576
100
AcDbArc
 50
180.0
 51
0.0
  0
LINE
  5
18C
330
1F
100
AcDbEntity
  8
0
  6
Continuous
 62
     7
370
    25
100
AcDbLine
 10
5456.8324890785
 20
5285.2463675989
 30
0.0
 11
5456.8324890785
 21
5273.9658663291
 31
0.0
  0
LINE
  5
18D
330
1F
100
AcDbEntity
  8
0
  6
Continuous
 62
     7
370
    25
100
AcDbLine
 10
5458.007374869
 20
5277.5755273248
 30
0.0
 11
5458.007374869
 21
5285.2463675989
 31
0.0
  0
ARC
  5
18E
330
1F
100
AcDbEntity
  8
0
  6
Continuous
 62
     7
370
    25
100
AcDbCircle
 10
5457.4199319737
 20
5285.2463675989
 30
0.0
 40
0.5874428952447488
100
AcDbArc
 50
0.0
 51
180.0
  0
CIRCLE
  5
18F
330
1F
100
AcDbEntity
  8
0
  6
Continuous
 62
     7
370
    25
100
AcDbCircle
 10
5459.4269011044
 20
5276.5042541414
 30
0.0
 40
12.5
  0
LINE
  5
190
330
1F
100
AcDbEntity
  8
0
  6
Continuous
 62
     7
370
    25
100
AcDbLine
 10
5459.036974869
 20
5281.7006479544
 30
0.0
 11
5459.036974869
 21
5285.2463675989
 31
0.0
  0
LINE
  5
191
330
1F
100
AcDbEntity
  8
0
  6
Continuous
 62
     7
370
    25
100
AcDbLine
 10
5455.8028890785
 20
5285.2463675989
 30
0.0
 11
5455.8028890785
 21
5277.7079160133
 31
0.0
  0
ARC
  5
192
330
1F
100
AcDbEntity
  8
0
  6
Continuous
 62
     7
370
    25
100
AcDbCircle
 10
5453.9578388153
 20
5275.9202872112
 30
0.0
 40
2.569012885871402
100
AcDbArc
 50
44.0944057145
 51
105.4941474424
  0
LINE
  5
193
330
1F
100
AcDbEntity
  8
0
  6
Continuous
 62
     7
370
    25
100
AcDbLine
 10
5453.2715528586
 20
5278.3959363772
 30
0.0
 11
5453.2715528586
 21
5272.9748218118
 31
0.0
  0
ARC
  5
194
330
1F
100
AcDbEntity
  8
0
  6
Continuous
 62
     7
370
    25
100
AcDbCircle
 10
5459.5940831864
 20
5272.9748218118
 30
0.0
 40
6.322530327734057
100
AcDbArc
 50
180.0
 51
270.0
  0
LINE
  5
195
330
1F
100
AcDbEntity
  8
0
  6
Continuous
 62
     7
370
    25
100
AcDbLine
 10
5459.5940831864
 20
5266.6522914841
 30
0.0
 11
5461.9613075933
 21
5266.6522914841
 31
0.0
  0
ARC
  5
196
330
1F
100
AcDbEntity
  8
0
  6
Continuous
 62
     7
370
    25
100
AcDbCircle
 10
5461.9613075933
 20
5271.2078920347
 30
0.0
 40
4.555600550637791
100
AcDbArc
 50
270.0
 51
0.0
  0
LINE
  5
197
330
1F
100
AcDbEntity
  8
0
  6
Continuous
 62
     7
370
    25
100
AcDbLine
 10
5466.516908144
 20
5271.2078920347
 30
0.0
 11
5466.516908144
 21
5279.044662563
 31
0.0
  0
ARC
  5
198
330
1F
100
AcDbEntity
  8
0
  6
Continuous
 62
     7
370
    25
100
AcDbCircle
 10
5465.1632968978
 20
5279.044662563
 30
0.0
 40
1.353611246209766
100
AcDbArc
 50
0.0
 51
90.0
  0
LINE
  5
199
330
1F
100
AcDbEntity
  8
0
  6
Continuous
 62
     7
370
    25
100
AcDbLine
 10
5465.1632968978
 20
5280.3982738092
 30
0.0
 11
5464.6690714331
 21
5280.3982738092
 31
0.0
  0
ARC
  5
19A
330
1F
100
AcDbEntity
  8
0
  6
Continuous
 62
     7
370
    25
100
AcDbCircle
 10
5464.6690714331
 20
5279.044662563
 30
0.0
 40
1.353611246210064
100
AcDbArc
 50
90.0
 51
118.7365577358
  0
ARC
  5
19B
330
1F
100
AcDbEntity
  8
0
  6
Continuous
 62
     7
370
    25
100
AcDbCircle
 10
5462.6858115633
 20
5279.9932424864
 30
0.0
 40
1.353611246208338
100
AcDbArc
 50
10.1404867648
 51
90.0
  0
LINE
  5
19C
330
1F
100
AcDbEntity
  8
0
  6
Continuous
 62
     7
370
    25
100
AcDbLine
 10
5462.6858115633
 20
5281.3468537327
 30
0.0
 11
5462.1064942813
 21
5281.3468537327
 31
0.0
  0
ARC
  5
19D
330
1F
100
AcDbEntity
  8
0
  6
Continuous
 62
     7
370
    25
100
AcDbCircle
 10
5462.1064942813
 20
5279.9932424864
 30
0.0
 40
1.353611246208256
100
AcDbArc
 50
90.0
 51
124.7440022271
  0
ARC
  5
19E
330
1F
100
AcDbEntity
  8
0
  6
Continuous
 62
     7
370
    25
100
AcDbCircle
 10
5460.1232344116
 20
5280.5023967216
 30
0.0
 40
1.353611246207373
100
AcDbArc
 50
26.4592691592
 51
90.0
  0
LINE
  5
19F
330
1F
100
AcDbEntity
  8
0
  6
Continuous
 62
     7
370
    25
100
AcDbLine
 10
5460.1232344116
 20
5281.8560079678
 30
0.0
 11
5459.6666234925
 21
5281.8560079678
 31
0.0
  0
ARC
  5
1A0
330
1F
100
AcDbEntity
  8
0
  6
Continuous
 62
     7
370
    25
100
AcDbCircle
 10
5459.6666234925
 20
5280.5023967216
 30
0.0
 40
1.353611246208415
100
AcDbArc
 50
90.0
 51
117.7207121261
  0
ARC
  5
1A1
330
1F
100
AcDbEntity
  8
0
  6
Continuous
 62
     7
370
    25
100
AcDbCircle
 10
5457.4199319737
 20
5285.2463675989
 30
0.0
 40
1.617042895244595
100
AcDbArc
 50
0.0
 51
180.0
  0
CIRCLE
  5
1A2
330
1F
100
AcDbEntity
  8
0
  6
Continuous
 62
     7
370
    25
100
AcDbCircle
 10
5459.4269011044
 20
5276.5042541414
 30
0.0
 40
14.0
  0
CIRCLE
  5
1A3
330
1F
100
AcDbEntity
  8
0
  6
Continuous
 62
     7
370
    25
100
AcDbCircle
 10
7859.4269011044
 20
5276.5042541414
 30
0.0
 40
12.5
  0
LINE
  5
1A4
330
1F
100
AcDbEntity
  8
0
  6
Continuous
 62
     7
370
    25
100
AcDbLine
 10
7859.036974869
 20
5281.7006479544
 30
0.0
 11
7859.036974869
 21
5285.2463675989
 31
0.0
  0
ARC
  5
1A5
330
1F
100
AcDbEntity
  8
0
  6
Continuous
 62
     7
370
    25
100
AcDbCircle
 10
7857.4199319737
 20
5285.2463675989
 30
0.0
 40
1.617042895244595
100
AcDbArc
 50
0.0
 51
180.0
  0
LINE
  5
1A6
330
1F
100
AcDbEntity
  8
0
  6
Continuous
 62
     7
370
    25
100
AcDbLine
 10
7855.8028890785
 20
5285.2463675989
 30
0.0
 11
7855.8028890785
 21
5277.7079160133
 31
0.0
  0
ARC
  5
1A7
330
1F
100
AcDbEntity
  8
0
  6
Continuous
 62
     7
370
    25
100
AcDbCircle
 10
7853.9578388153
 20
5275.9202872112
 30
0.0
 40
2.56901288587116
100
AcDbArc
 50
44.0944057145
 51
105.4941474424
  0
LINE
  5
1A8
330
1F
100
AcDbEntity
  8
0
  6
Continuous
 62
     7
370
    25
100
AcDbLine
 10
7853.2715528586
 20
5278.3959363772
 30
0.0
 11
7853.2715528586
 21
5272.9748218118
 31
0.0
  0
ARC
  5
1A9
330
1F
100
AcDbEntity
  8
0
  6
Continuous
 62
     7
370
    25
100
AcDbCircle
 10
7859.5940831864
 20
5272.9748218118
 30
0.0
 40
6.322530327733148
100
AcDbArc
 50
180.0
 51
270.0
  0
LINE
  5
1AA
330
1F
100
AcDbEntity
  8
0
  6
Continuous
 62
     7
370
    25
100
AcDbLine
 10
7859.5940831864
 20
5266.6522914841
 30
0.0
 11
7861.9613075933
 21
5266.6522914841
 31
0.0
  0
ARC
  5
1AB
330
1F
100
AcDbEntity
  8
0
  6
Continuous
 62
     7
370
    25
100
AcDbCircle
 10
7861.9613075933
 20
5271.2078920347
 30
0.0
 40
4.555600550637791
100
AcDbArc
 50
270.0
 51
0.0
  0
LINE
  5
1AC
330
1F
100
AcDbEntity
  8
0
  6
Continuous
 62
     7
370
    25
100
AcDbLine
 10
7866.516908144
 20
5271.2078920347
 30
0.0
 11
7866.516908144
 21
5279.044662563
 31
0.0
  0
ARC
  5
1AD
330
1F
100
AcDbEntity
  8
0
  6
Continuous
 62
     7
370
    25
100
AcDbCircle
 10
7865.1632968978
 20
5279.044662563
 30
0.0
 40
1.353611246209766
100
AcDbArc
 50
0.0
 51
90.0
  0
LINE
  5
1AE
330
1F
100
AcDbEntity
  8
0
  6
Continuous
 62
     7
370
    25
100
AcDbLine
 10
7865.1632968978
 20
5280.3982738092
 30
0.0
 11
7864.6690714331
 21
5280.3982738092
 31
0.0
  0
ARC
  5
1AF
330
1F
100
AcDbEntity
  8
0
  6
Continuous
 62
     7
370
    25
100
AcDbCircle
 10
7864.6690714331
 20
5279.044662563
 30
0.0
 40
1.353611246209766
100
AcDbArc
 50
90.0
 51
118.7365577357
  0
ARC
  5
1B0
330
1F
100
AcDbEntity
  8
0
  6
Continuous
 62
     7
370
    25
100
AcDbCircle
 10
7862.6858115633
 20
5279.9932424864
 30
0.0
 40
1.353611246209233
100
AcDbArc
 50
10.1404867648
 51
90.0
  0
LINE
  5
1B1
330
1F
100
AcDbEntity
  8
0
  6
Continuous
 62
     7
370
    25
100
AcDbLine
 10
7862.6858115633
 20
5281.3468537327
 30
0.0
 11
7862.1064942813
 21
5281.3468537327
 31
0.0
  0
ARC
  5
1B2
330
1F
100
AcDbEntity
  8
0
  6
Continuous
 62
     7
370
    25
100
AcDbCircle
 10
7862.1064942813
 20
5279.9932424864
 30
0.0
 40
1.353611246208256
100
AcDbArc
 50
90.0
 51
124.7440022271
  0
ARC
  5
1B3
330
1F
100
AcDbEntity
  8
0
  6
Continuous
 62
     7
370
    25
100
AcDbCircle
 10
7860.1232344116
 20
5280.5023967216
 30
0.0
 40
1.353611246207373
100
AcDbArc
 50
26.4592691592
 51
90.0
  0
LINE
  5
1B4
330
1F
100
AcDbEntity
  8
0
  6
Continuous
 62
     7
370
    25
100
AcDbLine
 10
7860.1232344116
 20
5281.8560079678
 30
0.0
 11
7859.6666234925
 21
5281.8560079678
 31
0.0
  0
ARC
  5
1B5
330
1F
100
AcDbEntity
  8
0
  6
Continuous
 62
     7
370
    25
100
AcDbCircle
 10
7859.6666234925
 20
5280.5023967216
 30
0.0
 40
1.353611246208415
100
AcDbArc
 50
90.0
 51
117.7207121261
  0
ARC
  5
1B6
330
1F
100
AcDbEntity
  8
0
  6
Continuous
 62
     7
370
    25
100
AcDbCircle
 10
7858.6749935576
 20
5277.5755273248
 30
0.0
 40
0.6676186886570576
100
AcDbArc
 50
180.0
 51
0.0
  0
LINE
  5
1B7
330
1F
100
AcDbEntity
  8
0
  6
Continuous
 62
     7
370
    25
100
AcDbLine
 10
7859.3426122463
 20
5280.5165588594
 30
0.0
 11
7859.3426122463
 21
5277.5755273248
 31
0.0
  0
ARC
  5
1B8
330
1F
100
AcDbEntity
  8
0
  6
Continuous
 62
     7
370
    25
100
AcDbCircle
 10
7859.5827223626
 20
5280.5165588594
 30
0.0
 40
0.2401101162877239
100
AcDbArc
 50
90.0
 51
180.0
  0
LINE
  5
1B9
330
1F
100
AcDbEntity
  8
0
  6
Continuous
 62
     7
370
    25
100
AcDbLine
 10
7860.2071355415
 20
5280.7566689757
 30
0.0
 11
7859.5827223626
 21
5280.7566689757
 31
0.0
  0
ARC
  5
1BA
330
1F
100
AcDbEntity
  8
0
  6
Continuous
 62
     7
370
    25
100
AcDbCircle
 10
7860.2071355415
 20
5280.5165588594
 30
0.0
 40
0.2401101162886334
100
AcDbArc
 50
0.0
 51
90.0
  0
LINE
  5
1BB
330
1F
100
AcDbEntity
  8
0
  6
Continuous
 62
     7
370
    25
100
AcDbLine
 10
7860.4472456578
 20
5277.5755273248
 30
0.0
 11
7860.4472456578
 21
5280.5165588594
 31
0.0
  0
ARC
  5
1BC
330
1F
100
AcDbEntity
  8
0
  6
Continuous
 62
     7
370
    25
100
AcDbCircle
 10
7861.1148643464
 20
5277.5755273248
 30
0.0
 40
0.6676186886570576
100
AcDbArc
 50
180.0
 51
0.0
  0
LINE
  5
1BD
330
1F
100
AcDbEntity
  8
0
  6
Continuous
 62
     7
370
    25
100
AcDbLine
 10
7861.7824830351
 20
5280.0074046242
 30
0.0
 11
7861.7824830351
 21
5277.5755273248
 31
0.0
  0
ARC
  5
1BE
330
1F
100
AcDbEntity
  8
0
  6
Continuous
 62
     7
370
    25
100
AcDbCircle
 10
7862.0225931514
 20
5280.0074046242
 30
0.0
 40
0.2401101162877239
100
AcDbArc
 50
90.0
 51
180.0
  0
LINE
  5
1BF
330
1F
100
AcDbEntity
  8
0
  6
Continuous
 62
     7
370
    25
100
AcDbLine
 10
7862.7697126933
 20
5280.2475147405
 30
0.0
 11
7862.0225931514
 21
5280.2475147405
 31
0.0
  0
ARC
  5
1C0
330
1F
100
AcDbEntity
  8
0
  6
Continuous
 62
     7
370
    25
100
AcDbCircle
 10
7862.7697126933
 20
5280.0074046242
 30
0.0
 40
0.2401101162886334
100
AcDbArc
 50
0.0
 51
90.0
  0
LINE
  5
1C1
330
1F
100
AcDbEntity
  8
0
  6
Continuous
 62
     7
370
    25
100
AcDbLine
 10
7863.0098228096
 20
5277.5755273248
 30
0.0
 11
7863.0098228096
 21
5280.0074046242
 31
0.0
  0
ARC
  5
1C2
330
1F
100
AcDbEntity
  8
0
  6
Continuous
 62
     7
370
    25
100
AcDbCircle
 10
7863.6774414982
 20
5277.5755273248
 30
0.0
 40
0.6676186886570576
100
AcDbArc
 50
180.0
 51
0.0
  0
LINE
  5
1C3
330
1F
100
AcDbEntity
  8
0
  6
Continuous
 62
     7
370
    25
100
AcDbLine
 10
7864.3450601869
 20
5279.0910543155
 30
0.0
 11
7864.3450601869
 21
5277.5755273248
 31
0.0
  0
ARC
  5
1C4
330
1F
100
AcDbEntity
  8
0
  6
Continuous
 62
     7
370
    25
100
AcDbCircle
 10
7864.5851703032
 20
5279.0910543155
 30
0.0
 40
0.2401101162877239
100
AcDbArc
 50
90.0
 51
180.0
  0
LINE
  5
1C5
330
1F
100
AcDbEntity
  8
0
  6
Continuous
 62
     7
370
    25
100
AcDbLine
 10
7865.2471980277
 20
5279.3311644318
 30
0.0
 11
7864.5851703032
 21
5279.3311644318
 31
0.0
  0
ARC
  5
1C6
330
1F
100
AcDbEntity
  8
0
  6
Continuous
 62
     7
370
    25
100
AcDbCircle
 10
7865.2471980277
 20
5279.0910543155
 30
0.0
 40
0.2401101162877239
100
AcDbArc
 50
0.0
 51
90.0
  0
LINE
  5
1C7
330
1F
100
AcDbEntity
  8
0
  6
Continuous
 62
     7
370
    25
100
AcDbLine
 10
7865.487308144
 20
5271.2078920347
 30
0.0
 11
7865.487308144
 21
5279.0910543155
 31
0.0
  0
ARC
  5
1C8
330
1F
100
AcDbEntity
  8
0
  6
Continuous
 62
     7
370
    25
100
AcDbCircle
 10
7861.9613075933
 20
5271.2078920347
 30
0.0
 40
3.526000550637946
100
AcDbArc
 50
270.0
 51
0.0
  0
LINE
  5
1C9
330
1F
100
AcDbEntity
  8
0
  6
Continuous
 62
     7
370
    25
100
AcDbLine
 10
7859.5940831864
 20
5267.6818914841
 30
0.0
 11
7861.9613075933
 21
5267.6818914841
 31
0.0
  0
ARC
  5
1CA
330
1F
100
AcDbEntity
  8
0
  6
Continuous
 62
     7
370
    25
100
AcDbCircle
 10
7859.5940831864
 20
5272.9748218118
 30
0.0
 40
5.292930327734211
100
AcDbArc
 50
180.0
 51
270.0
  0
LINE
  5
1CB
330
1F
100
AcDbEntity
  8
0
  6
Continuous
 62
     7
370
    25
100
AcDbLine
 10
7854.3011528586
 20
5277.4209295739
 30
0.0
 11
7854.3011528586
 21
5272.9748218118
 31
0.0
  0
ARC
  5
1CC
330
1F
100
AcDbEntity
  8
0
  6
Continuous
 62
     7
370
    25
100
AcDbCircle
 10
7853.9578388153
 20
5275.9202872112
 30
0.0
 40
1.539412885871721
100
AcDbArc
 50
0.0
 51
77.1137478469
  0
LINE
  5
1CD
330
1F
100
AcDbEntity
  8
0
  6
Continuous
 62
     7
370
    25
100
AcDbLine
 10
7855.4972517012
 20
5273.9658663291
 30
0.0
 11
7855.4972517012
 21
5275.9202872112
 31
0.0
  0
ARC
  5
1CE
330
1F
100
AcDbEntity
  8
0
  6
Continuous
 62
     7
370
    25
100
AcDbCircle
 10
7856.1648703898
 20
5273.9658663291
 30
0.0
 40
0.6676186886570576
100
AcDbArc
 50
180.0
 51
0.0
  0
LINE
  5
1CF
330
1F
100
AcDbEntity
  8
0
  6
Continuous
 62
     7
370
    25
100
AcDbLine
 10
7856.8324890785
 20
5285.2463675989
 30
0.0
 11
7856.8324890785
 21
5273.9658663291
 31
0.0
  0
LINE
  5
1D0
330
1F
100
AcDbEntity
  8
0
  6
Continuous
 62
     7
370
    25
100
AcDbLine
 10
7858.007374869
 20
5277.5755273248
 30
0.0
 11
7858.007374869
 21
5285.2463675989
 31
0.0
  0
ARC
  5
1D1
330
1F
100
AcDbEntity
  8
0
  6
Continuous
 62
     7
370
    25
100
AcDbCircle
 10
7857.4199319737
 20
5285.2463675989
 30
0.0
 40
0.5874428952447488
100
AcDbArc
 50
0.0
 51
180.0
  0
CIRCLE
  5
1D2
330
1F
100
AcDbEntity
  8
0
  6
Continuous
 62
     7
370
    25
100
AcDbCircle
 10
7859.4269011044
 20
5276.5042541414
 30
0.0
 40
14.0
  0
ARC
  5
1D3
330
1F
100
AcDbEntity
  8
0
  6
Continuous
 62
     7
370
    25
100
AcDbCircle
 10
6658.6749935576
 20
5277.5755273248
 30
0.0
 40
0.6676186886570576
100
AcDbArc
 50
180.0
 51
0.0
  0
LINE
  5
1D4
330
1F
100
AcDbEntity
  8
0
  6
Continuous
 62
     7
370
    25
100
AcDbLine
 10
6659.3426122463
 20
5280.5165588594
 30
0.0
 11
6659.3426122463
 21
5277.5755273248
 31
0.0
  0
ARC
  5
1D5
330
1F
100
AcDbEntity
  8
0
  6
Continuous
 62
     7
370
    25
100
AcDbCircle
 10
6659.5827223626
 20
5280.5165588594
 30
0.0
 40
0.2401101162877239
100
AcDbArc
 50
90.0
 51
180.0
  0
LINE
  5
1D6
330
1F
100
AcDbEntity
  8
0
  6
Continuous
 62
     7
370
    25
100
AcDbLine
 10
6660.2071355415
 20
5280.7566689757
 30
0.0
 11
6659.5827223626
 21
5280.7566689757
 31
0.0
  0
ARC
  5
1D7
330
1F
100
AcDbEntity
  8
0
  6
Continuous
 62
     7
370
    25
100
AcDbCircle
 10
6660.2071355415
 20
5280.5165588594
 30
0.0
 40
0.2401101162877239
100
AcDbArc
 50
0.0
 51
90.0
  0
LINE
  5
1D8
330
1F
100
AcDbEntity
  8
0
  6
Continuous
 62
     7
370
    25
100
AcDbLine
 10
6660.4472456578
 20
5277.5755273248
 30
0.0
 11
6660.4472456578
 21
5280.5165588594
 31
0.0
  0
ARC
  5
1D9
330
1F
100
AcDbEntity
  8
0
  6
Continuous
 62
     7
370
    25
100
AcDbCircle
 10
6661.1148643464
 20
5277.5755273248
 30
0.0
 40
0.6676186886570576
100
AcDbArc
 50
180.0
 51
0.0
  0
LINE
  5
1DA
330
1F
100
AcDbEntity
  8
0
  6
Continuous
 62
     7
370
    25
100
AcDbLine
 10
6661.7824830351
 20
5280.0074046242
 30
0.0
 11
6661.7824830351
 21
5277.5755273248
 31
0.0
  0
ARC
  5
1DB
330
1F
100
AcDbEntity
  8
0
  6
Continuous
 62
     7
370
    25
100
AcDbCircle
 10
6662.0225931514
 20
5280.0074046242
 30
0.0
 40
0.2401101162877239
100
AcDbArc
 50
90.0
 51
180.0
  0
LINE
  5
1DC
330
1F
100
AcDbEntity
  8
0
  6
Continuous
 62
     7
370
    25
100
AcDbLine
 10
6662.7697126933
 20
5280.2475147405
 30
0.0
 11
6662.0225931514
 21
5280.2475147405
 31
0.0
  0
ARC
  5
1DD
330
1F
100
AcDbEntity
  8
0
  6
Continuous
 62
     7
370
    25
100
AcDbCircle
 10
6662.7697126933
 20
5280.0074046242
 30
0.0
 40
0.2401101162877239
100
AcDbArc
 50
0.0
 51
90.0
  0
LINE
  5
1DE
330
1F
100
AcDbEntity
  8
0
  6
Continuous
 62
     7
370
    25
100
AcDbLine
 10
6663.0098228096
 20
5277.5755273248
 30
0.0
 11
6663.0098228096
 21
5280.0074046242
 31
0.0
  0
ARC
  5
1DF
330
1F
100
AcDbEntity
  8
0
  6
Continuous
 62
     7
370
    25
100
AcDbCircle
 10
6663.6774414982
 20
5277.5755273248
 30
0.0
 40
0.6676186886570576
100
AcDbArc
 50
180.0
 51
0.0
  0
LINE
  5
1E0
330
1F
100
AcDbEntity
  8
0
  6
Continuous
 62
     7
370
    25
100
AcDbLine
 10
6664.3450601869
 20
5279.0910543155
 30
0.0
 11
6664.3450601869
 21
5277.5755273248
 31
0.0
  0
ARC
  5
1E1
330
1F
100
AcDbEntity
  8
0
  6
Continuous
 62
     7
370
    25
100
AcDbCircle
 10
6664.5851703032
 20
5279.0910543155
 30
0.0
 40
0.2401101162877239
100
AcDbArc
 50
90.0
 51
180.0
  0
LINE
  5
1E2
330
1F
100
AcDbEntity
  8
0
  6
Continuous
 62
     7
370
    25
100
AcDbLine
 10
6665.2471980277
 20
5279.3311644318
 30
0.0
 11
6664.5851703032
 21
5279.3311644318
 31
0.0
  0
ARC
  5
1E3
330
1F
100
AcDbEntity
  8
0
  6
Continuous
 62
     7
370
    25
100
AcDbCircle
 10
6665.2471980277
 20
5279.0910543155
 30
0.0
 40
0.2401101162877239
100
AcDbArc
 50
0.0
 51
90.0
  0
LINE
  5
1E4
330
1F
100
AcDbEntity
  8
0
  6
Continuous
 62
     7
370
    25
100
AcDbLine
 10
6665.487308144
 20
5271.2078920347
 30
0.0
 11
6665.487308144
 21
5279.0910543155
 31
0.0
  0
ARC
  5
1E5
330
1F
100
AcDbEntity
  8
0
  6
Continuous
 62
     7
370
    25
100
AcDbCircle
 10
6661.9613075933
 20
5271.2078920347
 30
0.0
 40
3.526000550637946
100
AcDbArc
 50
270.0
 51
0.0
  0
LINE
  5
1E6
330
1F
100
AcDbEntity
  8
0
  6
Continuous
 62
     7
370
    25
100
AcDbLine
 10
6659.5940831864
 20
5267.6818914841
 30
0.0
 11
6661.9613075933
 21
5267.6818914841
 31
0.0
  0
ARC
  5
1E7
330
1F
100
AcDbEntity
  8
0
  6
Continuous
 62
     7
370
    25
100
AcDbCircle
 10
6659.5940831864
 20
5272.9748218118
 30
0.0
 40
5.292930327734211
100
AcDbArc
 50
180.0
 51
270.0
  0
LINE
  5
1E8
330
1F
100
AcDbEntity
  8
0
  6
Continuous
 62
     7
370
    25
100
AcDbLine
 10
6654.3011528586
 20
5277.4209295739
 30
0.0
 11
6654.3011528586
 21
5272.9748218118
 31
0.0
  0
ARC
  5
1E9
330
1F
100
AcDbEntity
  8
0
  6
Continuous
 62
     7
370
    25
100
AcDbCircle
 10
6653.9578388153
 20
5275.9202872112
 30
0.0
 40
1.539412885871924
100
AcDbArc
 50
0.0
 51
77.1137478469
  0
LINE
  5
1EA
330
1F
100
AcDbEntity
  8
0
  6
Continuous
 62
     7
370
    25
100
AcDbLine
 10
6655.4972517012
 20
5273.9658663291
 30
0.0
 11
6655.4972517012
 21
5275.9202872112
 31
0.0
  0
ARC
  5
1EB
330
1F
100
AcDbEntity
  8
0
  6
Continuous
 62
     7
370
    25
100
AcDbCircle
 10
6656.1648703898
 20
5273.9658663291
 30
0.0
 40
0.6676186886570576
100
AcDbArc
 50
180.0
 51
0.0
  0
LINE
  5
1EC
330
1F
100
AcDbEntity
  8
0
  6
Continuous
 62
     7
370
    25
100
AcDbLine
 10
6656.8324890785
 20
5285.2463675989
 30
0.0
 11
6656.8324890785
 21
5273.9658663291
 31
0.0
  0
LINE
  5
1ED
330
1F
100
AcDbEntity
  8
0
  6
Continuous
 62
     7
370
    25
100
AcDbLine
 10
6658.007374869
 20
5277.5755273248
 30
0.0
 11
6658.007374869
 21
5285.2463675989
 31
0.0
  0
ARC
  5
1EE
330
1F
100
AcDbEntity
  8
0
  6
Continuous
 62
     7
370
    25
100
AcDbCircle
 10
6657.4199319737
 20
5285.2463675989
 30
0.0
 40
0.5874428952447488
100
AcDbArc
 50
0.0
 51
180.0
  0
CIRCLE
  5
1EF
330
1F
100
AcDbEntity
  8
0
  6
Continuous
 62
     7
370
    25
100
AcDbCircle
 10
6659.4269011044
 20
5276.5042541414
 30
0.0
 40
12.5
  0
LINE
  5
1F0
330
1F
100
AcDbEntity
  8
0
  6
Continuous
 62
     7
370
    25
100
AcDbLine
 10
6659.036974869
 20
5281.7006479544
 30
0.0
 11
6659.036974869
 21
5285.2463675989
 31
0.0
  0
LINE
  5
1F1
330
1F
100
AcDbEntity
  8
0
  6
Continuous
 62
     7
370
    25
100
AcDbLine
 10
6655.8028890785
 20
5285.2463675989
 30
0.0
 11
6655.8028890785
 21
5277.7079160133
 31
0.0
  0
ARC
  5
1F2
330
1F
100
AcDbEntity
  8
0
  6
Continuous
 62
     7
370
    25
100
AcDbCircle
 10
6653.9578388153
 20
5275.9202872112
 30
0.0
 40
2.569012885871218
100
AcDbArc
 50
44.0944057145
 51
105.4941474424
  0
LINE
  5
1F3
330
1F
100
AcDbEntity
  8
0
  6
Continuous
 62
     7
370
    25
100
AcDbLine
 10
6653.2715528586
 20
5278.3959363772
 30
0.0
 11
6653.2715528586
 21
5272.9748218118
 31
0.0
  0
ARC
  5
1F4
330
1F
100
AcDbEntity
  8
0
  6
Continuous
 62
     7
370
    25
100
AcDbCircle
 10
6659.5940831864
 20
5272.9748218118
 30
0.0
 40
6.322530327733148
100
AcDbArc
 50
180.0
 51
270.0
  0
LINE
  5
1F5
330
1F
100
AcDbEntity
  8
0
  6
Continuous
 62
     7
370
    25
100
AcDbLine
 10
6659.5940831864
 20
5266.6522914841
 30
0.0
 11
6661.9613075933
 21
5266.6522914841
 31
0.0
  0
ARC
  5
1F6
330
1F
100
AcDbEntity
  8
0
  6
Continuous
 62
     7
370
    25
100
AcDbCircle
 10
6661.9613075933
 20
5271.2078920347
 30
0.0
 40
4.555600550637791
100
AcDbArc
 50
270.0
 51
0.0
  0
LINE
  5
1F7
330
1F
100
AcDbEntity
  8
0
  6
Continuous
 62
     7
370
    25
100
AcDbLine
 10
6666.516908144
 20
5271.2078920347
 30
0.0
 11
6666.516908144
 21
5279.044662563
 31
0.0
  0
ARC
  5
1F8
330
1F
100
AcDbEntity
  8
0
  6
Continuous
 62
     7
370
    25
100
AcDbCircle
 10
6665.1632968978
 20
5279.044662563
 30
0.0
 40
1.353611246209766
100
AcDbArc
 50
0.0
 51
90.0
  0
LINE
  5
1F9
330
1F
100
AcDbEntity
  8
0
  6
Continuous
 62
     7
370
    25
100
AcDbLine
 10
6665.1632968978
 20
5280.3982738092
 30
0.0
 11
6664.6690714331
 21
5280.3982738092
 31
0.0
  0
ARC
  5
1FA
330
1F
100
AcDbEntity
  8
0
  6
Continuous
 62
     7
370
    25
100
AcDbCircle
 10
6664.6690714331
 20
5279.044662563
 30
0.0
 40
1.353611246209766
100
AcDbArc
 50
90.0
 51
118.7365577357
  0
ARC
  5
1FB
330
1F
100
AcDbEntity
  8
0
  6
Continuous
 62
     7
370
    25
100
AcDbCircle
 10
6662.6858115633
 20
5279.9932424864
 30
0.0
 40
1.353611246209233
100
AcDbArc
 50
10.1404867648
 51
90.0
  0
LINE
  5
1FC
330
1F
100
AcDbEntity
  8
0
  6
Continuous
 62
     7
370
    25
100
AcDbLine
 10
6662.6858115633
 20
5281.3468537327
 30
0.0
 11
6662.1064942813
 21
5281.3468537327
 31
0.0
  0
ARC
  5
1FD
330
1F
100
AcDbEntity
  8
0
  6
Continuous
 62
     7
370
    25
100
AcDbCircle
 10
6662.1064942813
 20
5279.9932424864
 30
0.0
 40
1.353611246208256
100
AcDbArc
 50
90.0
 51
124.7440022271
  0
ARC
  5
1FE
330
1F
100
AcDbEntity
  8
0
  6
Continuous
 62
     7
370
    25
100
AcDbCircle
 10
6660.1232344116
 20
5280.5023967216
 30
0.0
 40
1.353611246208188
100
AcDbArc
 50
26.4592691592
 51
90.0
  0
LINE
  5
1FF
330
1F
100
AcDbEntity
  8
0
  6
Continuous
 62
     7
370
    25
100
AcDbLine
 10
6660.1232344116
 20
5281.8560079678
 30
0.0
 11
6659.6666234925
 21
5281.8560079678
 31
0.0
  0
ARC
  5
200
330
1F
100
AcDbEntity
  8
0
  6
Continuous
 62
     7
370
    25
100
AcDbCircle
 10
6659.6666234925
 20
5280.5023967216
 30
0.0
 40
1.353611246207992
100
AcDbArc
 50
90.0
 51
117.7207121261
  0
ARC
  5
201
330
1F
100
AcDbEntity
  8
0
  6
Continuous
 62
     7
370
    25
100
AcDbCircle
 10
6657.4199319737
 20
5285.2463675989
 30
0.0
 40
1.617042895244595
100
AcDbArc
 50
0.0
 51
180.0
  0
CIRCLE
  5
202
330
1F
100
AcDbEntity
  8
0
  6
Continuous
 62
     7
370
    25
100
AcDbCircle
 10
6659.4269011044
 20
5276.5042541414
 30
0.0
 40
13.99999999999909
  0
ARC
  5
203
330
1F
100
AcDbEntity
  8
0
  6
Continuous
 62
     7
370
    25
100
AcDbCircle
 10
7258.6749935576
 20
5277.5755273248
 30
0.0
 40
0.6676186886570576
100
AcDbArc
 50
180.0
 51
0.0
  0
LINE
  5
204
330
1F
100
AcDbEntity
  8
0
  6
Continuous
 62
     7
370
    25
100
AcDbLine
 10
7259.3426122463
 20
5280.5165588594
 30
0.0
 11
7259.3426122463
 21
5277.5755273248
 31
0.0
  0
ARC
  5
205
330
1F
100
AcDbEntity
  8
0
  6
Continuous
 62
     7
370
    25
100
AcDbCircle
 10
7259.5827223626
 20
5280.5165588594
 30
0.0
 40
0.2401101162877239
100
AcDbArc
 50
90.0
 51
180.0
  0
LINE
  5
206
330
1F
100
AcDbEntity
  8
0
  6
Continuous
 62
     7
370
    25
100
AcDbLine
 10
7260.2071355415
 20
5280.7566689757
 30
0.0
 11
7259.5827223626
 21
5280.7566689757
 31
0.0
  0
ARC
  5
207
330
1F
100
AcDbEntity
  8
0
  6
Continuous
 62
     7
370
    25
100
AcDbCircle
 10
7260.2071355415
 20
5280.5165588594
 30
0.0
 40
0.2401101162877239
100
AcDbArc
 50
0.0
 51
90.0
  0
LINE
  5
208
330
1F
100
AcDbEntity
  8
0
  6
Continuous
 62
     7
370
    25
100
AcDbLine
 10
7260.4472456578
 20
5277.5755273248
 30
0.0
 11
7260.4472456578
 21
5280.5165588594
 31
0.0
  0
ARC
  5
209
330
1F
100
AcDbEntity
  8
0
  6
Continuous
 62
     7
370
    25
100
AcDbCircle
 10
7261.1148643464
 20
5277.5755273248
 30
0.0
 40
0.6676186886570576
100
AcDbArc
 50
180.0
 51
0.0
  0
LINE
  5
20A
330
1F
100
AcDbEntity
  8
0
  6
Continuous
 62
     7
370
    25
100
AcDbLine
 10
7261.7824830351
 20
5280.0074046242
 30
0.0
 11
7261.7824830351
 21
5277.5755273248
 31
0.0
  0
ARC
  5
20B
330
1F
100
AcDbEntity
  8
0
  6
Continuous
 62
     7
370
    25
100
AcDbCircle
 10
7262.0225931514
 20
5280.0074046242
 30
0.0
 40
0.2401101162877239
100
AcDbArc
 50
90.0
 51
180.0
  0
LINE
  5
20C
330
1F
100
AcDbEntity
  8
0
  6
Continuous
 62
     7
370
    25
100
AcDbLine
 10
7262.7697126933
 20
5280.2475147405
 30
0.0
 11
7262.0225931514
 21
5280.2475147405
 31
0.0
  0
ARC
  5
20D
330
1F
100
AcDbEntity
  8
0
  6
Continuous
 62
     7
370
    25
100
AcDbCircle
 10
7262.7697126933
 20
5280.0074046242
 30
0.0
 40
0.2401101162877239
100
AcDbArc
 50
0.0
 51
90.0
  0
LINE
  5
20E
330
1F
100
AcDbEntity
  8
0
  6
Continuous
 62
     7
370
    25
100
AcDbLine
 10
7263.0098228096
 20
5277.5755273248
 30
0.0
 11
7263.0098228096
 21
5280.0074046242
 31
0.0
  0
ARC
  5
20F
330
1F
100
AcDbEntity
  8
0
  6
Continuous
 62
     7
370
    25
100
AcDbCircle
 10
7263.6774414982
 20
5277.5755273248
 30
0.0
 40
0.6676186886570576
100
AcDbArc
 50
180.0
 51
0.0
  0
LINE
  5
210
330
1F
100
AcDbEntity
  8
0
  6
Continuous
 62
     7
370
    25
100
AcDbLine
 10
7264.3450601869
 20
5279.0910543155
 30
0.0
 11
7264.3450601869
 21
5277.5755273248
 31
0.0
  0
ARC
  5
211
330
1F
100
AcDbEntity
  8
0
  6
Continuous
 62
     7
370
    25
100
AcDbCircle
 10
7264.5851703032
 20
5279.0910543155
 30
0.0
 40
0.2401101162877239
100
AcDbArc
 50
90.0
 51
180.0
  0
LINE
  5
212
330
1F
100
AcDbEntity
  8
0
  6
Continuous
 62
     7
370
    25
100
AcDbLine
 10
7265.2471980277
 20
5279.3311644318
 30
0.0
 11
7264.5851703032
 21
5279.3311644318
 31
0.0
  0
ARC
  5
213
330
1F
100
AcDbEntity
  8
0
  6
Continuous
 62
     7
370
    25
100
AcDbCircle
 10
7265.2471980277
 20
5279.0910543155
 30
0.0
 40
0.2401101162877239
100
AcDbArc
 50
0.0
 51
90.0
  0
LINE
  5
214
330
1F
100
AcDbEntity
  8
0
  6
Continuous
 62
     7
370
    25
100
AcDbLine
 10
7265.487308144
 20
5271.2078920347
 30
0.0
 11
7265.487308144
 21
5279.0910543155
 31
0.0
  0
ARC
  5
215
330
1F
100
AcDbEntity
  8
0
  6
Continuous
 62
     7
370
    25
100
AcDbCircle
 10
7261.9613075933
 20
5271.2078920347
 30
0.0
 40
3.526000550637946
100
AcDbArc
 50
270.0
 51
0.0
  0
LINE
  5
216
330
1F
100
AcDbEntity
  8
0
  6
Continuous
 62
     7
370
    25
100
AcDbLine
 10
7259.5940831864
 20
5267.6818914841
 30
0.0
 11
7261.9613075933
 21
5267.6818914841
 31
0.0
  0
ARC
  5
217
330
1F
100
AcDbEntity
  8
0
  6
Continuous
 62
     7
370
    25
100
AcDbCircle
 10
7259.5940831864
 20
5272.9748218118
 30
0.0
 40
5.292930327734211
100
AcDbArc
 50
180.0
 51
270.0
  0
LINE
  5
218
330
1F
100
AcDbEntity
  8
0
  6
Continuous
 62
     7
370
    25
100
AcDbLine
 10
7254.3011528586
 20
5277.4209295739
 30
0.0
 11
7254.3011528586
 21
5272.9748218118
 31
0.0
  0
ARC
  5
219
330
1F
100
AcDbEntity
  8
0
  6
Continuous
 62
     7
370
    25
100
AcDbCircle
 10
7253.9578388153
 20
5275.9202872112
 30
0.0
 40
1.539412885871721
100
AcDbArc
 50
0.0
 51
77.1137478469
  0
LINE
  5
21A
330
1F
100
AcDbEntity
  8
0
  6
Continuous
 62
     7
370
    25
100
AcDbLine
 10
7255.4972517012
 20
5273.9658663291
 30
0.0
 11
7255.4972517012
 21
5275.9202872112
 31
0.0
  0
ARC
  5
21B
330
1F
100
AcDbEntity
  8
0
  6
Continuous
 62
     7
370
    25
100
AcDbCircle
 10
7256.1648703898
 20
5273.9658663291
 30
0.0
 40
0.6676186886570576
100
AcDbArc
 50
180.0
 51
0.0
  0
LINE
  5
21C
330
1F
100
AcDbEntity
  8
0
  6
Continuous
 62
     7
370
    25
100
AcDbLine
 10
7256.8324890785
 20
5285.2463675989
 30
0.0
 11
7256.8324890785
 21
5273.9658663291
 31
0.0
  0
LINE
  5
21D
330
1F
100
AcDbEntity
  8
0
  6
Continuous
 62
     7
370
    25
100
AcDbLine
 10
7258.007374869
 20
5277.5755273248
 30
0.0
 11
7258.007374869
 21
5285.2463675989
 31
0.0
  0
ARC
  5
21E
330
1F
100
AcDbEntity
  8
0
  6
Continuous
 62
     7
370
    25
100
AcDbCircle
 10
7257.4199319737
 20
5285.2463675989
 30
0.0
 40
0.5874428952447488
100
AcDbArc
 50
0.0
 51
180.0
  0
CIRCLE
  5
21F
330
1F
100
AcDbEntity
  8
0
  6
Continuous
 62
     7
370
    25
100
AcDbCircle
 10
7259.4269011044
 20
5276.5042541414
 30
0.0
 40
12.5
  0
LINE
  5
220
330
1F
100
AcDbEntity
  8
0
  6
Continuous
 62
     7
370
    25
100
AcDbLine
 10
7259.036974869
 20
5281.7006479544
 30
0.0
 11
7259.036974869
 21
5285.2463675989
 31
0.0
  0
ARC
  5
221
330
1F
100
AcDbEntity
  8
0
  6
Continuous
 62
     7
370
    25
100
AcDbCircle
 10
7257.4199319737
 20
5285.2463675989
 30
0.0
 40
1.617042895244595
100
AcDbArc
 50
0.0
 51
180.0
  0
LINE
  5
222
330
1F
100
AcDbEntity
  8
0
  6
Continuous
 62
     7
370
    25
100
AcDbLine
 10
7255.8028890785
 20
5285.2463675989
 30
0.0
 11
7255.8028890785
 21
5277.7079160133
 31
0.0
  0
ARC
  5
223
330
1F
100
AcDbEntity
  8
0
  6
Continuous
 62
     7
370
    25
100
AcDbCircle
 10
7253.9578388153
 20
5275.9202872112
 30
0.0
 40
2.569012885871402
100
AcDbArc
 50
44.0944057145
 51
105.4941474424
  0
LINE
  5
224
330
1F
100
AcDbEntity
  8
0
  6
Continuous
 62
     7
370
    25
100
AcDbLine
 10
7253.2715528586
 20
5278.3959363772
 30
0.0
 11
7253.2715528586
 21
5272.9748218118
 31
0.0
  0
ARC
  5
225
330
1F
100
AcDbEntity
  8
0
  6
Continuous
 62
     7
370
    25
100
AcDbCircle
 10
7259.5940831864
 20
5272.9748218118
 30
0.0
 40
6.322530327734057
100
AcDbArc
 50
180.0
 51
270.0
  0
LINE
  5
226
330
1F
100
AcDbEntity
  8
0
  6
Continuous
 62
     7
370
    25
100
AcDbLine
 10
7259.5940831864
 20
5266.6522914841
 30
0.0
 11
7261.9613075933
 21
5266.6522914841
 31
0.0
  0
ARC
  5
227
330
1F
100
AcDbEntity
  8
0
  6
Continuous
 62
     7
370
    25
100
AcDbCircle
 10
7261.9613075933
 20
5271.2078920347
 30
0.0
 40
4.555600550637791
100
AcDbArc
 50
270.0
 51
0.0
  0
LINE
  5
228
330
1F
100
AcDbEntity
  8
0
  6
Continuous
 62
     7
370
    25
100
AcDbLine
 10
7266.516908144
 20
5271.2078920347
 30
0.0
 11
7266.516908144
 21
5279.044662563
 31
0.0
  0
ARC
  5
229
330
1F
100
AcDbEntity
  8
0
  6
Continuous
 62
     7
370
    25
100
AcDbCircle
 10
7265.1632968978
 20
5279.044662563
 30
0.0
 40
1.353611246209766
100
AcDbArc
 50
0.0
 51
90.0
  0
LINE
  5
22A
330
1F
100
AcDbEntity
  8
0
  6
Continuous
 62
     7
370
    25
100
AcDbLine
 10
7265.1632968978
 20
5280.3982738092
 30
0.0
 11
7264.6690714331
 21
5280.3982738092
 31
0.0
  0
ARC
  5
22B
330
1F
100
AcDbEntity
  8
0
  6
Continuous
 62
     7
370
    25
100
AcDbCircle
 10
7264.6690714331
 20
5279.044662563
 30
0.0
 40
1.353611246210064
100
AcDbArc
 50
90.0
 51
118.7365577358
  0
ARC
  5
22C
330
1F
100
AcDbEntity
  8
0
  6
Continuous
 62
     7
370
    25
100
AcDbCircle
 10
7262.6858115633
 20
5279.9932424864
 30
0.0
 40
1.353611246207947
100
AcDbArc
 50
10.1404867648
 51
90.0000000001
  0
LINE
  5
22D
330
1F
100
AcDbEntity
  8
0
  6
Continuous
 62
     7
370
    25
100
AcDbLine
 10
7262.6858115633
 20
5281.3468537327
 30
0.0
 11
7262.1064942813
 21
5281.3468537327
 31
0.0
  0
ARC
  5
22E
330
1F
100
AcDbEntity
  8
0
  6
Continuous
 62
     7
370
    25
100
AcDbCircle
 10
7262.1064942813
 20
5279.9932424864
 30
0.0
 40
1.353611246208256
100
AcDbArc
 50
90.0
 51
124.7440022271
  0
ARC
  5
22F
330
1F
100
AcDbEntity
  8
0
  6
Continuous
 62
     7
370
    25
100
AcDbCircle
 10
7260.1232344116
 20
5280.5023967216
 30
0.0
 40
1.353611246207373
100
AcDbArc
 50
26.4592691592
 51
90.0
  0
LINE
  5
230
330
1F
100
AcDbEntity
  8
0
  6
Continuous
 62
     7
370
    25
100
AcDbLine
 10
7260.1232344116
 20
5281.8560079678
 30
0.0
 11
7259.6666234925
 21
5281.8560079678
 31
0.0
  0
ARC
  5
231
330
1F
100
AcDbEntity
  8
0
  6
Continuous
 62
     7
370
    25
100
AcDbCircle
 10
7259.6666234925
 20
5280.5023967216
 30
0.0
 40
1.353611246208415
100
AcDbArc
 50
90.0
 51
117.7207121261
  0
CIRCLE
  5
232
330
1F
100
AcDbEntity
  8
0
  6
Continuous
 62
     7
370
    25
100
AcDbCircle
 10
7259.4269011044
 20
5276.5042541414
 30
0.0
 40
14.0
  0
CIRCLE
  5
233
330
1F
100
AcDbEntity
  8
0
  6
Continuous
 62
     7
370
    25
100
AcDbCircle
 10
6059.4269011044
 20
5276.5042541414
 30
0.0
 40
12.50000000000091
  0
LINE
  5
234
330
1F
100
AcDbEntity
  8
0
  6
Continuous
 62
     7
370
    25
100
AcDbLine
 10
6059.036974869
 20
5281.7006479544
 30
0.0
 11
6059.036974869
 21
5285.2463675989
 31
0.0
  0
ARC
  5
235
330
1F
100
AcDbEntity
  8
0
  6
Continuous
 62
     7
370
    25
100
AcDbCircle
 10
6057.4199319737
 20
5285.2463675989
 30
0.0
 40
1.617042895244595
100
AcDbArc
 50
0.0
 51
180.0
  0
LINE
  5
236
330
1F
100
AcDbEntity
  8
0
  6
Continuous
 62
     7
370
    25
100
AcDbLine
 10
6055.8028890785
 20
5285.2463675989
 30
0.0
 11
6055.8028890785
 21
5277.7079160133
 31
0.0
  0
ARC
  5
237
330
1F
100
AcDbEntity
  8
0
  6
Continuous
 62
     7
370
    25
100
AcDbCircle
 10
6053.9578388153
 20
5275.9202872112
 30
0.0
 40
2.56901288587116
100
AcDbArc
 50
44.0944057145
 51
105.4941474424
  0
LINE
  5
238
330
1F
100
AcDbEntity
  8
0
  6
Continuous
 62
     7
370
    25
100
AcDbLine
 10
6053.2715528586
 20
5278.3959363772
 30
0.0
 11
6053.2715528586
 21
5272.9748218118
 31
0.0
  0
ARC
  5
239
330
1F
100
AcDbEntity
  8
0
  6
Continuous
 62
     7
370
    25
100
AcDbCircle
 10
6059.5940831864
 20
5272.9748218118
 30
0.0
 40
6.322530327734057
100
AcDbArc
 50
180.0
 51
270.0
  0
LINE
  5
23A
330
1F
100
AcDbEntity
  8
0
  6
Continuous
 62
     7
370
    25
100
AcDbLine
 10
6059.5940831864
 20
5266.6522914841
 30
0.0
 11
6061.9613075933
 21
5266.6522914841
 31
0.0
  0
ARC
  5
23B
330
1F
100
AcDbEntity
  8
0
  6
Continuous
 62
     7
370
    25
100
AcDbCircle
 10
6061.9613075933
 20
5271.2078920347
 30
0.0
 40
4.555600550638701
100
AcDbArc
 50
270.0
 51
0.0
  0
LINE
  5
23C
330
1F
100
AcDbEntity
  8
0
  6
Continuous
 62
     7
370
    25
100
AcDbLine
 10
6066.516908144
 20
5271.2078920347
 30
0.0
 11
6066.516908144
 21
5279.044662563
 31
0.0
  0
ARC
  5
23D
330
1F
100
AcDbEntity
  8
0
  6
Continuous
 62
     7
370
    25
100
AcDbCircle
 10
6065.1632968978
 20
5279.044662563
 30
0.0
 40
1.353611246209766
100
AcDbArc
 50
0.0
 51
90.0
  0
LINE
  5
23E
330
1F
100
AcDbEntity
  8
0
  6
Continuous
 62
     7
370
    25
100
AcDbLine
 10
6065.1632968978
 20
5280.3982738092
 30
0.0
 11
6064.6690714331
 21
5280.3982738092
 31
0.0
  0
ARC
  5
23F
330
1F
100
AcDbEntity
  8
0
  6
Continuous
 62
     7
370
    25
100
AcDbCircle
 10
6064.6690714331
 20
5279.044662563
 30
0.0
 40
1.353611246210064
100
AcDbArc
 50
90.0
 51
118.7365577358
  0
ARC
  5
240
330
1F
100
AcDbEntity
  8
0
  6
Continuous
 62
     7
370
    25
100
AcDbCircle
 10
6062.6858115633
 20
5279.9932424864
 30
0.0
 40
1.353611246207947
100
AcDbArc
 50
10.1404867648
 51
90.0
  0
LINE
  5
241
330
1F
100
AcDbEntity
  8
0
  6
Continuous
 62
     7
370
    25
100
AcDbLine
 10
6062.6858115633
 20
5281.3468537327
 30
0.0
 11
6062.1064942813
 21
5281.3468537327
 31
0.0
  0
ARC
  5
242
330
1F
100
AcDbEntity
  8
0
  6
Continuous
 62
     7
370
    25
100
AcDbCircle
 10
6062.1064942813
 20
5279.9932424864
 30
0.0
 40
1.353611246208256
100
AcDbArc
 50
90.0
 51
124.7440022271
  0
ARC
  5
243
330
1F
100
AcDbEntity
  8
0
  6
Continuous
 62
     7
370
    25
100
AcDbCircle
 10
6060.1232344116
 20
5280.5023967216
 30
0.0
 40
1.353611246207373
100
AcDbArc
 50
26.4592691592
 51
90.0
  0
LINE
  5
244
330
1F
100
AcDbEntity
  8
0
  6
Continuous
 62
     7
370
    25
100
AcDbLine
 10
6060.1232344116
 20
5281.8560079678
 30
0.0
 11
6059.6666234925
 21
5281.8560079678
 31
0.0
  0
ARC
  5
245
330
1F
100
AcDbEntity
  8
0
  6
Continuous
 62
     7
370
    25
100
AcDbCircle
 10
6059.6666234925
 20
5280.5023967216
 30
0.0
 40
1.353611246208415
100
AcDbArc
 50
90.0
 51
117.7207121261
  0
ARC
  5
246
330
1F
100
AcDbEntity
  8
0
  6
Continuous
 62
     7
370
    25
100
AcDbCircle
 10
6058.6749935576
 20
5277.5755273248
 30
0.0
 40
0.6676186886570576
100
AcDbArc
 50
180.0
 51
0.0
  0
LINE
  5
247
330
1F
100
AcDbEntity
  8
0
  6
Continuous
 62
     7
370
    25
100
AcDbLine
 10
6059.3426122463
 20
5280.5165588594
 30
0.0
 11
6059.3426122463
 21
5277.5755273248
 31
0.0
  0
ARC
  5
248
330
1F
100
AcDbEntity
  8
0
  6
Continuous
 62
     7
370
    25
100
AcDbCircle
 10
6059.5827223626
 20
5280.5165588594
 30
0.0
 40
0.2401101162877239
100
AcDbArc
 50
90.0
 51
180.0
  0
LINE
  5
249
330
1F
100
AcDbEntity
  8
0
  6
Continuous
 62
     7
370
    25
100
AcDbLine
 10
6060.2071355415
 20
5280.7566689757
 30
0.0
 11
6059.5827223626
 21
5280.7566689757
 31
0.0
  0
ARC
  5
24A
330
1F
100
AcDbEntity
  8
0
  6
Continuous
 62
     7
370
    25
100
AcDbCircle
 10
6060.2071355415
 20
5280.5165588594
 30
0.0
 40
0.2401101162886334
100
AcDbArc
 50
0.0
 51
90.0
  0
LINE
  5
24B
330
1F
100
AcDbEntity
  8
0
  6
Continuous
 62
     7
370
    25
100
AcDbLine
 10
6060.4472456578
 20
5277.5755273248
 30
0.0
 11
6060.4472456578
 21
5280.5165588594
 31
0.0
  0
ARC
  5
24C
330
1F
100
AcDbEntity
  8
0
  6
Continuous
 62
     7
370
    25
100
AcDbCircle
 10
6061.1148643464
 20
5277.5755273248
 30
0.0
 40
0.6676186886561482
100
AcDbArc
 50
180.0
 51
0.0
  0
LINE
  5
24D
330
1F
100
AcDbEntity
  8
0
  6
Continuous
 62
     7
370
    25
100
AcDbLine
 10
6061.7824830351
 20
5280.0074046242
 30
0.0
 11
6061.7824830351
 21
5277.5755273248
 31
0.0
  0
ARC
  5
24E
330
1F
100
AcDbEntity
  8
0
  6
Continuous
 62
     7
370
    25
100
AcDbCircle
 10
6062.0225931514
 20
5280.0074046242
 30
0.0
 40
0.2401101162877239
100
AcDbArc
 50
90.0
 51
180.0
  0
LINE
  5
24F
330
1F
100
AcDbEntity
  8
0
  6
Continuous
 62
     7
370
    25
100
AcDbLine
 10
6062.7697126933
 20
5280.2475147405
 30
0.0
 11
6062.0225931514
 21
5280.2475147405
 31
0.0
  0
ARC
  5
250
330
1F
100
AcDbEntity
  8
0
  6
Continuous
 62
     7
370
    25
100
AcDbCircle
 10
6062.7697126933
 20
5280.0074046242
 30
0.0
 40
0.2401101162886334
100
AcDbArc
 50
0.0
 51
90.0
  0
LINE
  5
251
330
1F
100
AcDbEntity
  8
0
  6
Continuous
 62
     7
370
    25
100
AcDbLine
 10
6063.0098228096
 20
5277.5755273248
 30
0.0
 11
6063.0098228096
 21
5280.0074046242
 31
0.0
  0
ARC
  5
252
330
1F
100
AcDbEntity
  8
0
  6
Continuous
 62
     7
370
    25
100
AcDbCircle
 10
6063.6774414982
 20
5277.5755273248
 30
0.0
 40
0.6676186886561482
100
AcDbArc
 50
180.0
 51
0.0
  0
LINE
  5
253
330
1F
100
AcDbEntity
  8
0
  6
Continuous
 62
     7
370
    25
100
AcDbLine
 10
6064.3450601869
 20
5279.0910543155
 30
0.0
 11
6064.3450601869
 21
5277.5755273248
 31
0.0
  0
ARC
  5
254
330
1F
100
AcDbEntity
  8
0
  6
Continuous
 62
     7
370
    25
100
AcDbCircle
 10
6064.5851703032
 20
5279.0910543155
 30
0.0
 40
0.2401101162877239
100
AcDbArc
 50
90.0
 51
180.0
  0
LINE
  5
255
330
1F
100
AcDbEntity
  8
0
  6
Continuous
 62
     7
370
    25
100
AcDbLine
 10
6065.2471980277
 20
5279.3311644318
 30
0.0
 11
6064.5851703032
 21
5279.3311644318
 31
0.0
  0
ARC
  5
256
330
1F
100
AcDbEntity
  8
0
  6
Continuous
 62
     7
370
    25
100
AcDbCircle
 10
6065.2471980277
 20
5279.0910543155
 30
0.0
 40
0.2401101162886334
100
AcDbArc
 50
0.0
 51
90.0
  0
LINE
  5
257
330
1F
100
AcDbEntity
  8
0
  6
Continuous
 62
     7
370
    25
100
AcDbLine
 10
6065.487308144
 20
5271.2078920347
 30
0.0
 11
6065.487308144
 21
5279.0910543155
 31
0.0
  0
ARC
  5
258
330
1F
100
AcDbEntity
  8
0
  6
Continuous
 62
     7
370
    25
100
AcDbCircle
 10
6061.9613075933
 20
5271.2078920347
 30
0.0
 40
3.526000550638855
100
AcDbArc
 50
270.0
 51
0.0
  0
LINE
  5
259
330
1F
100
AcDbEntity
  8
0
  6
Continuous
 62
     7
370
    25
100
AcDbLine
 10
6059.5940831864
 20
5267.6818914841
 30
0.0
 11
6061.9613075933
 21
5267.6818914841
 31
0.0
  0
ARC
  5
25A
330
1F
100
AcDbEntity
  8
0
  6
Continuous
 62
     7
370
    25
100
AcDbCircle
 10
6059.5940831864
 20
5272.9748218118
 30
0.0
 40
5.292930327735121
100
AcDbArc
 50
180.0
 51
270.0
  0
LINE
  5
25B
330
1F
100
AcDbEntity
  8
0
  6
Continuous
 62
     7
370
    25
100
AcDbLine
 10
6054.3011528586
 20
5277.4209295739
 30
0.0
 11
6054.3011528586
 21
5272.9748218118
 31
0.0
  0
ARC
  5
25C
330
1F
100
AcDbEntity
  8
0
  6
Continuous
 62
     7
370
    25
100
AcDbCircle
 10
6053.9578388153
 20
5275.9202872112
 30
0.0
 40
1.539412885871721
100
AcDbArc
 50
0.0
 51
77.1137478469
  0
LINE
  5
25D
330
1F
100
AcDbEntity
  8
0
  6
Continuous
 62
     7
370
    25
100
AcDbLine
 10
6055.4972517012
 20
5273.9658663291
 30
0.0
 11
6055.4972517012
 21
5275.9202872112
 31
0.0
  0
ARC
  5
25E
330
1F
100
AcDbEntity
  8
0
  6
Continuous
 62
     7
370
    25
100
AcDbCircle
 10
6056.1648703898
 20
5273.9658663291
 30
0.0
 40
0.6676186886570576
100
AcDbArc
 50
180.0
 51
0.0
  0
LINE
  5
25F
330
1F
100
AcDbEntity
  8
0
  6
Continuous
 62
     7
370
    25
100
AcDbLine
 10
6056.8324890785
 20
5285.2463675989
 30
0.0
 11
6056.8324890785
 21
5273.9658663291
 31
0.0
  0
LINE
  5
260
330
1F
100
AcDbEntity
  8
0
  6
Continuous
 62
     7
370
    25
100
AcDbLine
 10
6058.007374869
 20
5277.5755273248
 30
0.0
 11
6058.007374869
 21
5285.2463675989
 31
0.0
  0
ARC
  5
261
330
1F
100
AcDbEntity
  8
0
  6
Continuous
 62
     7
370
    25
100
AcDbCircle
 10
6057.4199319737
 20
5285.2463675989
 30
0.0
 40
0.5874428952447488
100
AcDbArc
 50
0.0
 51
180.0
  0
CIRCLE
  5
262
330
1F
100
AcDbEntity
  8
0
  6
Continuous
 62
     7
370
    25
100
AcDbCircle
 10
6059.4269011044
 20
5276.5042541414
 30
0.0
 40
14.00000000000091
  0
LINE
  5
263
330
1F
100
AcDbEntity
  8
0
  6
Continuous
 62
     7
370
    25
100
AcDbLine
 10
7140.9269011006
 20
5262.5042541272
 30
0.0
 11
7137.9269011006
 21
5262.5042541272
 31
0.0
  0
LINE
  5
264
330
1F
100
AcDbEntity
  8
0
  6
Continuous
 62
     7
370
    25
100
AcDbLine
 10
5340.9269011003
 20
5262.504254126
 30
0.0
 11
5337.9269011003
 21
5262.504254126
 31
0.0
  0
LINE
  5
265
330
1F
100
AcDbEntity
  8
0
  6
Continuous
 62
     7
370
    25
100
AcDbLine
 10
6540.9269011006
 20
5262.5042541272
 30
0.0
 11
6537.9269011006
 21
5262.5042541272
 31
0.0
  0
LINE
  5
266
330
1F
100
AcDbEntity
  8
0
  6
Continuous
 62
     7
370
    25
100
AcDbLine
 10
7740.9269011006
 20
5262.5042541272
 30
0.0
 11
7737.9269011006
 21
5262.5042541272
 31
0.0
  0
LINE
  5
267
330
1F
100
AcDbEntity
  8
0
  6
Continuous
 62
     7
370
    25
100
AcDbLine
 10
5940.9269011006
 20
5262.5042541272
 30
0.0
 11
5937.9269011006
 21
5262.5042541272
 31
0.0
  0
ARC
  5
268
330
1F
100
AcDbEntity
  8
0
  6
Continuous
 62
     7
370
    25
100
AcDbCircle
 10
7739.5365139765
 20
5298.6462427578
 30
0.0
 40
32.33234845695852
100
AcDbArc
 50
270.3195445577
 51
277.00524986
  0
ARC
  5
269
330
1F
100
AcDbEntity
  8
0
  6
Continuous
 62
     7
370
    25
100
AcDbCircle
 10
7741.3358775745
 20
5284.233573546
 30
0.0
 40
18.76440461073175
100
AcDbArc
 50
277.5095473836
 51
284.9272291806
  0
LINE
  5
26A
330
1F
100
AcDbEntity
  8
0
  6
Continuous
 62
     7
370
    25
100
AcDbLine
 10
7746.1694385291
 20
5267.0683226622
 30
0.0
 11
7746.1694385291
 21
5266.1023968359
 31
0.0
  0
ARC
  5
26B
330
1F
100
AcDbEntity
  8
0
  6
Continuous
 62
     7
370
    25
100
AcDbCircle
 10
7744.294341742
 20
5274.4450983759
 30
0.0
 40
7.611360449442052
100
AcDbArc
 50
284.2619248087
 51
297.2228497749
  0
ARC
  5
26C
330
1F
100
AcDbEntity
  8
0
  6
Continuous
 62
     7
370
    25
100
AcDbCircle
 10
7747.7698008712
 20
5267.7923206614
 30
0.0
 40
0.9028767270883965
100
AcDbArc
 50
304.3231205501
 51
1.5289520688
  0
LINE
  5
26D
330
1F
100
AcDbEntity
  8
0
  6
Continuous
 62
     7
370
    25
100
AcDbLine
 10
7748.672356147
 20
5268.4201149326
 30
0.0
 11
7748.672356147
 21
5267.8164112911
 31
0.0
  0
LINE
  5
26E
330
1F
100
AcDbEntity
  8
0
  6
Continuous
 62
     7
370
    25
100
AcDbLine
 10
7747.5841901095
 20
5269.1818162441
 30
0.0
 11
7747.5841901095
 21
5268.8701645413
 31
0.0
  0
ARC
  5
26F
330
1F
100
AcDbEntity
  8
0
  6
Continuous
 62
     7
370
    25
100
AcDbCircle
 10
7743.6953971788
 20
5260.3656524541
 30
0.0
 40
9.351440332829958
100
AcDbArc
 50
65.4271673511
 51
77.2488974281
  0
LINE
  5
270
330
1F
100
AcDbEntity
  8
0
  6
Continuous
 62
     7
370
    25
100
AcDbLine
 10
7745.7594115909
 20
5269.7025114919
 30
0.0
 11
7745.7594115909
 21
5269.4864682512
 31
0.0
  0
LINE
  5
271
330
1F
100
AcDbEntity
  8
0
  6
Continuous
 62
     7
370
    25
100
AcDbLine
 10
7742.1110545886
 20
5270.2009821384
 30
0.0
 11
7742.1110545886
 21
5270.0324361135
 31
0.0
  0
ARC
  5
272
330
1F
100
AcDbEntity
  8
0
  6
Continuous
 62
     7
370
    25
100
AcDbCircle
 10
7739.4400878069
 20
5235.5068817481
 30
0.0
 40
34.62871594195821
100
AcDbArc
 50
85.5762935841
 51
90.5015401573
  0
LINE
  5
273
330
1F
100
AcDbEntity
  8
0
  6
Continuous
 62
     7
370
    25
100
AcDbLine
 10
7739.1369682754
 20
5270.2961073859
 30
0.0
 11
7739.1369682754
 21
5270.1342709991
 31
0.0
  0
LINE
  5
274
330
1F
100
AcDbEntity
  8
0
  6
Continuous
 62
     7
370
    25
100
AcDbLine
 10
7735.0655783598
 20
5270.0344332387
 30
0.0
 11
7735.0655783598
 21
5269.8526329043
 31
0.0
  0
ARC
  5
275
330
1F
100
AcDbEntity
  8
0
  6
Continuous
 62
     7
370
    25
100
AcDbCircle
 10
7737.5179246332
 20
5251.2491687603
 30
0.0
 40
18.76440461090815
100
AcDbArc
 50
97.5095473836
 51
104.9272291805
  0
LINE
  5
276
330
1F
100
AcDbEntity
  8
0
  6
Continuous
 62
     7
370
    25
100
AcDbLine
 10
7732.6843636786
 20
5269.6087073199
 30
0.0
 11
7732.6843636786
 21
5269.3803454706
 31
0.0
  0
LINE
  5
277
330
1F
100
AcDbEntity
  8
0
  6
Continuous
 62
     7
370
    25
100
AcDbLine
 10
7730.5749058446
 20
5268.8742125318
 30
0.0
 11
7730.5749058446
 21
5268.4360811951
 31
0.0
  0
ARC
  5
278
330
1F
100
AcDbEntity
  8
0
  6
Continuous
 62
     7
370
    25
100
AcDbCircle
 10
7731.0840013365
 20
5267.6904216451
 30
0.0
 40
0.9028767270910998
100
AcDbArc
 50
124.32312055
 51
181.5289520687
  0
ARC
  5
279
330
1F
100
AcDbEntity
  8
0
  6
Continuous
 62
     7
370
    25
100
AcDbCircle
 10
7732.7945438224
 20
5270.8224416166
 30
0.0
 40
3.58448750509358
100
AcDbArc
 50
234.280309951
 51
244.8224125985
  0
LINE
  5
27A
330
1F
100
AcDbEntity
  8
0
  6
Continuous
 62
     7
370
    25
100
AcDbLine
 10
7731.2696120982
 20
5267.5785035915
 30
0.0
 11
7731.2696120982
 21
5266.6125777653
 31
0.0
  0
ARC
  5
27B
330
1F
100
AcDbEntity
  8
0
  6
Continuous
 62
     7
370
    25
100
AcDbCircle
 10
7735.1584050289
 20
5275.1170898524
 30
0.0
 40
9.351440332874862
100
AcDbArc
 50
245.4271673511
 51
257.248897428
  0
ARC
  5
27C
330
1F
100
AcDbEntity
  8
0
  6
Continuous
 62
     7
370
    25
100
AcDbCircle
 10
7738.487100542
 20
5290.734417263
 30
0.0
 40
24.38066653455759
100
AcDbArc
 50
258.189300535
 51
265.8971784142
  0
LINE
  5
27D
330
1F
100
AcDbEntity
  8
0
  6
Continuous
 62
     7
370
    25
100
AcDbLine
 10
7736.7427476191
 20
5266.4162320193
 30
0.0
 11
7736.7427476191
 21
5265.450306193
 31
0.0
  0
ARC
  5
27E
330
1F
100
AcDbEntity
  8
0
  6
Continuous
 62
     7
370
    25
100
AcDbCircle
 10
7739.4137144008
 20
5299.9758605588
 30
0.0
 40
34.62871594229735
100
AcDbArc
 50
265.5762935841
 51
270.5015401573
  0
LWPOLYLINE
  5
27F
330
1F
100
AcDbEntity
  8
0
  6
Continuous
 62
     7
370
    25
100
AcDbPolyline
 90
        6
 70
   128
 43
0.0
 10
7732.8785607305
 20
5267.4085065368
 10
7731.9783275142
 20
5267.7892642768
 10
7731.4036327059
 20
5268.210144451
 10
7731.1795932265
 20
5268.6527525763
 10
7731.3160006764
 20
5269.0977445538
 10
7731.4433977999
 20
5269.2456265943
  0
LWPOLYLINE
  5
280
330
1F
100
AcDbEntity
  8
0
  6
Continuous
 62
     7
370
    25
100
AcDbPolyline
 90
       14
 70
   128
 43
0.0
 10
7747.6015421654
 20
5268.995243318
 10
7747.6742089812
 20
5268.7618413828
 10
7747.5378015313
 20
5268.3168494053
 10
7747.0469088123
 20
5267.8889218604
 10
7746.2229851917
 20
5267.4967612352
 10
7745.1020400851
 20
5267.1575068308
 10
7743.7330641728
 20
5266.8859856926
 10
7742.1758882711
 20
5266.6940645973
 10
7740.498568439
 20
5266.5901314177
 10
7738.774411602
 20
5266.5787285324
 10
7737.0787716872
 20
5266.6603543022
 10
7735.4857562955
 20
5266.8314412894
 10
7734.0649878436
 20
5267.0845121716
 10
7732.8785607305
 20
5267.4085065368
  0
LINE
  5
281
330
1F
100
AcDbEntity
  8
0
  6
Continuous
 62
     7
370
    25
100
AcDbLine
 10
7748.1696381022
 20
5268.79955055
 30
0.0
 11
7748.4314492544
 21
5268.7905859452
 31
0.0
  0
ARC
  5
282
330
1F
100
AcDbEntity
  8
0
  6
Continuous
 62
     7
370
    25
100
AcDbCircle
 10
7747.1862921543
 20
5268.8512650591
 30
0.0
 40
1.011320879477673
100
AcDbArc
 50
305.6817763791
 51
346.4922228011
  0
LINE
  5
283
330
1F
100
AcDbEntity
  8
0
  6
Continuous
 62
     7
370
    25
100
AcDbLine
 10
7746.1694385291
 20
5267.0683226622
 30
0.0
 11
7745.8609911633
 21
5267.1724981848
 31
0.0
  0
ARC
  5
284
330
1F
100
AcDbEntity
  8
0
  6
Continuous
 62
     7
370
    25
100
AcDbCircle
 10
7741.228966855
 20
5284.287552113
 30
0.0
 40
17.73078453305504
100
AcDbArc
 50
277.2930101399
 51
285.1437664243
  0
ARC
  5
285
330
1F
100
AcDbEntity
  8
0
  6
Continuous
 62
     7
370
    25
100
AcDbCircle
 10
7739.4151308752
 20
5299.1709141326
 30
0.0
 40
32.72847533113276
100
AcDbArc
 50
265.4332158269
 51
270.6446179145
  0
LINE
  5
286
330
1F
100
AcDbEntity
  8
0
  6
Continuous
 62
     7
370
    25
100
AcDbLine
 10
7736.8092552158
 20
5266.5463450236
 30
0.0
 11
7736.7427476191
 21
5266.4162320193
 31
0.0
  0
ARC
  5
287
330
1F
100
AcDbEntity
  8
0
  6
Continuous
 62
     7
370
    25
100
AcDbCircle
 10
7735.3944343477
 20
5275.6699443785
 30
0.0
 40
8.834111884687173
100
AcDbArc
 50
245.0796807338
 51
257.5963840454
  0
LINE
  5
288
330
1F
100
AcDbEntity
  8
0
  6
Continuous
 62
     7
370
    25
100
AcDbLine
 10
7731.2696120982
 20
5267.5785035915
 30
0.0
 11
7731.6721154093
 21
5267.6583356442
 31
0.0
  0
LWPOLYLINE
  5
289
330
1F
100
AcDbEntity
  8
0
  6
Continuous
 62
     7
370
    25
100
AcDbPolyline
 90
        3
 70
   128
 43
0.0
 10
7731.9269011038
 20
5268.7836794067
 10
7731.4036327059
 20
5269.1760702773
 10
7731.3666164898
 20
5269.2179431155
  0
LINE
  5
28A
330
1F
100
AcDbEntity
  8
0
  6
Continuous
 62
     7
370
    25
100
AcDbLine
 10
7747.0466182845
 20
5268.8546664997
 30
0.0
 11
7746.9269011038
 21
5268.7836794067
 31
0.0
  0
LINE
  5
28B
330
1F
100
AcDbEntity
  8
0
  6
Continuous
 62
     7
370
    25
100
AcDbLine
 10
7742.0445469918
 20
5269.9023231092
 30
0.0
 11
7742.1110545886
 21
5270.0324361135
 31
0.0
  0
ARC
  5
28C
330
1F
100
AcDbEntity
  8
0
  6
Continuous
 62
     7
370
    25
100
AcDbCircle
 10
7739.4386713325
 20
5237.2777540007
 30
0.0
 40
32.7284753306238
100
AcDbArc
 50
85.4332158269
 51
90.6446179146
  0
LINE
  5
28D
330
1F
100
AcDbEntity
  8
0
  6
Continuous
 62
     7
370
    25
100
AcDbLine
 10
7739.0704606786
 20
5270.0041579948
 30
0.0
 11
7739.1369682754
 21
5270.1342709991
 31
0.0
  0
LWPOLYLINE
  5
28E
330
1F
100
AcDbEntity
  8
0
  6
Continuous
 62
     7
370
    25
100
AcDbPolyline
 90
        7
 70
   128
 43
0.0
 10
7733.4738644008
 20
5267.5265783953
 10
7732.6323594872
 20
5267.8854006392
 10
7732.108559788
 20
5268.2826538426
 10
7731.9269575949
 20
5268.6997628871
 10
7732.0960444248
 20
5269.1172242173
 10
7732.6079139653
 20
5269.5155178056
 10
7732.6843636786
 20
5269.5573979366
  0
LWPOLYLINE
  5
28F
330
1F
100
AcDbEntity
  8
0
  6
Continuous
 62
     7
370
    25
100
AcDbPolyline
 90
       14
 70
   128
 43
0.0
 10
7746.8779678155
 20
5268.9286750109
 10
7746.8797323322
 20
5268.9246597843
 10
7746.8860269129
 20
5268.5049140294
 10
7746.543541061
 20
5268.0946314762
 10
7745.8682890343
 20
5267.712996481
 10
7744.891844867
 20
5267.3778538721
 10
7743.6598660032
 20
5267.1048745453
 10
7742.2299584054
 20
5266.9068227106
 10
7740.6689829634
 20
5266.7929590516
 10
7739.0499291542
 20
5266.7686077065
 10
7737.4485021344
 20
5266.834907317
 10
7735.9395828516
 20
5266.9887577872
 10
7734.5937266943
 20
5267.22296524
 10
7733.4738644008
 20
5267.5265783953
  0
LINE
  5
290
330
1F
100
AcDbEntity
  8
0
  6
Continuous
 62
     7
370
    25
100
AcDbLine
 10
7739.0704606786
 20
5270.2955437236
 30
0.0
 11
7739.0704606786
 21
5270.0041579948
 31
0.0
  0
LINE
  5
291
330
1F
100
AcDbEntity
  8
0
  6
Continuous
 62
     7
370
    25
100
AcDbLine
 10
7735.0655783598
 20
5269.8526329043
 30
0.0
 11
7735.3740257256
 21
5269.7484573817
 31
0.0
  0
ARC
  5
292
330
1F
100
AcDbEntity
  8
0
  6
Continuous
 62
     7
370
    25
100
AcDbCircle
 10
7737.6248353527
 20
5252.1611160196
 30
0.0
 40
17.73078453319368
100
AcDbArc
 50
97.2930101399
 51
105.1437664243
  0
LINE
  5
293
330
1F
100
AcDbEntity
  8
0
  6
Continuous
 62
     7
370
    25
100
AcDbLine
 10
7732.6843636786
 20
5269.3803454706
 30
0.0
 11
7732.9928110444
 21
5269.276169948
 31
0.0
  0
LINE
  5
294
330
1F
100
AcDbEntity
  8
0
  6
Continuous
 62
     7
370
    25
100
AcDbLine
 10
7735.3740257256
 20
5270.0720337967
 30
0.0
 11
7735.3740257256
 21
5269.7484573817
 31
0.0
  0
LINE
  5
295
330
1F
100
AcDbEntity
  8
0
  6
Continuous
 62
     7
370
    25
100
AcDbLine
 10
7745.7594115909
 20
5269.4864682512
 30
0.0
 11
7745.3569082798
 21
5269.4066361986
 31
0.0
  0
LINE
  5
296
330
1F
100
AcDbEntity
  8
0
  6
Continuous
 62
     7
370
    25
100
AcDbLine
 10
7747.5841901095
 20
5268.8701645413
 30
0.0
 11
7747.1816867984
 21
5268.7903324886
 31
0.0
  0
ARC
  5
297
330
1F
100
AcDbEntity
  8
0
  6
Continuous
 62
     7
370
    25
100
AcDbCircle
 10
7743.45936786
 20
5260.7787237543
 30
0.0
 40
8.8341118846109
100
AcDbArc
 50
65.0796807337
 51
77.5963840454
  0
LINE
  5
298
330
1F
100
AcDbEntity
  8
0
  6
Continuous
 62
     7
370
    25
100
AcDbLine
 10
7745.3569082798
 20
5269.7850690029
 30
0.0
 11
7745.3569082798
 21
5269.4066361986
 31
0.0
  0
LINE
  5
299
330
1F
100
AcDbEntity
  8
0
  6
Continuous
 62
     7
370
    25
100
AcDbLine
 10
7731.0776238893
 20
5269.1061403224
 30
0.0
 11
7731.0776238893
 21
5268.4188677624
 31
0.0
  0
LINE
  5
29A
330
1F
100
AcDbEntity
  8
0
  6
Continuous
 62
     7
370
    25
100
AcDbLine
 10
7731.0776238893
 20
5268.4188677624
 30
0.0
 11
7730.5749058446
 21
5268.4360811951
 31
0.0
  0
ARC
  5
29B
330
1F
100
AcDbEntity
  8
0
  6
Continuous
 62
     7
370
    25
100
AcDbCircle
 10
7731.542336802
 20
5267.695894482
 30
0.0
 40
0.8594465983294604
100
AcDbArc
 50
122.732106952
 51
183.1199656667
  0
LINE
  5
29C
330
1F
100
AcDbEntity
  8
0
  6
Continuous
 62
     7
370
    25
100
AcDbLine
 10
7730.6841641054
 20
5267.6491175828
 30
0.0
 11
7730.1814460607
 21
5267.6663310154
 31
0.0
  0
LINE
  5
29D
330
1F
100
AcDbEntity
  8
0
  6
Continuous
 62
     7
370
    25
100
AcDbLine
 10
7730.6841641054
 20
5267.8336247238
 30
0.0
 11
7730.6841641054
 21
5267.6491175828
 31
0.0
  0
LINE
  5
29E
330
1F
100
AcDbEntity
  8
0
  6
Continuous
 62
     7
370
    25
100
AcDbLine
 10
7748.1696381022
 20
5268.79955055
 30
0.0
 11
7748.1696381022
 21
5267.8336247238
 31
0.0
  0
LINE
  5
29F
330
1F
100
AcDbEntity
  8
0
  6
Continuous
 62
     7
370
    25
100
AcDbLine
 10
7748.1696381022
 20
5267.8336247238
 30
0.0
 11
7748.672356147
 21
5267.8164112911
 31
0.0
  0
ARC
  5
2A0
330
1F
100
AcDbEntity
  8
0
  6
Continuous
 62
     7
370
    25
100
AcDbCircle
 10
7747.3114654057
 20
5267.7868478245
 30
0.0
 40
0.859446598330319
100
AcDbArc
 50
302.7321069521
 51
3.1199656667
  0
LINE
  5
2A1
330
1F
100
AcDbEntity
  8
0
  6
Continuous
 62
     7
370
    25
100
AcDbLine
 10
7747.7761783184
 20
5267.0638745441
 30
0.0
 11
7748.2788963631
 21
5267.0466611114
 31
0.0
  0
LINE
  5
2A2
330
1F
100
AcDbEntity
  8
0
  6
Continuous
 62
     7
370
    25
100
AcDbLine
 10
7747.7761783184
 20
5268.0298003704
 30
0.0
 11
7747.7761783184
 21
5267.0638745441
 31
0.0
  0
LINE
  5
2A3
330
1F
100
AcDbEntity
  8
0
  6
Continuous
 62
     7
370
    25
100
AcDbLine
 10
7731.6721154093
 20
5267.6583356442
 30
0.0
 11
7731.6721154093
 21
5266.6924098179
 31
0.0
  0
LINE
  5
2A4
330
1F
100
AcDbEntity
  8
0
  6
Continuous
 62
     7
370
    25
100
AcDbLine
 10
7731.2696120982
 20
5266.6125777653
 30
0.0
 11
7731.6721154093
 21
5266.6924098179
 31
0.0
  0
ARC
  5
2A5
330
1F
100
AcDbEntity
  8
0
  6
Continuous
 62
     7
370
    25
100
AcDbCircle
 10
7735.3944343477
 20
5274.7040185522
 30
0.0
 40
8.83411188459732
100
AcDbArc
 50
245.0796807337
 51
257.5963840454
  0
LINE
  5
2A6
330
1F
100
AcDbEntity
  8
0
  6
Continuous
 62
     7
370
    25
100
AcDbLine
 10
7733.4968939279
 20
5267.0420319343
 30
0.0
 11
7733.4968939279
 21
5266.076106108
 31
0.0
  0
LINE
  5
2A7
330
1F
100
AcDbEntity
  8
0
  6
Continuous
 62
     7
370
    25
100
AcDbLine
 10
7733.0943906168
 20
5265.9962740553
 30
0.0
 11
7733.4968939279
 21
5266.076106108
 31
0.0
  0
LINE
  5
2A8
330
1F
100
AcDbEntity
  8
0
  6
Continuous
 62
     7
370
    25
100
AcDbLine
 10
7745.8609911633
 20
5267.1724981848
 30
0.0
 11
7745.8609911633
 21
5266.2065723585
 31
0.0
  0
LINE
  5
2A9
330
1F
100
AcDbEntity
  8
0
  6
Continuous
 62
     7
370
    25
100
AcDbLine
 10
7746.1694385291
 20
5266.1023968359
 30
0.0
 11
7745.8609911633
 21
5266.2065723585
 31
0.0
  0
ARC
  5
2AA
330
1F
100
AcDbEntity
  8
0
  6
Continuous
 62
     7
370
    25
100
AcDbCircle
 10
7741.2289668551
 20
5283.3216262866
 30
0.0
 40
17.73078453291748
100
AcDbArc
 50
277.2930101399
 51
285.1437664243
  0
LINE
  5
2AB
330
1F
100
AcDbEntity
  8
0
  6
Continuous
 62
     7
370
    25
100
AcDbLine
 10
7743.4797764821
 20
5266.7002107511
 30
0.0
 11
7743.4797764821
 21
5265.7342849248
 31
0.0
  0
LINE
  5
2AC
330
1F
100
AcDbEntity
  8
0
  6
Continuous
 62
     7
370
    25
100
AcDbLine
 10
7743.7882238479
 20
5265.6301094022
 30
0.0
 11
7743.4797764821
 21
5265.7342849248
 31
0.0
  0
LINE
  5
2AD
330
1F
100
AcDbEntity
  8
0
  6
Continuous
 62
     7
370
    25
100
AcDbLine
 10
7736.8092552158
 20
5266.5463450236
 30
0.0
 11
7736.8092552158
 21
5265.5804191973
 31
0.0
  0
LINE
  5
2AE
330
1F
100
AcDbEntity
  8
0
  6
Continuous
 62
     7
370
    25
100
AcDbLine
 10
7739.7833415291
 20
5266.444510138
 30
0.0
 11
7739.7833415291
 21
5265.4785843117
 31
0.0
  0
ARC
  5
2AF
330
1F
100
AcDbEntity
  8
0
  6
Continuous
 62
     7
370
    25
100
AcDbCircle
 10
7739.4151308752
 20
5298.2049883068
 30
0.0
 40
32.72847533164434
100
AcDbArc
 50
265.4332158269
 51
270.6446179145
  0
LINE
  5
2B0
330
1F
100
AcDbEntity
  8
0
  6
Continuous
 62
     7
370
    25
100
AcDbLine
 10
7736.8092552158
 20
5265.5804191973
 30
0.0
 11
7736.7427476191
 21
5265.450306193
 31
0.0
  0
LINE
  5
2B1
330
1F
100
AcDbEntity
  8
0
  6
Continuous
 62
     7
370
    25
100
AcDbLine
 10
7739.7833415291
 20
5265.4785843117
 30
0.0
 11
7739.7168339323
 21
5265.3484713074
 31
0.0
  0
ARC
  5
2B2
330
1F
100
AcDbEntity
  8
0
  6
Continuous
 62
     7
370
    25
100
AcDbCircle
 10
5939.5365139765
 20
5298.6462427578
 30
0.0
 40
32.33234845695852
100
AcDbArc
 50
270.3195445577
 51
277.00524986
  0
ARC
  5
2B3
330
1F
100
AcDbEntity
  8
0
  6
Continuous
 62
     7
370
    25
100
AcDbCircle
 10
5941.3358775745
 20
5284.233573546
 30
0.0
 40
18.76440461069631
100
AcDbArc
 50
277.5095473836
 51
284.9272291806
  0
LINE
  5
2B4
330
1F
100
AcDbEntity
  8
0
  6
Continuous
 62
     7
370
    25
100
AcDbLine
 10
5946.1694385291
 20
5267.0683226622
 30
0.0
 11
5946.1694385291
 21
5266.1023968359
 31
0.0
  0
ARC
  5
2B5
330
1F
100
AcDbEntity
  8
0
  6
Continuous
 62
     7
370
    25
100
AcDbCircle
 10
5944.294341742
 20
5274.4450983759
 30
0.0
 40
7.611360449459065
100
AcDbArc
 50
284.2619248087
 51
297.2228497749
  0
ARC
  5
2B6
330
1F
100
AcDbEntity
  8
0
  6
Continuous
 62
     7
370
    25
100
AcDbCircle
 10
5947.7698008712
 20
5267.7923206614
 30
0.0
 40
0.9028767270830386
100
AcDbArc
 50
304.3231205499
 51
1.528952069
  0
LINE
  5
2B7
330
1F
100
AcDbEntity
  8
0
  6
Continuous
 62
     7
370
    25
100
AcDbLine
 10
5948.672356147
 20
5268.4201149326
 30
0.0
 11
5948.672356147
 21
5267.8164112911
 31
0.0
  0
LINE
  5
2B8
330
1F
100
AcDbEntity
  8
0
  6
Continuous
 62
     7
370
    25
100
AcDbLine
 10
5947.5841901095
 20
5269.1818162441
 30
0.0
 11
5947.5841901095
 21
5268.8701645413
 31
0.0
  0
ARC
  5
2B9
330
1F
100
AcDbEntity
  8
0
  6
Continuous
 62
     7
370
    25
100
AcDbCircle
 10
5943.6953971788
 20
5260.3656524541
 30
0.0
 40
9.351440332856804
100
AcDbArc
 50
65.4271673511
 51
77.248897428
  0
LINE
  5
2BA
330
1F
100
AcDbEntity
  8
0
  6
Continuous
 62
     7
370
    25
100
AcDbLine
 10
5945.7594115909
 20
5269.7025114919
 30
0.0
 11
5945.7594115909
 21
5269.4864682512
 31
0.0
  0
LINE
  5
2BB
330
1F
100
AcDbEntity
  8
0
  6
Continuous
 62
     7
370
    25
100
AcDbLine
 10
5942.1110545886
 20
5270.2009821384
 30
0.0
 11
5942.1110545886
 21
5270.0324361135
 31
0.0
  0
ARC
  5
2BC
330
1F
100
AcDbEntity
  8
0
  6
Continuous
 62
     7
370
    25
100
AcDbCircle
 10
5939.4400878069
 20
5235.5068817481
 30
0.0
 40
34.62871594199463
100
AcDbArc
 50
85.5762935841
 51
90.5015401573
  0
LINE
  5
2BD
330
1F
100
AcDbEntity
  8
0
  6
Continuous
 62
     7
370
    25
100
AcDbLine
 10
5939.1369682754
 20
5270.2961073859
 30
0.0
 11
5939.1369682754
 21
5270.1342709991
 31
0.0
  0
LINE
  5
2BE
330
1F
100
AcDbEntity
  8
0
  6
Continuous
 62
     7
370
    25
100
AcDbLine
 10
5935.0655783598
 20
5270.0344332387
 30
0.0
 11
5935.0655783598
 21
5269.8526329043
 31
0.0
  0
ARC
  5
2BF
330
1F
100
AcDbEntity
  8
0
  6
Continuous
 62
     7
370
    25
100
AcDbCircle
 10
5937.5179246332
 20
5251.2491687603
 30
0.0
 40
18.76440461093704
100
AcDbArc
 50
97.5095473836
 51
104.9272291805
  0
LINE
  5
2C0
330
1F
100
AcDbEntity
  8
0
  6
Continuous
 62
     7
370
    25
100
AcDbLine
 10
5932.6843636786
 20
5269.6087073199
 30
0.0
 11
5932.6843636786
 21
5269.3803454706
 31
0.0
  0
LINE
  5
2C1
330
1F
100
AcDbEntity
  8
0
  6
Continuous
 62
     7
370
    25
100
AcDbLine
 10
5930.5749058446
 20
5268.8742125318
 30
0.0
 11
5930.5749058446
 21
5268.4360811951
 31
0.0
  0
ARC
  5
2C2
330
1F
100
AcDbEntity
  8
0
  6
Continuous
 62
     7
370
    25
100
AcDbCircle
 10
5931.0840013365
 20
5267.6904216452
 30
0.0
 40
0.9028767270857176
100
AcDbArc
 50
124.32312055
 51
181.5289520689
  0
ARC
  5
2C3
330
1F
100
AcDbEntity
  8
0
  6
Continuous
 62
     7
370
    25
100
AcDbCircle
 10
5932.7945437525
 20
5270.8224414869
 30
0.0
 40
3.584487357994155
100
AcDbArc
 50
234.2803081013
 51
244.8224127266
  0
LINE
  5
2C4
330
1F
100
AcDbEntity
  8
0
  6
Continuous
 62
     7
370
    25
100
AcDbLine
 10
5931.2696120982
 20
5267.5785035915
 30
0.0
 11
5931.2696120982
 21
5266.6125777653
 31
0.0
  0
ARC
  5
2C5
330
1F
100
AcDbEntity
  8
0
  6
Continuous
 62
     7
370
    25
100
AcDbCircle
 10
5935.1584050289
 20
5275.1170898525
 30
0.0
 40
9.351440332912066
100
AcDbArc
 50
245.4271673511
 51
257.248897428
  0
ARC
  5
2C6
330
1F
100
AcDbEntity
  8
0
  6
Continuous
 62
     7
370
    25
100
AcDbCircle
 10
5938.487100542
 20
5290.734417263
 30
0.0
 40
24.38066653448451
100
AcDbArc
 50
258.189300535
 51
265.8971784142
  0
LINE
  5
2C7
330
1F
100
AcDbEntity
  8
0
  6
Continuous
 62
     7
370
    25
100
AcDbLine
 10
5936.7427476191
 20
5266.4162320193
 30
0.0
 11
5936.7427476191
 21
5265.450306193
 31
0.0
  0
ARC
  5
2C8
330
1F
100
AcDbEntity
  8
0
  6
Continuous
 62
     7
370
    25
100
AcDbCircle
 10
5939.4137144008
 20
5299.9758605588
 30
0.0
 40
34.62871594229734
100
AcDbArc
 50
265.5762935841
 51
270.5015401573
  0
LWPOLYLINE
  5
2C9
330
1F
100
AcDbEntity
  8
0
  6
Continuous
 62
     7
370
    25
100
AcDbPolyline
 90
        6
 70
   128
 43
0.0
 10
5932.8785607305
 20
5267.4085065368
 10
5931.9783275142
 20
5267.7892642768
 10
5931.4036327059
 20
5268.210144451
 10
5931.1795932265
 20
5268.6527525763
 10
5931.3160006764
 20
5269.0977445538
 10
5931.4721673957
 20
5269.2734373371
  0
LWPOLYLINE
  5
2CA
330
1F
100
AcDbEntity
  8
0
  6
Continuous
 62
     7
370
    25
100
AcDbPolyline
 90
       14
 70
   128
 43
0.0
 10
5947.6015421654
 20
5268.995243318
 10
5947.6742089812
 20
5268.7618413828
 10
5947.5378015313
 20
5268.3168494053
 10
5947.0469088123
 20
5267.8889218604
 10
5946.2229851917
 20
5267.4967612352
 10
5945.1020400851
 20
5267.1575068308
 10
5943.7330641728
 20
5266.8859856926
 10
5942.1758882711
 20
5266.6940645973
 10
5940.498568439
 20
5266.5901314177
 10
5938.774411602
 20
5266.5787285324
 10
5937.0787716872
 20
5266.6603543022
 10
5935.4857562955
 20
5266.8314412894
 10
5934.0649878436
 20
5267.0845121716
 10
5932.8785607305
 20
5267.4085065368
  0
LINE
  5
2CB
330
1F
100
AcDbEntity
  8
0
  6
Continuous
 62
     7
370
    25
100
AcDbLine
 10
5948.1696381022
 20
5268.79955055
 30
0.0
 11
5948.4314492544
 21
5268.7905859452
 31
0.0
  0
ARC
  5
2CC
330
1F
100
AcDbEntity
  8
0
  6
Continuous
 62
     7
370
    25
100
AcDbCircle
 10
5947.1862921543
 20
5268.851265059
 30
0.0
 40
1.011320879465574
100
AcDbArc
 50
305.6817763788
 51
346.4922228013
  0
LINE
  5
2CD
330
1F
100
AcDbEntity
  8
0
  6
Continuous
 62
     7
370
    25
100
AcDbLine
 10
5946.1694385291
 20
5267.0683226622
 30
0.0
 11
5945.8609911633
 21
5267.1724981848
 31
0.0
  0
ARC
  5
2CE
330
1F
100
AcDbEntity
  8
0
  6
Continuous
 62
     7
370
    25
100
AcDbCircle
 10
5941.228966855
 20
5284.287552113
 30
0.0
 40
17.73078453298672
100
AcDbArc
 50
277.2930101399
 51
285.1437664243
  0
ARC
  5
2CF
330
1F
100
AcDbEntity
  8
0
  6
Continuous
 62
     7
370
    25
100
AcDbCircle
 10
5939.4151308752
 20
5299.1709141326
 30
0.0
 40
32.72847533113269
100
AcDbArc
 50
265.4332158269
 51
270.6446179145
  0
LINE
  5
2D0
330
1F
100
AcDbEntity
  8
0
  6
Continuous
 62
     7
370
    25
100
AcDbLine
 10
5936.8092552158
 20
5266.5463450236
 30
0.0
 11
5936.7427476191
 21
5266.4162320193
 31
0.0
  0
ARC
  5
2D1
330
1F
100
AcDbEntity
  8
0
  6
Continuous
 62
     7
370
    25
100
AcDbCircle
 10
5935.3944343477
 20
5275.6699443785
 30
0.0
 40
8.8341118846035
100
AcDbArc
 50
245.0796807337
 51
257.5963840454
  0
LINE
  5
2D2
330
1F
100
AcDbEntity
  8
0
  6
Continuous
 62
     7
370
    25
100
AcDbLine
 10
5931.2696120982
 20
5267.5785035915
 30
0.0
 11
5931.6721154093
 21
5267.6583356442
 31
0.0
  0
LWPOLYLINE
  5
2D3
330
1F
100
AcDbEntity
  8
0
  6
Continuous
 62
     7
370
    25
100
AcDbPolyline
 90
        3
 70
   128
 43
0.0
 10
5931.9269011038
 20
5268.7836794067
 10
5931.4036327059
 20
5269.1760702773
 10
5931.3907049146
 20
5269.1902598927
  0
LINE
  5
2D4
330
1F
100
AcDbEntity
  8
0
  6
Continuous
 62
     7
370
    25
100
AcDbLine
 10
5947.0466182851
 20
5268.8546665001
 30
0.0
 11
5946.9269011038
 21
5268.7836794067
 31
0.0
  0
LINE
  5
2D5
330
1F
100
AcDbEntity
  8
0
  6
Continuous
 62
     7
370
    25
100
AcDbLine
 10
5942.0445469918
 20
5269.9023231092
 30
0.0
 11
5942.1110545886
 21
5270.0324361135
 31
0.0
  0
ARC
  5
2D6
330
1F
100
AcDbEntity
  8
0
  6
Continuous
 62
     7
370
    25
100
AcDbCircle
 10
5939.4386713325
 20
5237.2777540007
 30
0.0
 40
32.72847533060732
100
AcDbArc
 50
85.4332158269
 51
90.6446179146
  0
LINE
  5
2D7
330
1F
100
AcDbEntity
  8
0
  6
Continuous
 62
     7
370
    25
100
AcDbLine
 10
5939.0704606786
 20
5270.0041579948
 30
0.0
 11
5939.1369682754
 21
5270.1342709991
 31
0.0
  0
LWPOLYLINE
  5
2D8
330
1F
100
AcDbEntity
  8
0
  6
Continuous
 62
     7
370
    25
100
AcDbPolyline
 90
        7
 70
   128
 43
0.0
 10
5933.4738644008
 20
5267.5265783953
 10
5932.6323594872
 20
5267.8854006392
 10
5932.108559788
 20
5268.2826538426
 10
5931.9269575949
 20
5268.6997628871
 10
5932.0960444248
 20
5269.1172242173
 10
5932.6079139653
 20
5269.5155178056
 10
5932.6843636786
 20
5269.5573979366
  0
LWPOLYLINE
  5
2D9
330
1F
100
AcDbEntity
  8
0
  6
Continuous
 62
     7
370
    25
100
AcDbPolyline
 90
       14
 70
   128
 43
0.0
 10
5946.8779684253
 20
5268.928673636
 10
5946.8797323322
 20
5268.9246597843
 10
5946.8860269129
 20
5268.5049140294
 10
5946.543541061
 20
5268.0946314762
 10
5945.8682890343
 20
5267.712996481
 10
5944.891844867
 20
5267.3778538721
 10
5943.6598660032
 20
5267.1048745453
 10
5942.2299584054
 20
5266.9068227106
 10
5940.6689829634
 20
5266.7929590516
 10
5939.0499291542
 20
5266.7686077065
 10
5937.4485021344
 20
5266.834907317
 10
5935.9395828516
 20
5266.9887577872
 10
5934.5937266943
 20
5267.22296524
 10
5933.4738644008
 20
5267.5265783953
  0
LINE
  5
2DA
330
1F
100
AcDbEntity
  8
0
  6
Continuous
 62
     7
370
    25
100
AcDbLine
 10
5939.0704606786
 20
5270.2955437236
 30
0.0
 11
5939.0704606786
 21
5270.0041579948
 31
0.0
  0
LINE
  5
2DB
330
1F
100
AcDbEntity
  8
0
  6
Continuous
 62
     7
370
    25
100
AcDbLine
 10
5935.0655783598
 20
5269.8526329043
 30
0.0
 11
5935.3740257256
 21
5269.7484573817
 31
0.0
  0
ARC
  5
2DC
330
1F
100
AcDbEntity
  8
0
  6
Continuous
 62
     7
370
    25
100
AcDbCircle
 10
5937.6248353527
 20
5252.1611160196
 30
0.0
 40
17.73078453329072
100
AcDbArc
 50
97.2930101399
 51
105.1437664242
  0
LINE
  5
2DD
330
1F
100
AcDbEntity
  8
0
  6
Continuous
 62
     7
370
    25
100
AcDbLine
 10
5932.6843636786
 20
5269.3803454706
 30
0.0
 11
5932.9928110444
 21
5269.276169948
 31
0.0
  0
LINE
  5
2DE
330
1F
100
AcDbEntity
  8
0
  6
Continuous
 62
     7
370
    25
100
AcDbLine
 10
5935.3740257256
 20
5270.0720337967
 30
0.0
 11
5935.3740257256
 21
5269.7484573817
 31
0.0
  0
LINE
  5
2DF
330
1F
100
AcDbEntity
  8
0
  6
Continuous
 62
     7
370
    25
100
AcDbLine
 10
5945.7594115909
 20
5269.4864682512
 30
0.0
 11
5945.3569082798
 21
5269.4066361986
 31
0.0
  0
LINE
  5
2E0
330
1F
100
AcDbEntity
  8
0
  6
Continuous
 62
     7
370
    25
100
AcDbLine
 10
5947.5841901095
 20
5268.8701645413
 30
0.0
 11
5947.1816867984
 21
5268.7903324886
 31
0.0
  0
ARC
  5
2E1
330
1F
100
AcDbEntity
  8
0
  6
Continuous
 62
     7
370
    25
100
AcDbCircle
 10
5943.45936786
 20
5260.7787237543
 30
0.0
 40
8.834111884660304
100
AcDbArc
 50
65.0796807338
 51
77.5963840454
  0
LINE
  5
2E2
330
1F
100
AcDbEntity
  8
0
  6
Continuous
 62
     7
370
    25
100
AcDbLine
 10
5945.3569082798
 20
5269.7850690029
 30
0.0
 11
5945.3569082798
 21
5269.4066361986
 31
0.0
  0
LINE
  5
2E3
330
1F
100
AcDbEntity
  8
0
  6
Continuous
 62
     7
370
    25
100
AcDbLine
 10
5931.0776238893
 20
5269.1061403224
 30
0.0
 11
5931.0776238893
 21
5268.4188677624
 31
0.0
  0
LINE
  5
2E4
330
1F
100
AcDbEntity
  8
0
  6
Continuous
 62
     7
370
    25
100
AcDbLine
 10
5931.0776238893
 20
5268.4188677624
 30
0.0
 11
5930.5749058446
 21
5268.4360811951
 31
0.0
  0
ARC
  5
2E5
330
1F
100
AcDbEntity
  8
0
  6
Continuous
 62
     7
370
    25
100
AcDbCircle
 10
5931.542336802
 20
5267.695894482
 30
0.0
 40
0.8594465983320363
100
AcDbArc
 50
122.732106952
 51
183.1199656665
  0
LINE
  5
2E6
330
1F
100
AcDbEntity
  8
0
  6
Continuous
 62
     7
370
    25
100
AcDbLine
 10
5930.6841641054
 20
5267.6491175828
 30
0.0
 11
5930.1814460607
 21
5267.6663310154
 31
0.0
  0
LINE
  5
2E7
330
1F
100
AcDbEntity
  8
0
  6
Continuous
 62
     7
370
    25
100
AcDbLine
 10
5930.6841641054
 20
5267.8336247238
 30
0.0
 11
5930.6841641054
 21
5267.6491175828
 31
0.0
  0
LINE
  5
2E8
330
1F
100
AcDbEntity
  8
0
  6
Continuous
 62
     7
370
    25
100
AcDbLine
 10
5948.1696381022
 20
5268.79955055
 30
0.0
 11
5948.1696381022
 21
5267.8336247238
 31
0.0
  0
LINE
  5
2E9
330
1F
100
AcDbEntity
  8
0
  6
Continuous
 62
     7
370
    25
100
AcDbLine
 10
5948.1696381022
 20
5267.8336247238
 30
0.0
 11
5948.672356147
 21
5267.8164112911
 31
0.0
  0
ARC
  5
2EA
330
1F
100
AcDbEntity
  8
0
  6
Continuous
 62
     7
370
    25
100
AcDbCircle
 10
5947.3114654057
 20
5267.7868478245
 30
0.0
 40
0.8594465983347768
100
AcDbArc
 50
302.7321069521
 51
3.1199656664
  0
LINE
  5
2EB
330
1F
100
AcDbEntity
  8
0
  6
Continuous
 62
     7
370
    25
100
AcDbLine
 10
5947.7761783184
 20
5267.0638745441
 30
0.0
 11
5948.2788963631
 21
5267.0466611114
 31
0.0
  0
LINE
  5
2EC
330
1F
100
AcDbEntity
  8
0
  6
Continuous
 62
     7
370
    25
100
AcDbLine
 10
5947.7761783184
 20
5268.0298003704
 30
0.0
 11
5947.7761783184
 21
5267.0638745441
 31
0.0
  0
LINE
  5
2ED
330
1F
100
AcDbEntity
  8
0
  6
Continuous
 62
     7
370
    25
100
AcDbLine
 10
5931.6721154093
 20
5267.6583356442
 30
0.0
 11
5931.6721154093
 21
5266.6924098179
 31
0.0
  0
LINE
  5
2EE
330
1F
100
AcDbEntity
  8
0
  6
Continuous
 62
     7
370
    25
100
AcDbLine
 10
5931.2696120982
 20
5266.6125777653
 30
0.0
 11
5931.6721154093
 21
5266.6924098179
 31
0.0
  0
ARC
  5
2EF
330
1F
100
AcDbEntity
  8
0
  6
Continuous
 62
     7
370
    25
100
AcDbCircle
 10
5935.3944343477
 20
5274.7040185521
 30
0.0
 40
8.83411188452775
100
AcDbArc
 50
245.0796807337
 51
257.5963840455
  0
LINE
  5
2F0
330
1F
100
AcDbEntity
  8
0
  6
Continuous
 62
     7
370
    25
100
AcDbLine
 10
5933.4968939279
 20
5267.0420319343
 30
0.0
 11
5933.4968939279
 21
5266.076106108
 31
0.0
  0
LINE
  5
2F1
330
1F
100
AcDbEntity
  8
0
  6
Continuous
 62
     7
370
    25
100
AcDbLine
 10
5933.0943906168
 20
5265.9962740553
 30
0.0
 11
5933.4968939279
 21
5266.076106108
 31
0.0
  0
LINE
  5
2F2
330
1F
100
AcDbEntity
  8
0
  6
Continuous
 62
     7
370
    25
100
AcDbLine
 10
5945.8609911633
 20
5267.1724981848
 30
0.0
 11
5945.8609911633
 21
5266.2065723585
 31
0.0
  0
LINE
  5
2F3
330
1F
100
AcDbEntity
  8
0
  6
Continuous
 62
     7
370
    25
100
AcDbLine
 10
5946.1694385291
 20
5266.1023968359
 30
0.0
 11
5945.8609911633
 21
5266.2065723585
 31
0.0
  0
ARC
  5
2F4
330
1F
100
AcDbEntity
  8
0
  6
Continuous
 62
     7
370
    25
100
AcDbCircle
 10
5941.2289668551
 20
5283.3216262866
 30
0.0
 40
17.73078453294254
100
AcDbArc
 50
277.2930101399
 51
285.1437664243
  0
LINE
  5
2F5
330
1F
100
AcDbEntity
  8
0
  6
Continuous
 62
     7
370
    25
100
AcDbLine
 10
5943.4797764821
 20
5266.7002107511
 30
0.0
 11
5943.4797764821
 21
5265.7342849248
 31
0.0
  0
LINE
  5
2F6
330
1F
100
AcDbEntity
  8
0
  6
Continuous
 62
     7
370
    25
100
AcDbLine
 10
5943.7882238479
 20
5265.6301094022
 30
0.0
 11
5943.4797764821
 21
5265.7342849248
 31
0.0
  0
LINE
  5
2F7
330
1F
100
AcDbEntity
  8
0
  6
Continuous
 62
     7
370
    25
100
AcDbLine
 10
5936.8092552158
 20
5266.5463450236
 30
0.0
 11
5936.8092552158
 21
5265.5804191973
 31
0.0
  0
LINE
  5
2F8
330
1F
100
AcDbEntity
  8
0
  6
Continuous
 62
     7
370
    25
100
AcDbLine
 10
5939.7833415291
 20
5266.444510138
 30
0.0
 11
5939.7833415291
 21
5265.4785843117
 31
0.0
  0
ARC
  5
2F9
330
1F
100
AcDbEntity
  8
0
  6
Continuous
 62
     7
370
    25
100
AcDbCircle
 10
5939.4151308752
 20
5298.2049883068
 30
0.0
 40
32.72847533165434
100
AcDbArc
 50
265.4332158269
 51
270.6446179145
  0
LINE
  5
2FA
330
1F
100
AcDbEntity
  8
0
  6
Continuous
 62
     7
370
    25
100
AcDbLine
 10
5936.8092552158
 20
5265.5804191973
 30
0.0
 11
5936.7427476191
 21
5265.450306193
 31
0.0
  0
LINE
  5
2FB
330
1F
100
AcDbEntity
  8
0
  6
Continuous
 62
     7
370
    25
100
AcDbLine
 10
5939.7833415291
 20
5265.4785843117
 30
0.0
 11
5939.7168339323
 21
5265.3484713074
 31
0.0
  0
ARC
  5
2FC
330
1F
100
AcDbEntity
  8
0
  6
Continuous
 62
     7
370
    25
100
AcDbCircle
 10
7139.5365139765
 20
5298.6462427578
 30
0.0
 40
32.33234845699209
100
AcDbArc
 50
270.3195445578
 51
277.00524986
  0
ARC
  5
2FD
330
1F
100
AcDbEntity
  8
0
  6
Continuous
 62
     7
370
    25
100
AcDbCircle
 10
7141.3358775745
 20
5284.233573546
 30
0.0
 40
18.76440461069537
100
AcDbArc
 50
277.5095473836
 51
284.9272291806
  0
LINE
  5
2FE
330
1F
100
AcDbEntity
  8
0
  6
Continuous
 62
     7
370
    25
100
AcDbLine
 10
7146.1694385291
 20
5267.0683226622
 30
0.0
 11
7146.1694385291
 21
5266.1023968359
 31
0.0
  0
ARC
  5
2FF
330
1F
100
AcDbEntity
  8
0
  6
Continuous
 62
     7
370
    25
100
AcDbCircle
 10
7144.294341742
 20
5274.4450983759
 30
0.0
 40
7.611360449505591
100
AcDbArc
 50
284.2619248087
 51
297.2228497748
  0
ARC
  5
300
330
1F
100
AcDbEntity
  8
0
  6
Continuous
 62
     7
370
    25
100
AcDbCircle
 10
7147.7698008712
 20
5267.7923206614
 30
0.0
 40
0.9028767270901421
100
AcDbArc
 50
304.3231205499
 51
1.5289520686
  0
LINE
  5
301
330
1F
100
AcDbEntity
  8
0
  6
Continuous
 62
     7
370
    25
100
AcDbLine
 10
7148.672356147
 20
5268.4201149326
 30
0.0
 11
7148.672356147
 21
5267.8164112911
 31
0.0
  0
LINE
  5
302
330
1F
100
AcDbEntity
  8
0
  6
Continuous
 62
     7
370
    25
100
AcDbLine
 10
7147.5841901095
 20
5269.1818162441
 30
0.0
 11
7147.5841901095
 21
5268.8701645413
 31
0.0
  0
ARC
  5
303
330
1F
100
AcDbEntity
  8
0
  6
Continuous
 62
     7
370
    25
100
AcDbCircle
 10
7143.6953971788
 20
5260.3656524542
 30
0.0
 40
9.351440332786142
100
AcDbArc
 50
65.427167351
 51
77.2488974281
  0
LINE
  5
304
330
1F
100
AcDbEntity
  8
0
  6
Continuous
 62
     7
370
    25
100
AcDbLine
 10
7145.7594115909
 20
5269.7025114919
 30
0.0
 11
7145.7594115909
 21
5269.4864682512
 31
0.0
  0
LINE
  5
305
330
1F
100
AcDbEntity
  8
0
  6
Continuous
 62
     7
370
    25
100
AcDbLine
 10
7142.1110545886
 20
5270.2009821384
 30
0.0
 11
7142.1110545886
 21
5270.0324361135
 31
0.0
  0
ARC
  5
306
330
1F
100
AcDbEntity
  8
0
  6
Continuous
 62
     7
370
    25
100
AcDbCircle
 10
7139.4400878069
 20
5235.5068817481
 30
0.0
 40
34.62871594197821
100
AcDbArc
 50
85.5762935841
 51
90.5015401573
  0
LINE
  5
307
330
1F
100
AcDbEntity
  8
0
  6
Continuous
 62
     7
370
    25
100
AcDbLine
 10
7139.1369682754
 20
5270.2961073859
 30
0.0
 11
7139.1369682754
 21
5270.1342709991
 31
0.0
  0
LINE
  5
308
330
1F
100
AcDbEntity
  8
0
  6
Continuous
 62
     7
370
    25
100
AcDbLine
 10
7135.0655783598
 20
5270.0344332387
 30
0.0
 11
7135.0655783598
 21
5269.8526329043
 31
0.0
  0
ARC
  5
309
330
1F
100
AcDbEntity
  8
0
  6
Continuous
 62
     7
370
    25
100
AcDbCircle
 10
7137.5179246332
 20
5251.2491687602
 30
0.0
 40
18.76440461100539
100
AcDbArc
 50
97.5095473836
 51
104.9272291805
  0
LINE
  5
30A
330
1F
100
AcDbEntity
  8
0
  6
Continuous
 62
     7
370
    25
100
AcDbLine
 10
7132.6843636786
 20
5269.6087073199
 30
0.0
 11
7132.6843636786
 21
5269.3803454706
 31
0.0
  0
LINE
  5
30B
330
1F
100
AcDbEntity
  8
0
  6
Continuous
 62
     7
370
    25
100
AcDbLine
 10
7130.5749058446
 20
5268.8742125318
 30
0.0
 11
7130.5749058446
 21
5268.4360811951
 31
0.0
  0
ARC
  5
30C
330
1F
100
AcDbEntity
  8
0
  6
Continuous
 62
     7
370
    25
100
AcDbCircle
 10
7131.0840013365
 20
5267.6904216451
 30
0.0
 40
0.9028767270938031
100
AcDbArc
 50
124.3231205502
 51
181.5289520686
  0
ARC
  5
30D
330
1F
100
AcDbEntity
  8
0
  6
Continuous
 62
     7
370
    25
100
AcDbCircle
 10
7132.794543667
 20
5270.822441328
 30
0.0
 40
3.584487177772145
100
AcDbArc
 50
234.2803058341
 51
244.8224128836
  0
LINE
  5
30E
330
1F
100
AcDbEntity
  8
0
  6
Continuous
 62
     7
370
    25
100
AcDbLine
 10
7131.2696120982
 20
5267.5785035915
 30
0.0
 11
7131.2696120982
 21
5266.6125777653
 31
0.0
  0
ARC
  5
30F
330
1F
100
AcDbEntity
  8
0
  6
Continuous
 62
     7
370
    25
100
AcDbCircle
 10
7135.1584050289
 20
5275.1170898525
 30
0.0
 40
9.351440332894033
100
AcDbArc
 50
245.4271673511
 51
257.248897428
  0
ARC
  5
310
330
1F
100
AcDbEntity
  8
0
  6
Continuous
 62
     7
370
    25
100
AcDbCircle
 10
7138.487100542
 20
5290.734417263
 30
0.0
 40
24.38066653449894
100
AcDbArc
 50
258.189300535
 51
265.8971784142
  0
LINE
  5
311
330
1F
100
AcDbEntity
  8
0
  6
Continuous
 62
     7
370
    25
100
AcDbLine
 10
7136.7427476191
 20
5266.4162320193
 30
0.0
 11
7136.7427476191
 21
5265.450306193
 31
0.0
  0
ARC
  5
312
330
1F
100
AcDbEntity
  8
0
  6
Continuous
 62
     7
370
    25
100
AcDbCircle
 10
7139.4137144008
 20
5299.9758605587
 30
0.0
 40
34.62871594225006
100
AcDbArc
 50
265.5762935841
 51
270.5015401573
  0
LWPOLYLINE
  5
313
330
1F
100
AcDbEntity
  8
0
  6
Continuous
 62
     7
370
    25
100
AcDbPolyline
 90
        6
 70
   128
 43
0.0
 10
7132.8785607305
 20
5267.4085065368
 10
7131.9783275142
 20
5267.7892642768
 10
7131.4036327059
 20
5268.210144451
 10
7131.1795932265
 20
5268.6527525763
 10
7131.3160006764
 20
5269.0977445538
 10
7131.4721673957
 20
5269.2734373371
  0
LWPOLYLINE
  5
314
330
1F
100
AcDbEntity
  8
0
  6
Continuous
 62
     7
370
    25
100
AcDbPolyline
 90
        6
 70
   128
 43
0.0
 10
7147.5841901095
 20
5269.0265097548
 10
7147.6742089812
 20
5268.7618413828
 10
7147.5378015313
 20
5268.3168494053
 10
7147.0469088123
 20
5267.8889218604
 10
7146.2229851917
 20
5267.4967612352
 10
7145.8696729392
 20
5267.3736079129
  0
LINE
  5
315
330
1F
100
AcDbEntity
  8
0
  6
Continuous
 62
     7
370
    25
100
AcDbLine
 10
7133.2008276639
 20
5267.3063587256
 30
0.0
 11
7132.8785607305
 21
5267.4085065368
 31
0.0
  0
LINE
  5
316
330
1F
100
AcDbEntity
  8
0
  6
Continuous
 62
     7
370
    25
100
AcDbLine
 10
7148.1696381022
 20
5268.79955055
 30
0.0
 11
7148.4314492544
 21
5268.7905859452
 31
0.0
  0
ARC
  5
317
330
1F
100
AcDbEntity
  8
0
  6
Continuous
 62
     7
370
    25
100
AcDbCircle
 10
7147.1862921543
 20
5268.851265059
 30
0.0
 40
1.011320879471843
100
AcDbArc
 50
305.681776379
 51
346.4922228012
  0
LINE
  5
318
330
1F
100
AcDbEntity
  8
0
  6
Continuous
 62
     7
370
    25
100
AcDbLine
 10
7146.1694385291
 20
5267.0683226622
 30
0.0
 11
7145.8609911633
 21
5267.1724981848
 31
0.0
  0
ARC
  5
319
330
1F
100
AcDbEntity
  8
0
  6
Continuous
 62
     7
370
    25
100
AcDbCircle
 10
7141.228966855
 20
5284.287552113
 30
0.0
 40
17.73078453300822
100
AcDbArc
 50
277.2930101399
 51
285.1437664243
  0
ARC
  5
31A
330
1F
100
AcDbEntity
  8
0
  6
Continuous
 62
     7
370
    25
100
AcDbCircle
 10
7139.4151308752
 20
5299.1709141326
 30
0.0
 40
32.72847533115355
100
AcDbArc
 50
265.4332158269
 51
270.6446179145
  0
LINE
  5
31B
330
1F
100
AcDbEntity
  8
0
  6
Continuous
 62
     7
370
    25
100
AcDbLine
 10
7136.8092552158
 20
5266.5463450236
 30
0.0
 11
7136.7427476191
 21
5266.4162320193
 31
0.0
  0
ARC
  5
31C
330
1F
100
AcDbEntity
  8
0
  6
Continuous
 62
     7
370
    25
100
AcDbCircle
 10
7135.3944343477
 20
5275.6699443785
 30
0.0
 40
8.834111884622272
100
AcDbArc
 50
245.0796807337
 51
257.5963840454
  0
LINE
  5
31D
330
1F
100
AcDbEntity
  8
0
  6
Continuous
 62
     7
370
    25
100
AcDbLine
 10
7131.2696120982
 20
5267.5785035915
 30
0.0
 11
7131.6721154093
 21
5267.6583356442
 31
0.0
  0
LWPOLYLINE
  5
31E
330
1F
100
AcDbEntity
  8
0
  6
Continuous
 62
     7
370
    25
100
AcDbPolyline
 90
        3
 70
   128
 43
0.0
 10
7131.9269011038
 20
5268.7836794067
 10
7131.4036327059
 20
5269.1760702773
 10
7131.3907049146
 20
5269.1902598927
  0
LINE
  5
31F
330
1F
100
AcDbEntity
  8
0
  6
Continuous
 62
     7
370
    25
100
AcDbLine
 10
7147.0466182289
 20
5268.854666465
 30
0.0
 11
7146.9269011038
 21
5268.7836794067
 31
0.0
  0
LINE
  5
320
330
1F
100
AcDbEntity
  8
0
  6
Continuous
 62
     7
370
    25
100
AcDbLine
 10
7142.0445469918
 20
5269.9023231092
 30
0.0
 11
7142.1110545886
 21
5270.0324361135
 31
0.0
  0
ARC
  5
321
330
1F
100
AcDbEntity
  8
0
  6
Continuous
 62
     7
370
    25
100
AcDbCircle
 10
7139.4386713325
 20
5237.2777540008
 30
0.0
 40
32.72847533058275
100
AcDbArc
 50
85.4332158269
 51
90.6446179146
  0
LINE
  5
322
330
1F
100
AcDbEntity
  8
0
  6
Continuous
 62
     7
370
    25
100
AcDbLine
 10
7139.0704606786
 20
5270.0041579948
 30
0.0
 11
7139.1369682754
 21
5270.1342709991
 31
0.0
  0
LWPOLYLINE
  5
323
330
1F
100
AcDbEntity
  8
0
  6
Continuous
 62
     7
370
    25
100
AcDbPolyline
 90
        7
 70
   128
 43
0.0
 10
7133.4738644008
 20
5267.5265783953
 10
7132.6323594872
 20
5267.8854006392
 10
7132.108559788
 20
5268.2826538426
 10
7131.9269575949
 20
5268.6997628871
 10
7132.0960444248
 20
5269.1172242173
 10
7132.6079139653
 20
5269.5155178056
 10
7132.6843636786
 20
5269.5573979366
  0
LWPOLYLINE
  5
324
330
1F
100
AcDbEntity
  8
0
  6
Continuous
 62
     7
370
    25
100
AcDbPolyline
 90
       14
 70
   128
 43
0.0
 10
7146.8779684396
 20
5268.9286736038
 10
7146.8797323322
 20
5268.9246597843
 10
7146.8860269129
 20
5268.5049140294
 10
7146.543541061
 20
5268.0946314762
 10
7145.8682890343
 20
5267.712996481
 10
7144.891844867
 20
5267.3778538721
 10
7143.6598660032
 20
5267.1048745453
 10
7142.2299584054
 20
5266.9068227106
 10
7140.6689829634
 20
5266.7929590516
 10
7139.0499291542
 20
5266.7686077065
 10
7137.4485021344
 20
5266.834907317
 10
7135.9395828516
 20
5266.9887577872
 10
7134.5937266944
 20
5267.22296524
 10
7133.4738644008
 20
5267.5265783953
  0
LINE
  5
325
330
1F
100
AcDbEntity
  8
0
  6
Continuous
 62
     7
370
    25
100
AcDbLine
 10
7139.0704606786
 20
5270.2955437236
 30
0.0
 11
7139.0704606786
 21
5270.0041579948
 31
0.0
  0
LINE
  5
326
330
1F
100
AcDbEntity
  8
0
  6
Continuous
 62
     7
370
    25
100
AcDbLine
 10
7135.0655783598
 20
5269.8526329043
 30
0.0
 11
7135.3740257256
 21
5269.7484573817
 31
0.0
  0
ARC
  5
327
330
1F
100
AcDbEntity
  8
0
  6
Continuous
 62
     7
370
    25
100
AcDbCircle
 10
7137.6248353527
 20
5252.1611160196
 30
0.0
 40
17.73078453322438
100
AcDbArc
 50
97.2930101399
 51
105.1437664242
  0
LINE
  5
328
330
1F
100
AcDbEntity
  8
0
  6
Continuous
 62
     7
370
    25
100
AcDbLine
 10
7132.6843636786
 20
5269.3803454706
 30
0.0
 11
7132.9928110444
 21
5269.276169948
 31
0.0
  0
LINE
  5
329
330
1F
100
AcDbEntity
  8
0
  6
Continuous
 62
     7
370
    25
100
AcDbLine
 10
7135.3740257256
 20
5270.0720337967
 30
0.0
 11
7135.3740257256
 21
5269.7484573817
 31
0.0
  0
LINE
  5
32A
330
1F
100
AcDbEntity
  8
0
  6
Continuous
 62
     7
370
    25
100
AcDbLine
 10
7145.7594115909
 20
5269.4864682512
 30
0.0
 11
7145.3569082798
 21
5269.4066361986
 31
0.0
  0
LINE
  5
32B
330
1F
100
AcDbEntity
  8
0
  6
Continuous
 62
     7
370
    25
100
AcDbLine
 10
7147.5841901095
 20
5268.8701645413
 30
0.0
 11
7147.1816867984
 21
5268.7903324886
 31
0.0
  0
ARC
  5
32C
330
1F
100
AcDbEntity
  8
0
  6
Continuous
 62
     7
370
    25
100
AcDbCircle
 10
7143.45936786
 20
5260.7787237543
 30
0.0
 40
8.834111884657151
100
AcDbArc
 50
65.0796807338
 51
77.5963840454
  0
LINE
  5
32D
330
1F
100
AcDbEntity
  8
0
  6
Continuous
 62
     7
370
    25
100
AcDbLine
 10
7145.3569082798
 20
5269.7850690029
 30
0.0
 11
7145.3569082798
 21
5269.4066361986
 31
0.0
  0
LINE
  5
32E
330
1F
100
AcDbEntity
  8
0
  6
Continuous
 62
     7
370
    25
100
AcDbLine
 10
7131.0776238893
 20
5269.1061403224
 30
0.0
 11
7131.0776238893
 21
5268.4188677624
 31
0.0
  0
LINE
  5
32F
330
1F
100
AcDbEntity
  8
0
  6
Continuous
 62
     7
370
    25
100
AcDbLine
 10
7131.0776238893
 20
5268.4188677624
 30
0.0
 11
7130.5749058446
 21
5268.4360811951
 31
0.0
  0
ARC
  5
330
330
1F
100
AcDbEntity
  8
0
  6
Continuous
 62
     7
370
    25
100
AcDbCircle
 10
7131.542336802
 20
5267.695894482
 30
0.0
 40
0.859446598330319
100
AcDbArc
 50
122.7321069521
 51
183.1199656667
  0
LINE
  5
331
330
1F
100
AcDbEntity
  8
0
  6
Continuous
 62
     7
370
    25
100
AcDbLine
 10
7130.6841641054
 20
5267.6491175828
 30
0.0
 11
7130.1814460607
 21
5267.6663310154
 31
0.0
  0
LINE
  5
332
330
1F
100
AcDbEntity
  8
0
  6
Continuous
 62
     7
370
    25
100
AcDbLine
 10
7130.6841641054
 20
5267.8336247238
 30
0.0
 11
7130.6841641054
 21
5267.6491175828
 31
0.0
  0
LINE
  5
333
330
1F
100
AcDbEntity
  8
0
  6
Continuous
 62
     7
370
    25
100
AcDbLine
 10
7148.1696381022
 20
5268.79955055
 30
0.0
 11
7148.1696381022
 21
5267.8336247238
 31
0.0
  0
LINE
  5
334
330
1F
100
AcDbEntity
  8
0
  6
Continuous
 62
     7
370
    25
100
AcDbLine
 10
7148.1696381022
 20
5267.8336247238
 30
0.0
 11
7148.672356147
 21
5267.8164112911
 31
0.0
  0
ARC
  5
335
330
1F
100
AcDbEntity
  8
0
  6
Continuous
 62
     7
370
    25
100
AcDbCircle
 10
7147.3114654057
 20
5267.7868478245
 30
0.0
 40
0.859446598332994
100
AcDbArc
 50
302.7321069523
 51
3.1199656666
  0
LINE
  5
336
330
1F
100
AcDbEntity
  8
0
  6
Continuous
 62
     7
370
    25
100
AcDbLine
 10
7147.7761783184
 20
5267.0638745441
 30
0.0
 11
7148.2788963631
 21
5267.0466611114
 31
0.0
  0
LINE
  5
337
330
1F
100
AcDbEntity
  8
0
  6
Continuous
 62
     7
370
    25
100
AcDbLine
 10
7147.7761783184
 20
5268.0298003704
 30
0.0
 11
7147.7761783184
 21
5267.0638745441
 31
0.0
  0
LINE
  5
338
330
1F
100
AcDbEntity
  8
0
  6
Continuous
 62
     7
370
    25
100
AcDbLine
 10
7131.6721154093
 20
5267.6583356442
 30
0.0
 11
7131.6721154093
 21
5266.6924098179
 31
0.0
  0
LINE
  5
339
330
1F
100
AcDbEntity
  8
0
  6
Continuous
 62
     7
370
    25
100
AcDbLine
 10
7131.2696120982
 20
5266.6125777653
 30
0.0
 11
7131.6721154093
 21
5266.6924098179
 31
0.0
  0
ARC
  5
33A
330
1F
100
AcDbEntity
  8
0
  6
Continuous
 62
     7
370
    25
100
AcDbCircle
 10
7135.3944343477
 20
5274.7040185521
 30
0.0
 40
8.83411188455198
100
AcDbArc
 50
245.0796807337
 51
257.5963840454
  0
LINE
  5
33B
330
1F
100
AcDbEntity
  8
0
  6
Continuous
 62
     7
370
    25
100
AcDbLine
 10
7133.4968939279
 20
5267.0420319343
 30
0.0
 11
7133.4968939279
 21
5266.076106108
 31
0.0
  0
LINE
  5
33C
330
1F
100
AcDbEntity
  8
0
  6
Continuous
 62
     7
370
    25
100
AcDbLine
 10
7133.0943906168
 20
5265.9962740553
 30
0.0
 11
7133.4968939279
 21
5266.076106108
 31
0.0
  0
LINE
  5
33D
330
1F
100
AcDbEntity
  8
0
  6
Continuous
 62
     7
370
    25
100
AcDbLine
 10
7145.8609911633
 20
5267.1724981848
 30
0.0
 11
7145.8609911633
 21
5266.2065723585
 31
0.0
  0
LINE
  5
33E
330
1F
100
AcDbEntity
  8
0
  6
Continuous
 62
     7
370
    25
100
AcDbLine
 10
7146.1694385291
 20
5266.1023968359
 30
0.0
 11
7145.8609911633
 21
5266.2065723585
 31
0.0
  0
ARC
  5
33F
330
1F
100
AcDbEntity
  8
0
  6
Continuous
 62
     7
370
    25
100
AcDbCircle
 10
7141.2289668551
 20
5283.3216262866
 30
0.0
 40
17.73078453291737
100
AcDbArc
 50
277.2930101399
 51
285.1437664243
  0
LINE
  5
340
330
1F
100
AcDbEntity
  8
0
  6
Continuous
 62
     7
370
    25
100
AcDbLine
 10
7143.4797764821
 20
5266.7002107511
 30
0.0
 11
7143.4797764821
 21
5265.7342849248
 31
0.0
  0
LINE
  5
341
330
1F
100
AcDbEntity
  8
0
  6
Continuous
 62
     7
370
    25
100
AcDbLine
 10
7143.7882238479
 20
5265.6301094022
 30
0.0
 11
7143.4797764821
 21
5265.7342849248
 31
0.0
  0
LINE
  5
342
330
1F
100
AcDbEntity
  8
0
  6
Continuous
 62
     7
370
    25
100
AcDbLine
 10
7136.8092552158
 20
5266.5463450236
 30
0.0
 11
7136.8092552158
 21
5265.5804191973
 31
0.0
  0
LINE
  5
343
330
1F
100
AcDbEntity
  8
0
  6
Continuous
 62
     7
370
    25
100
AcDbLine
 10
7139.7833415291
 20
5266.444510138
 30
0.0
 11
7139.7833415291
 21
5265.4785843117
 31
0.0
  0
ARC
  5
344
330
1F
100
AcDbEntity
  8
0
  6
Continuous
 62
     7
370
    25
100
AcDbCircle
 10
7139.4151308752
 20
5298.2049883069
 30
0.0
 40
32.72847533169072
100
AcDbArc
 50
265.433215827
 51
270.6446179145
  0
LINE
  5
345
330
1F
100
AcDbEntity
  8
0
  6
Continuous
 62
     7
370
    25
100
AcDbLine
 10
7136.8092552158
 20
5265.5804191973
 30
0.0
 11
7136.7427476191
 21
5265.450306193
 31
0.0
  0
LINE
  5
346
330
1F
100
AcDbEntity
  8
0
  6
Continuous
 62
     7
370
    25
100
AcDbLine
 10
7139.7833415291
 20
5265.4785843117
 30
0.0
 11
7139.7168339323
 21
5265.3484713074
 31
0.0
  0
ARC
  5
347
330
1F
100
AcDbEntity
  8
0
  6
Continuous
 62
     7
370
    25
100
AcDbCircle
 10
5339.5365139765
 20
5298.6462427575
 30
0.0
 40
32.33234845680739
100
AcDbArc
 50
270.3195445577
 51
277.00524986
  0
ARC
  5
348
330
1F
100
AcDbEntity
  8
0
  6
Continuous
 62
     7
370
    25
100
AcDbCircle
 10
5341.3358775744
 20
5284.2335735461
 30
0.0
 40
18.76440461090725
100
AcDbArc
 50
277.5095473836
 51
284.9272291805
  0
LINE
  5
349
330
1F
100
AcDbEntity
  8
0
  6
Continuous
 62
     7
370
    25
100
AcDbLine
 10
5346.1694385291
 20
5267.0683226621
 30
0.0
 11
5346.1694385291
 21
5266.1023968358
 31
0.0
  0
ARC
  5
34A
330
1F
100
AcDbEntity
  8
0
  6
Continuous
 62
     7
370
    25
100
AcDbCircle
 10
5344.294341742
 20
5274.4450983757
 30
0.0
 40
7.611360449389948
100
AcDbArc
 50
284.2619248086
 51
297.2228497749
  0
ARC
  5
34B
330
1F
100
AcDbEntity
  8
0
  6
Continuous
 62
     7
370
    25
100
AcDbCircle
 10
5347.7698008711
 20
5267.7923206612
 30
0.0
 40
0.9028767270925417
100
AcDbArc
 50
304.32312055
 51
1.5289520685
  0
LINE
  5
34C
330
1F
100
AcDbEntity
  8
0
  6
Continuous
 62
     7
370
    25
100
AcDbLine
 10
5348.672356147
 20
5268.4201149325
 30
0.0
 11
5348.672356147
 21
5267.8164112909
 31
0.0
  0
LINE
  5
34D
330
1F
100
AcDbEntity
  8
0
  6
Continuous
 62
     7
370
    25
100
AcDbLine
 10
5347.5841901095
 20
5269.181816244
 30
0.0
 11
5347.5841901095
 21
5268.8701645411
 31
0.0
  0
ARC
  5
34E
330
1F
100
AcDbEntity
  8
0
  6
Continuous
 62
     7
370
    25
100
AcDbCircle
 10
5343.6953971787
 20
5260.3656524538
 30
0.0
 40
9.351440332977102
100
AcDbArc
 50
65.4271673512
 51
77.248897428
  0
LINE
  5
34F
330
1F
100
AcDbEntity
  8
0
  6
Continuous
 62
     7
370
    25
100
AcDbLine
 10
5345.7594115909
 20
5269.7025114918
 30
0.0
 11
5345.7594115909
 21
5269.4864682511
 31
0.0
  0
LINE
  5
350
330
1F
100
AcDbEntity
  8
0
  6
Continuous
 62
     7
370
    25
100
AcDbLine
 10
5342.1110545886
 20
5270.2009821383
 30
0.0
 11
5342.1110545886
 21
5270.0324361134
 31
0.0
  0
ARC
  5
351
330
1F
100
AcDbEntity
  8
0
  6
Continuous
 62
     7
370
    25
100
AcDbCircle
 10
5339.4400878068
 20
5235.506881747
 30
0.0
 40
34.6287159428821
100
AcDbArc
 50
85.5762935842
 51
90.5015401573
  0
LINE
  5
352
330
1F
100
AcDbEntity
  8
0
  6
Continuous
 62
     7
370
    25
100
AcDbLine
 10
5339.1369682753
 20
5270.2961073857
 30
0.0
 11
5339.1369682753
 21
5270.1342709989
 31
0.0
  0
LINE
  5
353
330
1F
100
AcDbEntity
  8
0
  6
Continuous
 62
     7
370
    25
100
AcDbLine
 10
5335.0655783597
 20
5270.0344332386
 30
0.0
 11
5335.0655783597
 21
5269.8526329042
 31
0.0
  0
ARC
  5
354
330
1F
100
AcDbEntity
  8
0
  6
Continuous
 62
     7
370
    25
100
AcDbCircle
 10
5337.5179246332
 20
5251.2491687601
 30
0.0
 40
18.76440461099635
100
AcDbArc
 50
97.5095473837
 51
104.9272291805
  0
LINE
  5
355
330
1F
100
AcDbEntity
  8
0
  6
Continuous
 62
     7
370
    25
100
AcDbLine
 10
5332.6843636785
 20
5269.6087073198
 30
0.0
 11
5332.6843636785
 21
5269.3803454705
 31
0.0
  0
LINE
  5
356
330
1F
100
AcDbEntity
  8
0
  6
Continuous
 62
     7
370
    25
100
AcDbLine
 10
5330.5749058445
 20
5268.8742125317
 30
0.0
 11
5330.5749058445
 21
5268.436081195
 31
0.0
  0
ARC
  5
357
330
1F
100
AcDbEntity
  8
0
  6
Continuous
 62
     7
370
    25
100
AcDbCircle
 10
5331.0840013364
 20
5267.690421645
 30
0.0
 40
0.9028767270856448
100
AcDbArc
 50
124.3231205499
 51
181.5289520687
  0
ARC
  5
358
330
1F
100
AcDbEntity
  8
0
  6
Continuous
 62
     7
370
    25
100
AcDbCircle
 10
5332.7945442891
 20
5270.8224424834
 30
0.0
 40
3.584488488188631
100
AcDbArc
 50
234.2803223173
 51
244.8224117416
  0
LINE
  5
359
330
1F
100
AcDbEntity
  8
0
  6
Continuous
 62
     7
370
    25
100
AcDbLine
 10
5331.2696120981
 20
5267.5785035914
 30
0.0
 11
5331.2696120981
 21
5266.6125777651
 31
0.0
  0
ARC
  5
35A
330
1F
100
AcDbEntity
  8
0
  6
Continuous
 62
     7
370
    25
100
AcDbCircle
 10
5335.1584050288
 20
5275.1170898521
 30
0.0
 40
9.351440332658932
100
AcDbArc
 50
245.427167351
 51
257.2488974282
  0
ARC
  5
35B
330
1F
100
AcDbEntity
  8
0
  6
Continuous
 62
     7
370
    25
100
AcDbCircle
 10
5338.487100542
 20
5290.7344172631
 30
0.0
 40
24.38066653477443
100
AcDbArc
 50
258.189300535
 51
265.8971784142
  0
LINE
  5
35C
330
1F
100
AcDbEntity
  8
0
  6
Continuous
 62
     7
370
    25
100
AcDbLine
 10
5336.742747619
 20
5266.4162320192
 30
0.0
 11
5336.742747619
 21
5265.4503061929
 31
0.0
  0
ARC
  5
35D
330
1F
100
AcDbEntity
  8
0
  6
Continuous
 62
     7
370
    25
100
AcDbCircle
 10
5339.4137144008
 20
5299.975860559
 30
0.0
 40
34.62871594271101
100
AcDbArc
 50
265.5762935841
 51
270.5015401573
  0
LWPOLYLINE
  5
35E
330
1F
100
AcDbEntity
  8
0
  6
Continuous
 62
     7
370
    25
100
AcDbPolyline
 90
        6
 70
   128
 43
0.0
 10
5332.8785607305
 20
5267.4085065367
 10
5331.9783275141
 20
5267.7892642766
 10
5331.4036327058
 20
5268.2101444509
 10
5331.1795932265
 20
5268.6527525762
 10
5331.3160006763
 20
5269.0977445537
 10
5331.4721673956
 20
5269.273437337
  0
LWPOLYLINE
  5
35F
330
1F
100
AcDbEntity
  8
0
  6
Continuous
 62
     7
370
    25
100
AcDbPolyline
 90
        6
 70
   128
 43
0.0
 10
5347.5841901095
 20
5269.0265097547
 10
5347.6742089811
 20
5268.7618413826
 10
5347.5378015313
 20
5268.3168494051
 10
5347.0469088123
 20
5267.8889218602
 10
5346.2229851916
 20
5267.496761235
 10
5345.8696729391
 20
5267.3736079128
  0
LINE
  5
360
330
1F
100
AcDbEntity
  8
0
  6
Continuous
 62
     7
370
    25
100
AcDbLine
 10
5333.2287075125
 20
5267.2981016418
 30
0.0
 11
5332.8785607305
 21
5267.4085065367
 31
0.0
  0
LINE
  5
361
330
1F
100
AcDbEntity
  8
0
  6
Continuous
 62
     7
370
    25
100
AcDbLine
 10
5348.1696381022
 20
5268.7995505499
 30
0.0
 11
5348.4314492543
 21
5268.790585945
 31
0.0
  0
ARC
  5
362
330
1F
100
AcDbEntity
  8
0
  6
Continuous
 62
     7
370
    25
100
AcDbCircle
 10
5347.1862921543
 20
5268.8512650589
 30
0.0
 40
1.011320879472402
100
AcDbArc
 50
305.681776379
 51
346.4922228012
  0
LINE
  5
363
330
1F
100
AcDbEntity
  8
0
  6
Continuous
 62
     7
370
    25
100
AcDbLine
 10
5346.1694385291
 20
5267.0683226621
 30
0.0
 11
5345.8609911633
 21
5267.1724981847
 31
0.0
  0
ARC
  5
364
330
1F
100
AcDbEntity
  8
0
  6
Continuous
 62
     7
370
    25
100
AcDbCircle
 10
5341.228966855
 20
5284.287552113
 30
0.0
 40
17.73078453312598
100
AcDbArc
 50
277.2930101399
 51
285.1437664243
  0
ARC
  5
365
330
1F
100
AcDbEntity
  8
0
  6
Continuous
 62
     7
370
    25
100
AcDbCircle
 10
5339.4151308752
 20
5299.1709141328
 30
0.0
 40
32.72847533142627
100
AcDbArc
 50
265.4332158269
 51
270.6446179145
  0
LINE
  5
366
330
1F
100
AcDbEntity
  8
0
  6
Continuous
 62
     7
370
    25
100
AcDbLine
 10
5336.8092552158
 20
5266.5463450235
 30
0.0
 11
5336.742747619
 21
5266.4162320192
 31
0.0
  0
ARC
  5
367
330
1F
100
AcDbEntity
  8
0
  6
Continuous
 62
     7
370
    25
100
AcDbCircle
 10
5335.3944343477
 20
5275.6699443784
 30
0.0
 40
8.834111884676373
100
AcDbArc
 50
245.0796807337
 51
257.5963840453
  0
LINE
  5
368
330
1F
100
AcDbEntity
  8
0
  6
Continuous
 62
     7
370
    25
100
AcDbLine
 10
5331.2696120981
 20
5267.5785035914
 30
0.0
 11
5331.6721154093
 21
5267.6583356441
 31
0.0
  0
LWPOLYLINE
  5
369
330
1F
100
AcDbEntity
  8
0
  6
Continuous
 62
     7
370
    25
100
AcDbPolyline
 90
        3
 70
   128
 43
0.0
 10
5331.9269011038
 20
5268.7836794066
 10
5331.4036327058
 20
5269.1760702771
 10
5331.3907049145
 20
5269.1902598926
  0
LINE
  5
36A
330
1F
100
AcDbEntity
  8
0
  6
Continuous
 62
     7
370
    25
100
AcDbLine
 10
5347.046618522
 20
5268.8546666477
 30
0.0
 11
5346.9269011038
 21
5268.7836794066
 31
0.0
  0
LINE
  5
36B
330
1F
100
AcDbEntity
  8
0
  6
Continuous
 62
     7
370
    25
100
AcDbLine
 10
5342.0445469918
 20
5269.9023231091
 30
0.0
 11
5342.1110545886
 21
5270.0324361134
 31
0.0
  0
ARC
  5
36C
330
1F
100
AcDbEntity
  8
0
  6
Continuous
 62
     7
370
    25
100
AcDbCircle
 10
5339.4386713324
 20
5237.2777539999
 30
0.0
 40
32.72847533126622
100
AcDbArc
 50
85.4332158269
 51
90.6446179145
  0
LINE
  5
36D
330
1F
100
AcDbEntity
  8
0
  6
Continuous
 62
     7
370
    25
100
AcDbLine
 10
5339.0704606786
 20
5270.0041579946
 30
0.0
 11
5339.1369682753
 21
5270.1342709989
 31
0.0
  0
LWPOLYLINE
  5
36E
330
1F
100
AcDbEntity
  8
0
  6
Continuous
 62
     7
370
    25
100
AcDbPolyline
 90
        7
 70
   128
 43
0.0
 10
5333.4738644008
 20
5267.5265783951
 10
5332.6323594871
 20
5267.8854006391
 10
5332.1085597879
 20
5268.2826538425
 10
5331.9269575949
 20
5268.6997628869
 10
5332.0960444247
 20
5269.1172242172
 10
5332.6079139652
 20
5269.5155178054
 10
5332.6843636785
 20
5269.5573979365
  0
LWPOLYLINE
  5
36F
330
1F
100
AcDbEntity
  8
0
  6
Continuous
 62
     7
370
    25
100
AcDbPolyline
 90
       14
 70
   128
 43
0.0
 10
5346.8779691494
 20
5268.928672003
 10
5346.8797323322
 20
5268.9246597842
 10
5346.8860269129
 20
5268.5049140292
 10
5346.543541061
 20
5268.0946314761
 10
5345.8682890343
 20
5267.7129964809
 10
5344.891844867
 20
5267.377853872
 10
5343.6598660032
 20
5267.1048745452
 10
5342.2299584053
 20
5266.9068227105
 10
5340.6689829634
 20
5266.7929590514
 10
5339.0499291542
 20
5266.7686077063
 10
5337.4485021344
 20
5266.8349073169
 10
5335.9395828515
 20
5266.9887577871
 10
5334.5937266943
 20
5267.2229652399
 10
5333.4738644008
 20
5267.5265783951
  0
LINE
  5
370
330
1F
100
AcDbEntity
  8
0
  6
Continuous
 62
     7
370
    25
100
AcDbLine
 10
5339.0704606786
 20
5270.2955437235
 30
0.0
 11
5339.0704606786
 21
5270.0041579946
 31
0.0
  0
LINE
  5
371
330
1F
100
AcDbEntity
  8
0
  6
Continuous
 62
     7
370
    25
100
AcDbLine
 10
5335.0655783597
 20
5269.8526329042
 30
0.0
 11
5335.3740257255
 21
5269.7484573816
 31
0.0
  0
ARC
  5
372
330
1F
100
AcDbEntity
  8
0
  6
Continuous
 62
     7
370
    25
100
AcDbCircle
 10
5337.6248353526
 20
5252.1611160198
 30
0.0
 40
17.73078453290455
100
AcDbArc
 50
97.2930101399
 51
105.1437664243
  0
LINE
  5
373
330
1F
100
AcDbEntity
  8
0
  6
Continuous
 62
     7
370
    25
100
AcDbLine
 10
5332.6843636785
 20
5269.3803454705
 30
0.0
 11
5332.9928110443
 21
5269.2761699479
 31
0.0
  0
LINE
  5
374
330
1F
100
AcDbEntity
  8
0
  6
Continuous
 62
     7
370
    25
100
AcDbLine
 10
5335.3740257255
 20
5270.0720337965
 30
0.0
 11
5335.3740257255
 21
5269.7484573816
 31
0.0
  0
LINE
  5
375
330
1F
100
AcDbEntity
  8
0
  6
Continuous
 62
     7
370
    25
100
AcDbLine
 10
5345.7594115909
 20
5269.4864682511
 30
0.0
 11
5345.3569082797
 21
5269.4066361984
 31
0.0
  0
LINE
  5
376
330
1F
100
AcDbEntity
  8
0
  6
Continuous
 62
     7
370
    25
100
AcDbLine
 10
5347.5841901095
 20
5268.8701645411
 30
0.0
 11
5347.1816867983
 21
5268.7903324884
 31
0.0
  0
ARC
  5
377
330
1F
100
AcDbEntity
  8
0
  6
Continuous
 62
     7
370
    25
100
AcDbCircle
 10
5343.4593678599
 20
5260.7787237542
 30
0.0
 40
8.834111884658322
100
AcDbArc
 50
65.0796807337
 51
77.5963840453
  0
LINE
  5
378
330
1F
100
AcDbEntity
  8
0
  6
Continuous
 62
     7
370
    25
100
AcDbLine
 10
5345.3569082797
 20
5269.7850690027
 30
0.0
 11
5345.3569082797
 21
5269.4066361984
 31
0.0
  0
LINE
  5
379
330
1F
100
AcDbEntity
  8
0
  6
Continuous
 62
     7
370
    25
100
AcDbLine
 10
5331.0776238893
 20
5269.1061403222
 30
0.0
 11
5331.0776238893
 21
5268.4188677623
 31
0.0
  0
LINE
  5
37A
330
1F
100
AcDbEntity
  8
0
  6
Continuous
 62
     7
370
    25
100
AcDbLine
 10
5331.0776238893
 20
5268.4188677623
 30
0.0
 11
5330.5749058445
 21
5268.436081195
 31
0.0
  0
ARC
  5
37B
330
1F
100
AcDbEntity
  8
0
  6
Continuous
 62
     7
370
    25
100
AcDbCircle
 10
5331.5423368019
 20
5267.6958944819
 30
0.0
 40
0.8594465983297493
100
AcDbArc
 50
122.7321069521
 51
183.1199656667
  0
LINE
  5
37C
330
1F
100
AcDbEntity
  8
0
  6
Continuous
 62
     7
370
    25
100
AcDbLine
 10
5330.6841641054
 20
5267.6491175826
 30
0.0
 11
5330.1814460606
 21
5267.6663310153
 31
0.0
  0
LINE
  5
37D
330
1F
100
AcDbEntity
  8
0
  6
Continuous
 62
     7
370
    25
100
AcDbLine
 10
5330.6841641054
 20
5267.8336247236
 30
0.0
 11
5330.6841641054
 21
5267.6491175826
 31
0.0
  0
LINE
  5
37E
330
1F
100
AcDbEntity
  8
0
  6
Continuous
 62
     7
370
    25
100
AcDbLine
 10
5348.1696381022
 20
5268.7995505499
 30
0.0
 11
5348.1696381022
 21
5267.8336247236
 31
0.0
  0
LINE
  5
37F
330
1F
100
AcDbEntity
  8
0
  6
Continuous
 62
     7
370
    25
100
AcDbLine
 10
5348.1696381022
 20
5267.8336247236
 30
0.0
 11
5348.672356147
 21
5267.8164112909
 31
0.0
  0
ARC
  5
380
330
1F
100
AcDbEntity
  8
0
  6
Continuous
 62
     7
370
    25
100
AcDbCircle
 10
5347.3114654057
 20
5267.7868478244
 30
0.0
 40
0.8594465983373861
100
AcDbArc
 50
302.7321069522
 51
3.1199656664
  0
LINE
  5
381
330
1F
100
AcDbEntity
  8
0
  6
Continuous
 62
     7
370
    25
100
AcDbLine
 10
5347.7761783183
 20
5267.063874544
 30
0.0
 11
5348.2788963631
 21
5267.0466611113
 31
0.0
  0
LINE
  5
382
330
1F
100
AcDbEntity
  8
0
  6
Continuous
 62
     7
370
    25
100
AcDbLine
 10
5347.7761783183
 20
5268.0298003703
 30
0.0
 11
5347.7761783183
 21
5267.063874544
 31
0.0
  0
LINE
  5
383
330
1F
100
AcDbEntity
  8
0
  6
Continuous
 62
     7
370
    25
100
AcDbLine
 10
5331.6721154093
 20
5267.6583356441
 30
0.0
 11
5331.6721154093
 21
5266.6924098178
 31
0.0
  0
LINE
  5
384
330
1F
100
AcDbEntity
  8
0
  6
Continuous
 62
     7
370
    25
100
AcDbLine
 10
5331.2696120981
 20
5266.6125777651
 30
0.0
 11
5331.6721154093
 21
5266.6924098178
 31
0.0
  0
ARC
  5
385
330
1F
100
AcDbEntity
  8
0
  6
Continuous
 62
     7
370
    25
100
AcDbCircle
 10
5335.3944343477
 20
5274.7040185522
 30
0.0
 40
8.834111884814178
100
AcDbArc
 50
245.0796807339
 51
257.5963840453
  0
LINE
  5
386
330
1F
100
AcDbEntity
  8
0
  6
Continuous
 62
     7
370
    25
100
AcDbLine
 10
5333.4968939279
 20
5267.0420319341
 30
0.0
 11
5333.4968939279
 21
5266.0761061078
 31
0.0
  0
LINE
  5
387
330
1F
100
AcDbEntity
  8
0
  6
Continuous
 62
     7
370
    25
100
AcDbLine
 10
5333.0943906167
 20
5265.9962740551
 30
0.0
 11
5333.4968939279
 21
5266.0761061078
 31
0.0
  0
LINE
  5
388
330
1F
100
AcDbEntity
  8
0
  6
Continuous
 62
     7
370
    25
100
AcDbLine
 10
5345.8609911633
 20
5267.1724981847
 30
0.0
 11
5345.8609911633
 21
5266.2065723584
 31
0.0
  0
LINE
  5
389
330
1F
100
AcDbEntity
  8
0
  6
Continuous
 62
     7
370
    25
100
AcDbLine
 10
5346.1694385291
 20
5266.1023968358
 30
0.0
 11
5345.8609911633
 21
5266.2065723584
 31
0.0
  0
ARC
  5
38A
330
1F
100
AcDbEntity
  8
0
  6
Continuous
 62
     7
370
    25
100
AcDbCircle
 10
5341.228966855
 20
5283.3216262865
 30
0.0
 40
17.73078453292324
100
AcDbArc
 50
277.2930101399
 51
285.1437664243
  0
LINE
  5
38B
330
1F
100
AcDbEntity
  8
0
  6
Continuous
 62
     7
370
    25
100
AcDbLine
 10
5343.4797764821
 20
5266.700210751
 30
0.0
 11
5343.4797764821
 21
5265.7342849247
 31
0.0
  0
LINE
  5
38C
330
1F
100
AcDbEntity
  8
0
  6
Continuous
 62
     7
370
    25
100
AcDbLine
 10
5343.7882238479
 20
5265.6301094021
 30
0.0
 11
5343.4797764821
 21
5265.7342849247
 31
0.0
  0
LINE
  5
38D
330
1F
100
AcDbEntity
  8
0
  6
Continuous
 62
     7
370
    25
100
AcDbLine
 10
5336.8092552158
 20
5266.5463450235
 30
0.0
 11
5336.8092552158
 21
5265.5804191972
 31
0.0
  0
LINE
  5
38E
330
1F
100
AcDbEntity
  8
0
  6
Continuous
 62
     7
370
    25
100
AcDbLine
 10
5339.783341529
 20
5266.4445101379
 30
0.0
 11
5339.783341529
 21
5265.4785843116
 31
0.0
  0
ARC
  5
38F
330
1F
100
AcDbEntity
  8
0
  6
Continuous
 62
     7
370
    25
100
AcDbCircle
 10
5339.4151308752
 20
5298.204988307
 30
0.0
 40
32.7284753319655
100
AcDbArc
 50
265.433215827
 51
270.6446179145
  0
LINE
  5
390
330
1F
100
AcDbEntity
  8
0
  6
Continuous
 62
     7
370
    25
100
AcDbLine
 10
5336.8092552158
 20
5265.5804191972
 30
0.0
 11
5336.742747619
 21
5265.4503061929
 31
0.0
  0
LINE
  5
391
330
1F
100
AcDbEntity
  8
0
  6
Continuous
 62
     7
370
    25
100
AcDbLine
 10
5339.783341529
 20
5265.4785843116
 30
0.0
 11
5339.7168339323
 21
5265.3484713073
 31
0.0
  0
ARC
  5
392
330
1F
100
AcDbEntity
  8
0
  6
Continuous
 62
     7
370
    25
100
AcDbCircle
 10
6539.5365139765
 20
5298.6462427578
 30
0.0
 40
32.33234845699209
100
AcDbArc
 50
270.3195445578
 51
277.00524986
  0
ARC
  5
393
330
1F
100
AcDbEntity
  8
0
  6
Continuous
 62
     7
370
    25
100
AcDbCircle
 10
6541.3358775745
 20
5284.233573546
 30
0.0
 40
18.76440461069296
100
AcDbArc
 50
277.5095473836
 51
284.9272291806
  0
LINE
  5
394
330
1F
100
AcDbEntity
  8
0
  6
Continuous
 62
     7
370
    25
100
AcDbLine
 10
6546.1694385291
 20
5267.0683226622
 30
0.0
 11
6546.1694385291
 21
5266.1023968359
 31
0.0
  0
ARC
  5
395
330
1F
100
AcDbEntity
  8
0
  6
Continuous
 62
     7
370
    25
100
AcDbCircle
 10
6544.294341742
 20
5274.4450983759
 30
0.0
 40
7.611360449490367
100
AcDbArc
 50
284.2619248087
 51
297.2228497749
  0
ARC
  5
396
330
1F
100
AcDbEntity
  8
0
  6
Continuous
 62
     7
370
    25
100
AcDbCircle
 10
6547.7698008712
 20
5267.7923206614
 30
0.0
 40
0.9028767270901421
100
AcDbArc
 50
304.3231205499
 51
1.5289520686
  0
LINE
  5
397
330
1F
100
AcDbEntity
  8
0
  6
Continuous
 62
     7
370
    25
100
AcDbLine
 10
6548.672356147
 20
5268.4201149326
 30
0.0
 11
6548.672356147
 21
5267.8164112911
 31
0.0
  0
LINE
  5
398
330
1F
100
AcDbEntity
  8
0
  6
Continuous
 62
     7
370
    25
100
AcDbLine
 10
6547.5841901095
 20
5269.1818162441
 30
0.0
 11
6547.5841901095
 21
5268.8701645413
 31
0.0
  0
ARC
  5
399
330
1F
100
AcDbEntity
  8
0
  6
Continuous
 62
     7
370
    25
100
AcDbCircle
 10
6543.6953971788
 20
5260.3656524541
 30
0.0
 40
9.351440332830158
100
AcDbArc
 50
65.4271673511
 51
77.2488974281
  0
LINE
  5
39A
330
1F
100
AcDbEntity
  8
0
  6
Continuous
 62
     7
370
    25
100
AcDbLine
 10
6545.7594115909
 20
5269.7025114919
 30
0.0
 11
6545.7594115909
 21
5269.4864682512
 31
0.0
  0
LINE
  5
39B
330
1F
100
AcDbEntity
  8
0
  6
Continuous
 62
     7
370
    25
100
AcDbLine
 10
6542.1110545886
 20
5270.2009821384
 30
0.0
 11
6542.1110545886
 21
5270.0324361135
 31
0.0
  0
ARC
  5
39C
330
1F
100
AcDbEntity
  8
0
  6
Continuous
 62
     7
370
    25
100
AcDbCircle
 10
6539.4400878069
 20
5235.5068817481
 30
0.0
 40
34.62871594194274
100
AcDbArc
 50
85.5762935841
 51
90.5015401573
  0
LINE
  5
39D
330
1F
100
AcDbEntity
  8
0
  6
Continuous
 62
     7
370
    25
100
AcDbLine
 10
6539.1369682754
 20
5270.2961073859
 30
0.0
 11
6539.1369682754
 21
5270.1342709991
 31
0.0
  0
LINE
  5
39E
330
1F
100
AcDbEntity
  8
0
  6
Continuous
 62
     7
370
    25
100
AcDbLine
 10
6535.0655783598
 20
5270.0344332387
 30
0.0
 11
6535.0655783598
 21
5269.8526329043
 31
0.0
  0
ARC
  5
39F
330
1F
100
AcDbEntity
  8
0
  6
Continuous
 62
     7
370
    25
100
AcDbCircle
 10
6537.5179246332
 20
5251.2491687603
 30
0.0
 40
18.76440461096351
100
AcDbArc
 50
97.5095473836
 51
104.9272291805
  0
LINE
  5
3A0
330
1F
100
AcDbEntity
  8
0
  6
Continuous
 62
     7
370
    25
100
AcDbLine
 10
6532.6843636786
 20
5269.6087073199
 30
0.0
 11
6532.6843636786
 21
5269.3803454706
 31
0.0
  0
LINE
  5
3A1
330
1F
100
AcDbEntity
  8
0
  6
Continuous
 62
     7
370
    25
100
AcDbLine
 10
6530.5749058446
 20
5268.8742125318
 30
0.0
 11
6530.5749058446
 21
5268.4360811951
 31
0.0
  0
ARC
  5
3A2
330
1F
100
AcDbEntity
  8
0
  6
Continuous
 62
     7
370
    25
100
AcDbCircle
 10
6531.0840013365
 20
5267.6904216451
 30
0.0
 40
0.9028767270910998
100
AcDbArc
 50
124.32312055
 51
181.5289520687
  0
ARC
  5
3A3
330
1F
100
AcDbEntity
  8
0
  6
Continuous
 62
     7
370
    25
100
AcDbCircle
 10
6532.7786145915
 20
5270.7928556223
 30
0.0
 40
3.55093614453956
100
AcDbArc
 50
233.8550182221
 51
244.8519277997
  0
LINE
  5
3A4
330
1F
100
AcDbEntity
  8
0
  6
Continuous
 62
     7
370
    25
100
AcDbLine
 10
6531.2696120982
 20
5267.5785035915
 30
0.0
 11
6531.2696120982
 21
5266.6125777653
 31
0.0
  0
ARC
  5
3A5
330
1F
100
AcDbEntity
  8
0
  6
Continuous
 62
     7
370
    25
100
AcDbCircle
 10
6535.1584050289
 20
5275.1170898524
 30
0.0
 40
9.351440332849105
100
AcDbArc
 50
245.4271673511
 51
257.2488974281
  0
ARC
  5
3A6
330
1F
100
AcDbEntity
  8
0
  6
Continuous
 62
     7
370
    25
100
AcDbCircle
 10
6538.487100542
 20
5290.734417263
 30
0.0
 40
24.38066653448254
100
AcDbArc
 50
258.189300535
 51
265.8971784142
  0
LINE
  5
3A7
330
1F
100
AcDbEntity
  8
0
  6
Continuous
 62
     7
370
    25
100
AcDbLine
 10
6536.7427476191
 20
5266.4162320193
 30
0.0
 11
6536.7427476191
 21
5265.450306193
 31
0.0
  0
ARC
  5
3A8
330
1F
100
AcDbEntity
  8
0
  6
Continuous
 62
     7
370
    25
100
AcDbCircle
 10
6539.4137144008
 20
5299.9758605588
 30
0.0
 40
34.62871594232098
100
AcDbArc
 50
265.5762935841
 51
270.5015401573
  0
LWPOLYLINE
  5
3A9
330
1F
100
AcDbEntity
  8
0
  6
Continuous
 62
     7
370
    25
100
AcDbPolyline
 90
        6
 70
   128
 43
0.0
 10
6532.8785607305
 20
5267.4085065368
 10
6531.9783275142
 20
5267.7892642768
 10
6531.4036327059
 20
5268.210144451
 10
6531.1795932265
 20
5268.6527525763
 10
6531.3160006764
 20
5269.0977445538
 10
6531.4721673957
 20
5269.2734373371
  0
LWPOLYLINE
  5
3AA
330
1F
100
AcDbEntity
  8
0
  6
Continuous
 62
     7
370
    25
100
AcDbPolyline
 90
        6
 70
   128
 43
0.0
 10
6547.5841901095
 20
5269.0265097548
 10
6547.6742089812
 20
5268.7618413828
 10
6547.5378015313
 20
5268.3168494053
 10
6547.0469088123
 20
5267.8889218604
 10
6546.2229851917
 20
5267.4967612352
 10
6545.8696729392
 20
5267.3736079129
  0
LINE
  5
3AB
330
1F
100
AcDbEntity
  8
0
  6
Continuous
 62
     7
370
    25
100
AcDbLine
 10
6533.2008276639
 20
5267.3063587256
 30
0.0
 11
6532.8785607305
 21
5267.4085065368
 31
0.0
  0
LINE
  5
3AC
330
1F
100
AcDbEntity
  8
0
  6
Continuous
 62
     7
370
    25
100
AcDbLine
 10
6548.1696381022
 20
5268.79955055
 30
0.0
 11
6548.4314492544
 21
5268.7905859452
 31
0.0
  0
ARC
  5
3AD
330
1F
100
AcDbEntity
  8
0
  6
Continuous
 62
     7
370
    25
100
AcDbCircle
 10
6547.1862921543
 20
5268.8512650591
 30
0.0
 40
1.011320879477673
100
AcDbArc
 50
305.6817763791
 51
346.4922228011
  0
LINE
  5
3AE
330
1F
100
AcDbEntity
  8
0
  6
Continuous
 62
     7
370
    25
100
AcDbLine
 10
6546.1694385291
 20
5267.0683226622
 30
0.0
 11
6545.8609911633
 21
5267.1724981848
 31
0.0
  0
ARC
  5
3AF
330
1F
100
AcDbEntity
  8
0
  6
Continuous
 62
     7
370
    25
100
AcDbCircle
 10
6541.228966855
 20
5284.287552113
 30
0.0
 40
17.73078453298696
100
AcDbArc
 50
277.2930101399
 51
285.1437664243
  0
ARC
  5
3B0
330
1F
100
AcDbEntity
  8
0
  6
Continuous
 62
     7
370
    25
100
AcDbCircle
 10
6539.4151308752
 20
5299.1709141326
 30
0.0
 40
32.72847533114267
100
AcDbArc
 50
265.4332158269
 51
270.6446179145
  0
LINE
  5
3B1
330
1F
100
AcDbEntity
  8
0
  6
Continuous
 62
     7
370
    25
100
AcDbLine
 10
6536.8092552158
 20
5266.5463450236
 30
0.0
 11
6536.7427476191
 21
5266.4162320193
 31
0.0
  0
ARC
  5
3B2
330
1F
100
AcDbEntity
  8
0
  6
Continuous
 62
     7
370
    25
100
AcDbCircle
 10
6535.3944343477
 20
5275.6699443785
 30
0.0
 40
8.834111884685965
100
AcDbArc
 50
245.0796807338
 51
257.5963840454
  0
LINE
  5
3B3
330
1F
100
AcDbEntity
  8
0
  6
Continuous
 62
     7
370
    25
100
AcDbLine
 10
6531.2696120982
 20
5267.5785035915
 30
0.0
 11
6531.6721154093
 21
5267.6583356442
 31
0.0
  0
LWPOLYLINE
  5
3B4
330
1F
100
AcDbEntity
  8
0
  6
Continuous
 62
     7
370
    25
100
AcDbPolyline
 90
        3
 70
   128
 43
0.0
 10
6531.9269011038
 20
5268.7836794067
 10
6531.4036327059
 20
5269.1760702773
 10
6531.3907049146
 20
5269.1902598927
  0
LINE
  5
3B5
330
1F
100
AcDbEntity
  8
0
  6
Continuous
 62
     7
370
    25
100
AcDbLine
 10
6547.0466182562
 20
5268.8546664821
 30
0.0
 11
6546.9269011038
 21
5268.7836794067
 31
0.0
  0
LINE
  5
3B6
330
1F
100
AcDbEntity
  8
0
  6
Continuous
 62
     7
370
    25
100
AcDbLine
 10
6542.0445469918
 20
5269.9023231092
 30
0.0
 11
6542.1110545886
 21
5270.0324361135
 31
0.0
  0
ARC
  5
3B7
330
1F
100
AcDbEntity
  8
0
  6
Continuous
 62
     7
370
    25
100
AcDbCircle
 10
6539.4386713325
 20
5237.2777540008
 30
0.0
 40
32.72847533058275
100
AcDbArc
 50
85.4332158269
 51
90.6446179146
  0
LINE
  5
3B8
330
1F
100
AcDbEntity
  8
0
  6
Continuous
 62
     7
370
    25
100
AcDbLine
 10
6539.0704606786
 20
5270.0041579948
 30
0.0
 11
6539.1369682754
 21
5270.1342709991
 31
0.0
  0
LWPOLYLINE
  5
3B9
330
1F
100
AcDbEntity
  8
0
  6
Continuous
 62
     7
370
    25
100
AcDbPolyline
 90
        7
 70
   128
 43
0.0
 10
6533.4738644008
 20
5267.5265783953
 10
6532.6323594872
 20
5267.8854006392
 10
6532.108559788
 20
5268.2826538426
 10
6531.9269575949
 20
5268.6997628871
 10
6532.0960444248
 20
5269.1172242173
 10
6532.6079139653
 20
5269.5155178056
 10
6532.6843636786
 20
5269.5573979366
  0
LWPOLYLINE
  5
3BA
330
1F
100
AcDbEntity
  8
0
  6
Continuous
 62
     7
370
    25
100
AcDbPolyline
 90
       14
 70
   128
 43
0.0
 10
6546.8779684411
 20
5268.9286736004
 10
6546.8797323322
 20
5268.9246597843
 10
6546.8860269129
 20
5268.5049140294
 10
6546.543541061
 20
5268.0946314762
 10
6545.8682890343
 20
5267.712996481
 10
6544.891844867
 20
5267.3778538721
 10
6543.6598660032
 20
5267.1048745453
 10
6542.2299584054
 20
5266.9068227106
 10
6540.6689829634
 20
5266.7929590516
 10
6539.0499291542
 20
5266.7686077065
 10
6537.4485021344
 20
5266.834907317
 10
6535.9395828516
 20
5266.9887577872
 10
6534.5937266944
 20
5267.22296524
 10
6533.4738644008
 20
5267.5265783953
  0
LINE
  5
3BB
330
1F
100
AcDbEntity
  8
0
  6
Continuous
 62
     7
370
    25
100
AcDbLine
 10
6539.0704606786
 20
5270.2955437236
 30
0.0
 11
6539.0704606786
 21
5270.0041579948
 31
0.0
  0
LINE
  5
3BC
330
1F
100
AcDbEntity
  8
0
  6
Continuous
 62
     7
370
    25
100
AcDbLine
 10
6535.0655783598
 20
5269.8526329043
 30
0.0
 11
6535.3740257256
 21
5269.7484573817
 31
0.0
  0
ARC
  5
3BD
330
1F
100
AcDbEntity
  8
0
  6
Continuous
 62
     7
370
    25
100
AcDbCircle
 10
6537.6248353527
 20
5252.1611160196
 30
0.0
 40
17.73078453322642
100
AcDbArc
 50
97.2930101399
 51
105.1437664242
  0
LINE
  5
3BE
330
1F
100
AcDbEntity
  8
0
  6
Continuous
 62
     7
370
    25
100
AcDbLine
 10
6532.6843636786
 20
5269.3803454706
 30
0.0
 11
6532.9928110444
 21
5269.276169948
 31
0.0
  0
LINE
  5
3BF
330
1F
100
AcDbEntity
  8
0
  6
Continuous
 62
     7
370
    25
100
AcDbLine
 10
6535.3740257256
 20
5270.0720337967
 30
0.0
 11
6535.3740257256
 21
5269.7484573817
 31
0.0
  0
LINE
  5
3C0
330
1F
100
AcDbEntity
  8
0
  6
Continuous
 62
     7
370
    25
100
AcDbLine
 10
6545.7594115909
 20
5269.4864682512
 30
0.0
 11
6545.3569082798
 21
5269.4066361986
 31
0.0
  0
LINE
  5
3C1
330
1F
100
AcDbEntity
  8
0
  6
Continuous
 62
     7
370
    25
100
AcDbLine
 10
6547.5841901095
 20
5268.8701645413
 30
0.0
 11
6547.1816867984
 21
5268.7903324886
 31
0.0
  0
ARC
  5
3C2
330
1F
100
AcDbEntity
  8
0
  6
Continuous
 62
     7
370
    25
100
AcDbCircle
 10
6543.45936786
 20
5260.7787237543
 30
0.0
 40
8.834111884657005
100
AcDbArc
 50
65.0796807338
 51
77.5963840454
  0
LINE
  5
3C3
330
1F
100
AcDbEntity
  8
0
  6
Continuous
 62
     7
370
    25
100
AcDbLine
 10
6545.3569082798
 20
5269.7850690029
 30
0.0
 11
6545.3569082798
 21
5269.4066361986
 31
0.0
  0
LINE
  5
3C4
330
1F
100
AcDbEntity
  8
0
  6
Continuous
 62
     7
370
    25
100
AcDbLine
 10
6531.0776238893
 20
5269.1061403224
 30
0.0
 11
6531.0776238893
 21
5268.4188677624
 31
0.0
  0
LINE
  5
3C5
330
1F
100
AcDbEntity
  8
0
  6
Continuous
 62
     7
370
    25
100
AcDbLine
 10
6531.0776238893
 20
5268.4188677624
 30
0.0
 11
6530.5749058446
 21
5268.4360811951
 31
0.0
  0
ARC
  5
3C6
330
1F
100
AcDbEntity
  8
0
  6
Continuous
 62
     7
370
    25
100
AcDbCircle
 10
6531.542336802
 20
5267.695894482
 30
0.0
 40
0.8594465983297493
100
AcDbArc
 50
122.7321069521
 51
183.1199656667
  0
LINE
  5
3C7
330
1F
100
AcDbEntity
  8
0
  6
Continuous
 62
     7
370
    25
100
AcDbLine
 10
6530.6841641054
 20
5267.6491175828
 30
0.0
 11
6530.1814460607
 21
5267.6663310154
 31
0.0
  0
LINE
  5
3C8
330
1F
100
AcDbEntity
  8
0
  6
Continuous
 62
     7
370
    25
100
AcDbLine
 10
6530.6841641054
 20
5267.8336247238
 30
0.0
 11
6530.6841641054
 21
5267.6491175828
 31
0.0
  0
LINE
  5
3C9
330
1F
100
AcDbEntity
  8
0
  6
Continuous
 62
     7
370
    25
100
AcDbLine
 10
6548.1696381022
 20
5268.79955055
 30
0.0
 11
6548.1696381022
 21
5267.8336247238
 31
0.0
  0
LINE
  5
3CA
330
1F
100
AcDbEntity
  8
0
  6
Continuous
 62
     7
370
    25
100
AcDbLine
 10
6548.1696381022
 20
5267.8336247238
 30
0.0
 11
6548.672356147
 21
5267.8164112911
 31
0.0
  0
ARC
  5
3CB
330
1F
100
AcDbEntity
  8
0
  6
Continuous
 62
     7
370
    25
100
AcDbCircle
 10
6547.3114654057
 20
5267.7868478245
 30
0.0
 40
0.8594465983400116
100
AcDbArc
 50
302.7321069524
 51
3.1199656663
  0
LINE
  5
3CC
330
1F
100
AcDbEntity
  8
0
  6
Continuous
 62
     7
370
    25
100
AcDbLine
 10
6547.7761783184
 20
5267.0638745441
 30
0.0
 11
6548.2788963631
 21
5267.0466611114
 31
0.0
  0
LINE
  5
3CD
330
1F
100
AcDbEntity
  8
0
  6
Continuous
 62
     7
370
    25
100
AcDbLine
 10
6547.7761783184
 20
5268.0298003704
 30
0.0
 11
6547.7761783184
 21
5267.0638745441
 31
0.0
  0
LINE
  5
3CE
330
1F
100
AcDbEntity
  8
0
  6
Continuous
 62
     7
370
    25
100
AcDbLine
 10
6531.6721154093
 20
5267.6583356442
 30
0.0
 11
6531.6721154093
 21
5266.6924098179
 31
0.0
  0
LINE
  5
3CF
330
1F
100
AcDbEntity
  8
0
  6
Continuous
 62
     7
370
    25
100
AcDbLine
 10
6531.2696120982
 20
5266.6125777653
 30
0.0
 11
6531.6721154093
 21
5266.6924098179
 31
0.0
  0
ARC
  5
3D0
330
1F
100
AcDbEntity
  8
0
  6
Continuous
 62
     7
370
    25
100
AcDbCircle
 10
6535.3944343477
 20
5274.7040185522
 30
0.0
 40
8.83411188459732
100
AcDbArc
 50
245.0796807337
 51
257.5963840454
  0
LINE
  5
3D1
330
1F
100
AcDbEntity
  8
0
  6
Continuous
 62
     7
370
    25
100
AcDbLine
 10
6533.4968939279
 20
5267.0420319343
 30
0.0
 11
6533.4968939279
 21
5266.076106108
 31
0.0
  0
LINE
  5
3D2
330
1F
100
AcDbEntity
  8
0
  6
Continuous
 62
     7
370
    25
100
AcDbLine
 10
6533.0943906168
 20
5265.9962740553
 30
0.0
 11
6533.4968939279
 21
5266.076106108
 31
0.0
  0
LINE
  5
3D3
330
1F
100
AcDbEntity
  8
0
  6
Continuous
 62
     7
370
    25
100
AcDbLine
 10
6545.8609911633
 20
5267.1724981848
 30
0.0
 11
6545.8609911633
 21
5266.2065723585
 31
0.0
  0
LINE
  5
3D4
330
1F
100
AcDbEntity
  8
0
  6
Continuous
 62
     7
370
    25
100
AcDbLine
 10
6546.1694385291
 20
5266.1023968359
 30
0.0
 11
6545.8609911633
 21
5266.2065723585
 31
0.0
  0
ARC
  5
3D5
330
1F
100
AcDbEntity
  8
0
  6
Continuous
 62
     7
370
    25
100
AcDbCircle
 10
6541.2289668551
 20
5283.3216262866
 30
0.0
 40
17.7307845328965
100
AcDbArc
 50
277.2930101399
 51
285.1437664243
  0
LINE
  5
3D6
330
1F
100
AcDbEntity
  8
0
  6
Continuous
 62
     7
370
    25
100
AcDbLine
 10
6543.4797764821
 20
5266.7002107511
 30
0.0
 11
6543.4797764821
 21
5265.7342849248
 31
0.0
  0
LINE
  5
3D7
330
1F
100
AcDbEntity
  8
0
  6
Continuous
 62
     7
370
    25
100
AcDbLine
 10
6543.7882238479
 20
5265.6301094022
 30
0.0
 11
6543.4797764821
 21
5265.7342849248
 31
0.0
  0
LINE
  5
3D8
330
1F
100
AcDbEntity
  8
0
  6
Continuous
 62
     7
370
    25
100
AcDbLine
 10
6536.8092552158
 20
5266.5463450236
 30
0.0
 11
6536.8092552158
 21
5265.5804191973
 31
0.0
  0
LINE
  5
3D9
330
1F
100
AcDbEntity
  8
0
  6
Continuous
 62
     7
370
    25
100
AcDbLine
 10
6539.7833415291
 20
5266.444510138
 30
0.0
 11
6539.7833415291
 21
5265.4785843117
 31
0.0
  0
ARC
  5
3DA
330
1F
100
AcDbEntity
  8
0
  6
Continuous
 62
     7
370
    25
100
AcDbCircle
 10
6539.4151308752
 20
5298.2049883068
 30
0.0
 40
32.72847533165435
100
AcDbArc
 50
265.4332158269
 51
270.6446179145
  0
LINE
  5
3DB
330
1F
100
AcDbEntity
  8
0
  6
Continuous
 62
     7
370
    25
100
AcDbLine
 10
6536.8092552158
 20
5265.5804191973
 30
0.0
 11
6536.7427476191
 21
5265.450306193
 31
0.0
  0
LINE
  5
3DC
330
1F
100
AcDbEntity
  8
0
  6
Continuous
 62
     7
370
    25
100
AcDbLine
 10
6539.7833415291
 20
5265.4785843117
 30
0.0
 11
6539.7168339323
 21
5265.3484713074
 31
0.0
  0
CIRCLE
  5
3DD
330
1F
100
AcDbEntity
  8
0
  6
Continuous
 62
     7
370
    25
100
AcDbCircle
 10
7139.4269011047
 20
5276.5042541415
 30
0.0
 40
29.49999999999986
  0
CIRCLE
  5
3DE
330
1F
100
AcDbEntity
  8
0
  6
Continuous
 62
     7
370
    25
100
AcDbCircle
 10
7139.4269011047
 20
5276.5042541415
 30
0.0
 40
30.00000000000118
  0
CIRCLE
  5
3DF
330
1F
100
AcDbEntity
  8
0
  6
Continuous
 62
     7
370
    25
100
AcDbCircle
 10
5339.4269011047
 20
5276.5042541415
 30
0.0
 40
29.50000000000187
  0
CIRCLE
  5
3E0
330
1F
100
AcDbEntity
  8
0
  6
Continuous
 62
     7
370
    25
100
AcDbCircle
 10
5339.4269011047
 20
5276.5042541415
 30
0.0
 40
30.00000000000066
  0
CIRCLE
  5
3E1
330
1F
100
AcDbEntity
  8
0
  6
Continuous
 62
     7
370
    25
100
AcDbCircle
 10
7739.4269011047
 20
5276.5042541415
 30
0.0
 40
29.50000000000038
  0
CIRCLE
  5
3E2
330
1F
100
AcDbEntity
  8
0
  6
Continuous
 62
     7
370
    25
100
AcDbCircle
 10
7739.4269011047
 20
5276.5042541415
 30
0.0
 40
30.00000000000066
  0
CIRCLE
  5
3E3
330
1F
100
AcDbEntity
  8
0
  6
Continuous
 62
     7
370
    25
100
AcDbCircle
 10
6539.4269011047
 20
5276.5042541415
 30
0.0
 40
29.50000000000038
  0
CIRCLE
  5
3E4
330
1F
100
AcDbEntity
  8
0
  6
Continuous
 62
     7
370
    25
100
AcDbCircle
 10
6539.4269011047
 20
5276.5042541415
 30
0.0
 40
30.00000000000118
  0
CIRCLE
  5
3E5
330
1F
100
AcDbEntity
  8
0
  6
Continuous
 62
     7
370
    25
100
AcDbCircle
 10
5939.4269011047
 20
5276.5042541415
 30
0.0
 40
29.49999999999986
  0
CIRCLE
  5
3E6
330
1F
100
AcDbEntity
  8
0
  6
Continuous
 62
     7
370
    25
100
AcDbCircle
 10
5939.4269011047
 20
5276.5042541415
 30
0.0
 40
30.00000000000066
  0
LINE
  5
3E7
330
1F
100
AcDbEntity
  8
0
  6
Continuous
 62
     7
370
    25
100
AcDbLine
 10
5927.2762152933
 20
5271.8824758746
 30
0.0
 11
5951.5775869147
 21
5271.8824758746
 31
0.0
  0
LINE
  5
3E8
330
1F
100
AcDbEntity
  8
0
  6
Continuous
 62
     7
370
    25
100
AcDbLine
 10
5952.5452304715
 20
5271.6145266822
 30
0.0
 11
5951.5775869147
 21
5271.8824758746
 31
0.0
  0
ARC
  5
3E9
330
1F
100
AcDbEntity
  8
0
  6
Continuous
 62
     7
370
    25
100
AcDbCircle
 10
5939.426901104
 20
5276.5042541395
 30
0.0
 40
13.99999999999974
100
AcDbArc
 50
200.4424420745
 51
339.5575579255
  0
LINE
  5
3EA
330
1F
100
AcDbEntity
  8
0
  6
Continuous
 62
     7
370
    25
100
AcDbLine
 10
5927.2762152933
 20
5271.8824758746
 30
0.0
 11
5926.3085717366
 21
5271.6145266822
 31
0.0
  0
LWPOLYLINE
  5
3EB
330
1F
100
AcDbEntity
  8
0
  6
Continuous
 62
     7
370
    25
100
AcDbPolyline
 90
       34
 70
   128
 43
0.0
 10
5939.426901104
 20
5270.2972092233
 10
5941.2957571421
 20
5270.2510218998
 10
5943.0970678537
 20
5270.1141292595
 10
5944.7657291764
 20
5269.891478959
 10
5946.2414313424
 20
5269.5911181604
 10
5947.4708386305
 20
5269.2239026854
 10
5948.4095170581
 20
5268.8031046582
 10
5949.0235403412
 20
5268.3439328158
 10
5949.2907160784
 20
5267.8629828249
 10
5949.2013878426
 20
5267.3776374713
 10
5948.7587841888
 20
5266.9054384007
 10
5947.9789019664
 20
5266.4634521178
 10
5946.8899281508
 20
5266.0676531583
 10
5945.5312210929
 20
5265.7323467281
 10
5943.9518880061
 20
5265.469651675
 10
5942.2090101028
 20
5265.2890624827
 10
5940.3655795316
 20
5265.1971061152
 10
5938.4882226764
 20
5265.1971061152
 10
5936.6447921052
 20
5265.2890624827
 10
5934.9019142019
 20
5265.469651675
 10
5933.3225811151
 20
5265.7323467281
 10
5931.9638740573
 20
5266.0676531583
 10
5930.8749002416
 20
5266.4634521178
 10
5930.0950180192
 20
5266.9054384007
 10
5929.6524143654
 20
5267.3776374713
 10
5929.5630861296
 20
5267.8629828249
 10
5929.8302618668
 20
5268.3439328158
 10
5930.4442851499
 20
5268.8031046582
 10
5931.3829635775
 20
5269.2239026854
 10
5932.6123708656
 20
5269.5911181604
 10
5934.0880730316
 20
5269.891478959
 10
5935.7567343544
 20
5270.1141292595
 10
5937.5580450659
 20
5270.2510218998
 10
5939.426901104
 20
5270.2972092233
  0
ARC
  5
3EC
330
1F
100
AcDbEntity
  8
0
  6
Continuous
 62
     7
370
    25
100
AcDbCircle
 10
5939.426901104
 20
5276.5042541395
 30
0.0
 40
13.99999999999974
100
AcDbArc
 50
339.5575579255
 51
200.4424420745
  0
ARC
  5
3ED
330
1F
100
AcDbEntity
  8
0
  6
Continuous
 62
     7
370
    25
100
AcDbCircle
 10
5939.426901104
 20
5276.5042541395
 30
0.0
 40
13.0000000000006
100
AcDbArc
 50
339.1745965348
 51
200.8254034652
  0
LWPOLYLINE
  5
3EE
330
1F
100
AcDbEntity
  8
0
  6
Continuous
 62
     7
370
    25
100
AcDbPolyline
 90
        3
 70
   128
 43
0.0
 10
5948.6769011038
 20
5268.6192451999
 10
5948.801901104
 20
5268.2243340661
 10
5948.6769011038
 20
5267.8294229323
  0
LWPOLYLINE
  5
3EF
330
1F
100
AcDbEntity
  8
0
  6
Continuous
 62
     7
370
    25
100
AcDbPolyline
 90
        3
 70
   128
 43
0.0
 10
5947.7761783184
 20
5267.1207752131
 10
5947.2219287193
 20
5266.8762825924
 10
5946.1694385291
 20
5266.5384539943
  0
ARC
  5
3F0
330
1F
100
AcDbEntity
  8
0
  6
Continuous
 62
     7
370
    25
100
AcDbCircle
 10
5939.5572352868
 20
5298.3119149672
 30
0.0
 40
32.51304127750437
100
AcDbArc
 50
270.3984566598
 51
276.9293382742
  0
ARC
  5
3F1
330
1F
100
AcDbEntity
  8
0
  6
Continuous
 62
     7
370
    25
100
AcDbCircle
 10
5938.5560534945
 20
5291.157973391
 30
0.0
 40
25.32349552553223
100
AcDbArc
 50
258.4758326316
 51
265.8937831655
  0
LWPOLYLINE
  5
3F2
330
1F
100
AcDbEntity
  8
0
  6
Continuous
 62
     7
370
    25
100
AcDbPolyline
 90
        3
 70
   128
 43
0.0
 10
5931.2696120982
 20
5267.0284539233
 10
5930.7655304867
 20
5267.295780061
 10
5930.3071146408
 20
5267.6620280316
  0
LWPOLYLINE
  5
3F3
330
1F
100
AcDbEntity
  8
0
  6
Continuous
 62
     7
370
    25
100
AcDbPolyline
 90
        3
 70
   128
 43
0.0
 10
5930.1769011038
 20
5267.8294229328
 10
5930.051901104
 20
5268.2243340661
 10
5930.1769011038
 20
5268.6192451994
  0
ARC
  5
3F4
330
1F
100
AcDbEntity
  8
0
  6
Continuous
 62
     7
370
    25
100
AcDbCircle
 10
7739.426901104
 20
5276.5042541395
 30
0.0
 40
14.00000000000006
100
AcDbArc
 50
339.5575579255
 51
200.4424420745
  0
LINE
  5
3F5
330
1F
100
AcDbEntity
  8
0
  6
Continuous
 62
     7
370
    25
100
AcDbLine
 10
7752.5452304715
 20
5271.6145266822
 30
0.0
 11
7751.5775869147
 21
5271.8824758746
 31
0.0
  0
ARC
  5
3F6
330
1F
100
AcDbEntity
  8
0
  6
Continuous
 62
     7
370
    25
100
AcDbCircle
 10
7739.426901104
 20
5276.5042541395
 30
0.0
 40
13.0000000000006
100
AcDbArc
 50
339.1745965348
 51
200.8254034652
  0
LINE
  5
3F7
330
1F
100
AcDbEntity
  8
0
  6
Continuous
 62
     7
370
    25
100
AcDbLine
 10
7727.2762152933
 20
5271.8824758746
 30
0.0
 11
7726.3085717366
 21
5271.6145266822
 31
0.0
  0
LINE
  5
3F8
330
1F
100
AcDbEntity
  8
0
  6
Continuous
 62
     7
370
    25
100
AcDbLine
 10
7727.2762152933
 20
5271.8824758746
 30
0.0
 11
7751.5775869147
 21
5271.8824758746
 31
0.0
  0
ARC
  5
3F9
330
1F
100
AcDbEntity
  8
0
  6
Continuous
 62
     7
370
    25
100
AcDbCircle
 10
7739.426901104
 20
5276.5042541395
 30
0.0
 40
13.99999999999921
100
AcDbArc
 50
200.4424420745
 51
339.5575579255
  0
LWPOLYLINE
  5
3FA
330
1F
100
AcDbEntity
  8
0
  6
Continuous
 62
     7
370
    25
100
AcDbPolyline
 90
       34
 70
   128
 43
0.0
 10
7739.426901104
 20
5270.2972092233
 10
7741.2957571421
 20
5270.2510218998
 10
7743.0970678537
 20
5270.1141292595
 10
7744.7657291764
 20
5269.891478959
 10
7746.2414313424
 20
5269.5911181604
 10
7747.4708386305
 20
5269.2239026854
 10
7748.4095170581
 20
5268.8031046582
 10
7749.0235403412
 20
5268.3439328158
 10
7749.2907160784
 20
5267.8629828249
 10
7749.2013878426
 20
5267.3776374713
 10
7748.7587841888
 20
5266.9054384007
 10
7747.9789019664
 20
5266.4634521178
 10
7746.8899281508
 20
5266.0676531583
 10
7745.5312210929
 20
5265.7323467281
 10
7743.9518880061
 20
5265.469651675
 10
7742.2090101028
 20
5265.2890624827
 10
7740.3655795316
 20
5265.1971061152
 10
7738.4882226764
 20
5265.1971061152
 10
7736.6447921052
 20
5265.2890624827
 10
7734.9019142019
 20
5265.469651675
 10
7733.3225811151
 20
5265.7323467281
 10
7731.9638740573
 20
5266.0676531583
 10
7730.8749002416
 20
5266.4634521178
 10
7730.0950180192
 20
5266.9054384007
 10
7729.6524143654
 20
5267.3776374713
 10
7729.5630861296
 20
5267.8629828249
 10
7729.8302618668
 20
5268.3439328158
 10
7730.4442851499
 20
5268.8031046582
 10
7731.3829635775
 20
5269.2239026854
 10
7732.6123708656
 20
5269.5911181604
 10
7734.0880730316
 20
5269.891478959
 10
7735.7567343544
 20
5270.1141292595
 10
7737.5580450659
 20
5270.2510218998
 10
7739.426901104
 20
5270.2972092233
  0
LWPOLYLINE
  5
3FB
330
1F
100
AcDbEntity
  8
0
  6
Continuous
 62
     7
370
    25
100
AcDbPolyline
 90
        3
 70
   128
 43
0.0
 10
7748.6769011038
 20
5268.6192451999
 10
7748.801901104
 20
5268.2243340661
 10
7748.6769011038
 20
5267.8294229323
  0
LWPOLYLINE
  5
3FC
330
1F
100
AcDbEntity
  8
0
  6
Continuous
 62
     7
370
    25
100
AcDbPolyline
 90
        3
 70
   128
 43
0.0
 10
7747.7761783184
 20
5267.1207752131
 10
7747.2219287193
 20
5266.8762825924
 10
7746.1694385291
 20
5266.5384539943
  0
ARC
  5
3FD
330
1F
100
AcDbEntity
  8
0
  6
Continuous
 62
     7
370
    25
100
AcDbCircle
 10
7739.5572352869
 20
5298.3119149671
 30
0.0
 40
32.51304127743977
100
AcDbArc
 50
270.3984566598
 51
276.9293382742
  0
ARC
  5
3FE
330
1F
100
AcDbEntity
  8
0
  6
Continuous
 62
     7
370
    25
100
AcDbCircle
 10
7738.5560534945
 20
5291.1579733911
 30
0.0
 40
25.32349552564653
100
AcDbArc
 50
258.4758326316
 51
265.8937831655
  0
LWPOLYLINE
  5
3FF
330
1F
100
AcDbEntity
  8
0
  6
Continuous
 62
     7
370
    25
100
AcDbPolyline
 90
        3
 70
   128
 43
0.0
 10
7731.2696120982
 20
5267.0284539233
 10
7730.7655304867
 20
5267.295780061
 10
7730.3071146408
 20
5267.6620280316
  0
LWPOLYLINE
  5
400
330
1F
100
AcDbEntity
  8
0
  6
Continuous
 62
     7
370
    25
100
AcDbPolyline
 90
        3
 70
   128
 43
0.0
 10
7730.1769011038
 20
5267.8294229328
 10
7730.051901104
 20
5268.2243340661
 10
7730.1820743939
 20
5268.62727834
  0
ARC
  5
401
330
1F
100
AcDbEntity
  8
0
  6
Continuous
 62
     7
370
    25
100
AcDbCircle
 10
7139.426901104
 20
5276.5042541395
 30
0.0
 40
13.0000000000006
100
AcDbArc
 50
339.1745965348
 51
200.8254034652
  0
LINE
  5
402
330
1F
100
AcDbEntity
  8
0
  6
Continuous
 62
     7
370
    25
100
AcDbLine
 10
7127.2762152933
 20
5271.8824758746
 30
0.0
 11
7151.5775869147
 21
5271.8824758746
 31
0.0
  0
ARC
  5
403
330
1F
100
AcDbEntity
  8
0
  6
Continuous
 62
     7
370
    25
100
AcDbCircle
 10
7139.426901104
 20
5276.5042541395
 30
0.0
 40
14.00000000000006
100
AcDbArc
 50
339.5575579255
 51
200.4424420745
  0
LINE
  5
404
330
1F
100
AcDbEntity
  8
0
  6
Continuous
 62
     7
370
    25
100
AcDbLine
 10
7152.5452304715
 20
5271.6145266822
 30
0.0
 11
7151.5775869147
 21
5271.8824758746
 31
0.0
  0
LINE
  5
405
330
1F
100
AcDbEntity
  8
0
  6
Continuous
 62
     7
370
    25
100
AcDbLine
 10
7127.2762152933
 20
5271.8824758746
 30
0.0
 11
7126.3085717366
 21
5271.6145266822
 31
0.0
  0
ARC
  5
406
330
1F
100
AcDbEntity
  8
0
  6
Continuous
 62
     7
370
    25
100
AcDbCircle
 10
7139.426901104
 20
5276.5042541395
 30
0.0
 40
14.00000000000006
100
AcDbArc
 50
200.4424420745
 51
339.5575579255
  0
LWPOLYLINE
  5
407
330
1F
100
AcDbEntity
  8
0
  6
Continuous
 62
     7
370
    25
100
AcDbPolyline
 90
       34
 70
   128
 43
0.0
 10
7139.426901104
 20
5270.2972092233
 10
7141.2957571421
 20
5270.2510218998
 10
7143.0970678537
 20
5270.1141292595
 10
7144.7657291764
 20
5269.891478959
 10
7146.2414313424
 20
5269.5911181604
 10
7147.4708386305
 20
5269.2239026854
 10
7148.4095170581
 20
5268.8031046582
 10
7149.0235403412
 20
5268.3439328158
 10
7149.2907160784
 20
5267.8629828249
 10
7149.2013878426
 20
5267.3776374713
 10
7148.7587841888
 20
5266.9054384007
 10
7147.9789019664
 20
5266.4634521178
 10
7146.8899281508
 20
5266.0676531583
 10
7145.5312210929
 20
5265.7323467281
 10
7143.9518880061
 20
5265.469651675
 10
7142.2090101028
 20
5265.2890624827
 10
7140.3655795316
 20
5265.1971061152
 10
7138.4882226764
 20
5265.1971061152
 10
7136.6447921052
 20
5265.2890624827
 10
7134.9019142019
 20
5265.469651675
 10
7133.3225811151
 20
5265.7323467281
 10
7131.9638740573
 20
5266.0676531583
 10
7130.8749002416
 20
5266.4634521178
 10
7130.0950180192
 20
5266.9054384007
 10
7129.6524143654
 20
5267.3776374713
 10
7129.5630861296
 20
5267.8629828249
 10
7129.8302618668
 20
5268.3439328158
 10
7130.4442851499
 20
5268.8031046582
 10
7131.3829635775
 20
5269.2239026854
 10
7132.6123708656
 20
5269.5911181604
 10
7134.0880730316
 20
5269.891478959
 10
7135.7567343544
 20
5270.1141292595
 10
7137.5580450659
 20
5270.2510218998
 10
7139.426901104
 20
5270.2972092233
  0
LWPOLYLINE
  5
408
330
1F
100
AcDbEntity
  8
0
  6
Continuous
 62
     7
370
    25
100
AcDbPolyline
 90
        3
 70
   128
 43
0.0
 10
7148.6769011038
 20
5268.6192451999
 10
7148.801901104
 20
5268.2243340661
 10
7148.6769011038
 20
5267.8294229323
  0
LWPOLYLINE
  5
409
330
1F
100
AcDbEntity
  8
0
  6
Continuous
 62
     7
370
    25
100
AcDbPolyline
 90
        3
 70
   128
 43
0.0
 10
7147.7761783184
 20
5267.1207752131
 10
7147.2219287193
 20
5266.8762825924
 10
7146.1694385291
 20
5266.5384539943
  0
ARC
  5
40A
330
1F
100
AcDbEntity
  8
0
  6
Continuous
 62
     7
370
    25
100
AcDbCircle
 10
7139.5572352868
 20
5298.3119149673
 30
0.0
 40
32.51304127758902
100
AcDbArc
 50
270.3984566598
 51
276.9293382741
  0
ARC
  5
40B
330
1F
100
AcDbEntity
  8
0
  6
Continuous
 62
     7
370
    25
100
AcDbCircle
 10
7138.5560534945
 20
5291.157973391
 30
0.0
 40
25.32349552552295
100
AcDbArc
 50
258.4758326316
 51
265.8937831655
  0
LWPOLYLINE
  5
40C
330
1F
100
AcDbEntity
  8
0
  6
Continuous
 62
     7
370
    25
100
AcDbPolyline
 90
        3
 70
   128
 43
0.0
 10
7131.2696120982
 20
5267.0284539233
 10
7130.7655304867
 20
5267.295780061
 10
7130.3071146408
 20
5267.6620280316
  0
LWPOLYLINE
  5
40D
330
1F
100
AcDbEntity
  8
0
  6
Continuous
 62
     7
370
    25
100
AcDbPolyline
 90
        3
 70
   128
 43
0.0
 10
7130.1769011038
 20
5267.8294229328
 10
7130.051901104
 20
5268.2243340661
 10
7130.1769011038
 20
5268.6192451994
  0
ARC
  5
40E
330
1F
100
AcDbEntity
  8
0
  6
Continuous
 62
     7
370
    25
100
AcDbCircle
 10
6539.426901104
 20
5276.5042541395
 30
0.0
 40
13.00000000000145
100
AcDbArc
 50
339.1745965348
 51
200.8254034652
  0
LINE
  5
40F
330
1F
100
AcDbEntity
  8
0
  6
Continuous
 62
     7
370
    25
100
AcDbLine
 10
6527.2762152933
 20
5271.8824758746
 30
0.0
 11
6551.5775869147
 21
5271.8824758746
 31
0.0
  0
ARC
  5
410
330
1F
100
AcDbEntity
  8
0
  6
Continuous
 62
     7
370
    25
100
AcDbCircle
 10
6539.426901104
 20
5276.5042541395
 30
0.0
 40
14.00000000000006
100
AcDbArc
 50
339.5575579255
 51
200.4424420745
  0
LINE
  5
411
330
1F
100
AcDbEntity
  8
0
  6
Continuous
 62
     7
370
    25
100
AcDbLine
 10
6552.5452304715
 20
5271.6145266822
 30
0.0
 11
6551.5775869147
 21
5271.8824758746
 31
0.0
  0
LINE
  5
412
330
1F
100
AcDbEntity
  8
0
  6
Continuous
 62
     7
370
    25
100
AcDbLine
 10
6527.2762152933
 20
5271.8824758746
 30
0.0
 11
6526.3085717366
 21
5271.6145266822
 31
0.0
  0
ARC
  5
413
330
1F
100
AcDbEntity
  8
0
  6
Continuous
 62
     7
370
    25
100
AcDbCircle
 10
6539.426901104
 20
5276.5042541395
 30
0.0
 40
14.00000000000059
100
AcDbArc
 50
200.4424420745
 51
339.5575579255
  0
LWPOLYLINE
  5
414
330
1F
100
AcDbEntity
  8
0
  6
Continuous
 62
     7
370
    25
100
AcDbPolyline
 90
       34
 70
   128
 43
0.0
 10
6539.426901104
 20
5270.2972092233
 10
6541.2957571421
 20
5270.2510218998
 10
6543.0970678537
 20
5270.1141292595
 10
6544.7657291764
 20
5269.891478959
 10
6546.2414313424
 20
5269.5911181604
 10
6547.4708386305
 20
5269.2239026854
 10
6548.4095170581
 20
5268.8031046582
 10
6549.0235403412
 20
5268.3439328158
 10
6549.2907160784
 20
5267.8629828249
 10
6549.2013878426
 20
5267.3776374713
 10
6548.7587841888
 20
5266.9054384007
 10
6547.9789019664
 20
5266.4634521178
 10
6546.8899281508
 20
5266.0676531583
 10
6545.5312210929
 20
5265.7323467281
 10
6543.9518880061
 20
5265.469651675
 10
6542.2090101028
 20
5265.2890624827
 10
6540.3655795316
 20
5265.1971061152
 10
6538.4882226764
 20
5265.1971061152
 10
6536.6447921052
 20
5265.2890624827
 10
6534.9019142019
 20
5265.469651675
 10
6533.3225811151
 20
5265.7323467281
 10
6531.9638740573
 20
5266.0676531583
 10
6530.8749002416
 20
5266.4634521178
 10
6530.0950180192
 20
5266.9054384007
 10
6529.6524143654
 20
5267.3776374713
 10
6529.5630861296
 20
5267.8629828249
 10
6529.8302618668
 20
5268.3439328158
 10
6530.4442851499
 20
5268.8031046582
 10
6531.3829635775
 20
5269.2239026854
 10
6532.6123708656
 20
5269.5911181604
 10
6534.0880730316
 20
5269.891478959
 10
6535.7567343544
 20
5270.1141292595
 10
6537.5580450659
 20
5270.2510218998
 10
6539.426901104
 20
5270.2972092233
  0
LWPOLYLINE
  5
415
330
1F
100
AcDbEntity
  8
0
  6
Continuous
 62
     7
370
    25
100
AcDbPolyline
 90
        3
 70
   128
 43
0.0
 10
6548.6769011038
 20
5268.6192451999
 10
6548.801901104
 20
5268.2243340661
 10
6548.6769011038
 20
5267.8294229323
  0
LWPOLYLINE
  5
416
330
1F
100
AcDbEntity
  8
0
  6
Continuous
 62
     7
370
    25
100
AcDbPolyline
 90
        3
 70
   128
 43
0.0
 10
6547.7761783184
 20
5267.1207752131
 10
6547.2219287193
 20
5266.8762825924
 10
6546.1694385291
 20
5266.5384539943
  0
ARC
  5
417
330
1F
100
AcDbEntity
  8
0
  6
Continuous
 62
     7
370
    25
100
AcDbCircle
 10
6539.5572352869
 20
5298.3119149671
 30
0.0
 40
32.51304127743978
100
AcDbArc
 50
270.3984566598
 51
276.9293382742
  0
ARC
  5
418
330
1F
100
AcDbEntity
  8
0
  6
Continuous
 62
     7
370
    25
100
AcDbCircle
 10
6538.5560534945
 20
5291.157973391
 30
0.0
 40
25.32349552559268
100
AcDbArc
 50
258.4758326316
 51
265.8937831655
  0
LWPOLYLINE
  5
419
330
1F
100
AcDbEntity
  8
0
  6
Continuous
 62
     7
370
    25
100
AcDbPolyline
 90
        3
 70
   128
 43
0.0
 10
6531.2696120982
 20
5267.0284539233
 10
6530.7655304867
 20
5267.295780061
 10
6530.3071146408
 20
5267.6620280316
  0
LWPOLYLINE
  5
41A
330
1F
100
AcDbEntity
  8
0
  6
Continuous
 62
     7
370
    25
100
AcDbPolyline
 90
        3
 70
   128
 43
0.0
 10
6530.1769011038
 20
5267.8294229328
 10
6530.051901104
 20
5268.2243340661
 10
6530.1769011038
 20
5268.6192451994
  0
ARC
  5
41B
330
1F
100
AcDbEntity
  8
0
  6
Continuous
 62
     7
370
    25
100
AcDbCircle
 10
5339.426901104
 20
5276.5042541394
 30
0.0
 40
13.99999999999974
100
AcDbArc
 50
339.5575579255
 51
200.4424420745
  0
LINE
  5
41C
330
1F
100
AcDbEntity
  8
0
  6
Continuous
 62
     7
370
    25
100
AcDbLine
 10
5352.5452304714
 20
5271.614526682
 30
0.0
 11
5351.5775869147
 21
5271.8824758744
 31
0.0
  0
ARC
  5
41D
330
1F
100
AcDbEntity
  8
0
  6
Continuous
 62
     7
370
    25
100
AcDbCircle
 10
5339.426901104
 20
5276.5042541394
 30
0.0
 40
13.00000000000028
100
AcDbArc
 50
339.1745965348
 51
200.8254034652
  0
LINE
  5
41E
330
1F
100
AcDbEntity
  8
0
  6
Continuous
 62
     7
370
    25
100
AcDbLine
 10
5327.2762152933
 20
5271.8824758744
 30
0.0
 11
5326.3085717365
 21
5271.614526682
 31
0.0
  0
LINE
  5
41F
330
1F
100
AcDbEntity
  8
0
  6
Continuous
 62
     7
370
    25
100
AcDbLine
 10
5327.2762152933
 20
5271.8824758744
 30
0.0
 11
5351.5775869147
 21
5271.8824758744
 31
0.0
  0
ARC
  5
420
330
1F
100
AcDbEntity
  8
0
  6
Continuous
 62
     7
370
    25
100
AcDbCircle
 10
5339.426901104
 20
5276.5042541394
 30
0.0
 40
14.00000000000091
100
AcDbArc
 50
200.4424420745
 51
339.5575579255
  0
LWPOLYLINE
  5
421
330
1F
100
AcDbEntity
  8
0
  6
Continuous
 62
     7
370
    25
100
AcDbPolyline
 90
       34
 70
   128
 43
0.0
 10
5339.426901104
 20
5270.2972092232
 10
5341.295757142
 20
5270.2510218997
 10
5343.0970678536
 20
5270.1141292593
 10
5344.7657291763
 20
5269.8914789589
 10
5346.2414313424
 20
5269.5911181602
 10
5347.4708386305
 20
5269.2239026853
 10
5348.4095170581
 20
5268.803104658
 10
5349.0235403412
 20
5268.3439328156
 10
5349.2907160784
 20
5267.8629828247
 10
5349.2013878426
 20
5267.3776374712
 10
5348.7587841888
 20
5266.9054384006
 10
5347.9789019663
 20
5266.4634521176
 10
5346.8899281507
 20
5266.0676531582
 10
5345.5312210929
 20
5265.7323467279
 10
5343.951888006
 20
5265.4696516748
 10
5342.2090101028
 20
5265.2890624826
 10
5340.3655795316
 20
5265.1971061151
 10
5338.4882226763
 20
5265.1971061151
 10
5336.6447921052
 20
5265.2890624826
 10
5334.9019142019
 20
5265.4696516748
 10
5333.322581115
 20
5265.7323467279
 10
5331.9638740572
 20
5266.0676531582
 10
5330.8749002416
 20
5266.4634521176
 10
5330.0950180192
 20
5266.9054384005
 10
5329.6524143654
 20
5267.3776374712
 10
5329.5630861295
 20
5267.8629828247
 10
5329.8302618668
 20
5268.3439328156
 10
5330.4442851499
 20
5268.803104658
 10
5331.3829635775
 20
5269.2239026853
 10
5332.6123708656
 20
5269.5911181602
 10
5334.0880730316
 20
5269.8914789589
 10
5335.7567343543
 20
5270.1141292593
 10
5337.5580450659
 20
5270.2510218997
 10
5339.426901104
 20
5270.2972092232
  0
LWPOLYLINE
  5
422
330
1F
100
AcDbEntity
  8
0
  6
Continuous
 62
     7
370
    25
100
AcDbPolyline
 90
        3
 70
   128
 43
0.0
 10
5348.6769011038
 20
5268.6192451998
 10
5348.801901104
 20
5268.2243340659
 10
5348.6769011038
 20
5267.8294229321
  0
LWPOLYLINE
  5
423
330
1F
100
AcDbEntity
  8
0
  6
Continuous
 62
     7
370
    25
100
AcDbPolyline
 90
        3
 70
   128
 43
0.0
 10
5347.7761783183
 20
5267.120775213
 10
5347.2219287193
 20
5266.8762825922
 10
5346.1694385291
 20
5266.5384539941
  0
ARC
  5
424
330
1F
100
AcDbEntity
  8
0
  6
Continuous
 62
     7
370
    25
100
AcDbCircle
 10
5339.5572352868
 20
5298.3119149672
 30
0.0
 40
32.51304127767539
100
AcDbArc
 50
270.3984566598
 51
276.9293382741
  0
ARC
  5
425
330
1F
100
AcDbEntity
  8
0
  6
Continuous
 62
     7
370
    25
100
AcDbCircle
 10
5338.5560534945
 20
5291.1579733909
 30
0.0
 40
25.32349552559451
100
AcDbArc
 50
258.4758326316
 51
265.8937831655
  0
LWPOLYLINE
  5
426
330
1F
100
AcDbEntity
  8
0
  6
Continuous
 62
     7
370
    25
100
AcDbPolyline
 90
        3
 70
   128
 43
0.0
 10
5331.2696120981
 20
5267.0284539231
 10
5330.7655304867
 20
5267.2957800609
 10
5330.3071146407
 20
5267.6620280314
  0
LWPOLYLINE
  5
427
330
1F
100
AcDbEntity
  8
0
  6
Continuous
 62
     7
370
    25
100
AcDbPolyline
 90
        3
 70
   128
 43
0.0
 10
5330.1769011038
 20
5267.8294229327
 10
5330.051901104
 20
5268.2243340659
 10
5330.1769011038
 20
5268.6192451992
  0
LINE
  5
428
330
1F
100
AcDbEntity
  8
0
  6
Continuous
 62
     8
370
    25
100
AcDbLine
 10
5164.8206868242
 20
4557.4544685073
 30
0.0
 11
5219.0331153845
 21
4557.4544685073
 31
0.0
  0
LINE
  5
429
330
1F
100
AcDbEntity
  8
0
  6
Continuous
 62
     8
370
    25
100
AcDbLine
 10
5219.2363428595
 20
4682.1077864674
 30
0.0
 11
5164.6174593492
 21
4682.1077864674
 31
0.0
  0
LINE
  5
42A
330
1F
100
AcDbEntity
  8
0
  6
Continuous
 62
     8
370
    25
100
AcDbLine
 10
5168.9269011044
 20
4698.2601443687
 30
0.0
 11
5214.9269011044
 21
4698.2601443687
 31
0.0
  0
LINE
  5
42B
330
1F
100
AcDbEntity
  8
0
  6
Continuous
 62
     8
370
    25
100
AcDbLine
 10
6557.4269011044
 20
4136.5042541414
 30
0.0
 11
6557.4269011044
 21
4716.5042541414
 31
0.0
  0
LINE
  5
42C
330
1F
100
AcDbEntity
  8
0
  6
Continuous
 62
     8
370
    25
100
AcDbLine
 10
6521.4269011044
 20
4136.5042541414
 30
0.0
 11
6521.4269011044
 21
4716.5042541414
 31
0.0
  0
LINE
  5
42D
330
1F
100
AcDbEntity
  8
0
  6
Continuous
 62
     8
370
    25
100
AcDbLine
 10
5079.4269011044
 20
4136.5042541414
 30
0.0
 11
5079.4269011044
 21
4716.5042541414
 31
0.0
  0
LINE
  5
42E
330
1F
100
AcDbEntity
  8
0
  6
Continuous
 62
     8
370
    25
100
AcDbLine
 10
5043.4269011044
 20
4136.5042541414
 30
0.0
 11
5043.4269011044
 21
4716.5042541414
 31
0.0
  0
LINE
  5
42F
330
1F
100
AcDbEntity
  8
0
  6
Continuous
 62
     8
370
    25
100
AcDbLine
 10
5081.4269011044
 20
4309.5042541414
 30
0.0
 11
6519.4269011044
 21
4309.5042541414
 31
0.0
  0
LINE
  5
430
330
1F
100
AcDbEntity
  8
0
  6
Continuous
 62
     8
370
    25
100
AcDbLine
 10
6559.4269011044
 20
4309.5042541414
 30
0.0
 11
7997.4269011044
 21
4309.5042541414
 31
0.0
  0
LINE
  5
431
330
1F
100
AcDbEntity
  8
0
  6
Continuous
 62
     8
370
    25
100
AcDbLine
 10
5081.4269011044
 20
4273.5042541414
 30
0.0
 11
6519.4269011044
 21
4273.5042541414
 31
0.0
  0
LINE
  5
432
330
1F
100
AcDbEntity
  8
0
  6
Continuous
 62
     8
370
    25
100
AcDbLine
 10
6559.4269011044
 20
4273.5042541414
 30
0.0
 11
7997.4269011044
 21
4273.5042541414
 31
0.0
  0
LINE
  5
433
330
1F
100
AcDbEntity
  8
0
  6
Continuous
 62
     8
370
    25
100
AcDbLine
 10
7999.4269011044
 20
4136.5042541414
 30
0.0
 11
7999.4269011044
 21
4716.5042541414
 31
0.0
  0
LINE
  5
434
330
1F
100
AcDbEntity
  8
0
  6
Continuous
 62
     8
370
    25
100
AcDbLine
 10
8035.4269011044
 20
4136.5042541414
 30
0.0
 11
8035.4269011044
 21
4716.5042541414
 31
0.0
  0
LINE
  5
435
330
1F
100
AcDbEntity
  8
0
  6
Continuous
 62
     7
370
    25
100
AcDbLine
 10
8328.37402381
 20
4702.7601443687
 30
0.0
 11
8322.3661121192
 21
4702.7601443687
 31
0.0
  0
LINE
  5
436
330
1F
100
AcDbEntity
  8
0
  6
Continuous
 62
     7
370
    25
100
AcDbLine
 10
8322.3661121192
 20
4622.7601443687
 30
0.0
 11
8328.37402381
 21
4622.7601443687
 31
0.0
  0
LINE
  5
437
330
1F
100
AcDbEntity
  8
0
  6
Continuous
 62
     7
370
    25
100
AcDbLine
 10
8322.3661121192
 20
4682.7601443687
 30
0.0
 11
8312.3661121192
 21
4682.7601443687
 31
0.0
  0
LINE
  5
438
330
1F
100
AcDbEntity
  8
0
  6
Continuous
 62
     7
370
    25
100
AcDbLine
 10
8312.3661121192
 20
4642.7601443687
 30
0.0
 11
8322.3661121192
 21
4642.7601443687
 31
0.0
  0
LINE
  5
439
330
1F
100
AcDbEntity
  8
0
  6
Continuous
 62
     7
370
    25
100
AcDbLine
 10
8504.8661121192
 20
4682.7601443687
 30
0.0
 11
8368.37402381
 21
4682.7601443687
 31
0.0
  0
LINE
  5
43A
330
1F
100
AcDbEntity
  8
0
  6
Continuous
 62
     7
370
    25
100
AcDbLine
 10
8368.37402381
 20
4642.7601443687
 30
0.0
 11
8504.8661121192
 21
4642.7601443687
 31
0.0
  0
LINE
  5
43B
330
1F
100
AcDbEntity
  8
0
  6
Continuous
 62
     7
370
    25
100
AcDbLine
 10
8548.8661121192
 20
4716.5042541414
 30
0.0
 11
8548.8661121192
 21
4701.2601443687
 31
0.0
  0
LINE
  5
43C
330
1F
100
AcDbEntity
  8
0
  6
Continuous
 62
     7
370
    25
100
AcDbLine
 10
8548.8661121192
 20
4687.2601443687
 30
0.0
 11
8548.8661121192
 21
4684.7601443687
 31
0.0
  0
LINE
  5
43D
330
1F
100
AcDbEntity
  8
0
  6
Continuous
 62
     7
370
    25
100
AcDbLine
 10
8580.8661121192
 20
4684.7601443687
 30
0.0
 11
8580.8661121192
 21
4687.2601443687
 31
0.0
  0
LINE
  5
43E
330
1F
100
AcDbEntity
  8
0
  6
Continuous
 62
     7
370
    25
100
AcDbLine
 10
8580.8661121192
 20
4701.2601443687
 30
0.0
 11
8580.8661121192
 21
4716.5042541414
 31
0.0
  0
LINE
  5
43F
330
1F
100
AcDbEntity
  8
0
  6
Continuous
 62
     7
370
    25
100
AcDbLine
 10
8598.8661121192
 20
4624.7601443687
 30
0.0
 11
8592.1755538744
 21
4682.1077864674
 31
0.0
  0
LINE
  5
440
330
1F
100
AcDbEntity
  8
0
  6
Continuous
 62
     7
370
    25
100
AcDbLine
 10
8532.7372137543
 20
4640.7981583837
 30
0.0
 11
8530.8661121192
 21
4624.7601443687
 31
0.0
  0
LINE
  5
441
330
1F
100
AcDbEntity
  8
0
  6
Continuous
 62
     7
370
    25
100
AcDbLine
 10
8530.8661121192
 20
4624.7601443687
 30
0.0
 11
8537.7598978391
 21
4557.4544685073
 31
0.0
  0
LINE
  5
442
330
1F
100
AcDbEntity
  8
0
  6
Continuous
 62
     7
370
    25
100
AcDbLine
 10
8591.9723263994
 20
4557.4544685073
 30
0.0
 11
8598.8661121192
 21
4624.7601443687
 31
0.0
  0
LINE
  5
443
330
1F
100
AcDbEntity
  8
0
  6
Continuous
 62
     7
370
    25
100
AcDbLine
 10
8520.8661121192
 20
4690.2601443687
 30
0.0
 11
8516.8661121192
 21
4688.7601443687
 31
0.0
  0
LINE
  5
444
330
1F
100
AcDbEntity
  8
0
  6
Continuous
 62
     7
370
    25
100
AcDbLine
 10
8516.8661121192
 20
4636.7601443687
 30
0.0
 11
8520.8661121192
 21
4635.2601443687
 31
0.0
  0
ARC
  5
445
330
1F
100
AcDbEntity
  8
0
  6
Continuous
 62
     7
370
    25
100
AcDbCircle
 10
8589.1957644571
 20
4681.7601443687
 30
0.0
 40
3.000000000000701
100
AcDbArc
 50
6.654425046
 51
90.0
  0
ARC
  5
446
330
1F
100
AcDbEntity
  8
0
  6
Continuous
 62
     7
370
    25
100
AcDbCircle
 10
8540.744284253
 20
4557.7601443687
 30
0.0
 40
3.000000000000332
100
AcDbArc
 50
185.8481280261
 51
270.0
  0
ARC
  5
447
330
1F
100
AcDbEntity
  8
0
  6
Continuous
 62
     7
370
    25
100
AcDbCircle
 10
8588.9879399854
 20
4557.7601443687
 30
0.0
 40
3.000000000000332
100
AcDbArc
 50
270.0
 51
354.1518719739
  0
LINE
  5
448
330
1F
100
AcDbEntity
  8
0
  6
Continuous
 62
     7
370
    25
100
AcDbLine
 10
8516.8661121192
 20
4688.7601443687
 30
0.0
 11
8507.8661121192
 21
4688.7601443687
 31
0.0
  0
LINE
  5
449
330
1F
100
AcDbEntity
  8
0
  6
Continuous
 62
     7
370
    25
100
AcDbLine
 10
8507.8661121192
 20
4636.7601443687
 30
0.0
 11
8516.8661121192
 21
4636.7601443687
 31
0.0
  0
ARC
  5
44A
330
1F
100
AcDbEntity
  8
0
  6
Continuous
 62
     7
370
    25
100
AcDbCircle
 10
8507.8661121192
 20
4685.7601443687
 30
0.0
 40
3.0
100
AcDbArc
 50
90.0
 51
180.0
  0
ARC
  5
44B
330
1F
100
AcDbEntity
  8
0
  6
Continuous
 62
     7
370
    25
100
AcDbCircle
 10
8507.8661121192
 20
4639.7601443687
 30
0.0
 40
3.0
100
AcDbArc
 50
180.0
 51
270.0
  0
LINE
  5
44C
330
1F
100
AcDbEntity
  8
0
  6
Continuous
 62
     7
370
    25
100
AcDbLine
 10
8589.8661121192
 20
4687.2601443687
 30
0.0
 11
8587.8661121192
 21
4691.2601443687
 31
0.0
  0
LINE
  5
44D
330
1F
100
AcDbEntity
  8
0
  6
Continuous
 62
     7
370
    25
100
AcDbLine
 10
8541.8661121192
 20
4691.2601443687
 30
0.0
 11
8539.8661121192
 21
4687.2601443687
 31
0.0
  0
LINE
  5
44E
330
1F
100
AcDbEntity
  8
0
  6
Continuous
 62
     7
370
    25
100
AcDbLine
 10
8541.8661121192
 20
4698.2601443687
 30
0.0
 11
8541.8661121192
 21
4691.2601443687
 31
0.0
  0
LINE
  5
44F
330
1F
100
AcDbEntity
  8
0
  6
Continuous
 62
     7
370
    25
100
AcDbLine
 10
8587.8661121192
 20
4691.2601443687
 30
0.0
 11
8587.8661121192
 21
4698.2601443687
 31
0.0
  0
ARC
  5
450
330
1F
100
AcDbEntity
  8
0
  6
Continuous
 62
     7
370
    25
100
AcDbCircle
 10
8544.8661121192
 20
4698.2601443687
 30
0.0
 40
3.0
100
AcDbArc
 50
90.0
 51
180.0
  0
ARC
  5
451
330
1F
100
AcDbEntity
  8
0
  6
Continuous
 62
     7
370
    25
100
AcDbCircle
 10
8584.8661121192
 20
4698.2601443687
 30
0.0
 40
3.0
100
AcDbArc
 50
0.0
 51
90.0
  0
LINE
  5
452
330
1F
100
AcDbEntity
  8
0
  6
Continuous
 62
     7
370
    25
100
AcDbLine
 10
8520.8661121192
 20
4640.7601443687
 30
0.0
 11
8532.7609572811
 21
4640.7601443687
 31
0.0
  0
LINE
  5
453
330
1F
100
AcDbEntity
  8
0
  6
Continuous
 62
     7
370
    25
100
AcDbLine
 10
8537.8661121192
 20
4684.7601443687
 30
0.0
 11
8520.8661121192
 21
4684.7601443687
 31
0.0
  0
LINE
  5
454
330
1F
100
AcDbEntity
  8
0
  6
Continuous
 62
     7
370
    25
100
AcDbLine
 10
8775.4661121192
 20
4128.5042541414
 30
0.0
 11
8775.4661121192
 21
4124.5042541414
 31
0.0
  0
LINE
  5
455
330
1F
100
AcDbEntity
  8
0
  6
Continuous
 62
     7
370
    25
100
AcDbLine
 10
8785.4661121192
 20
4124.5042541414
 30
0.0
 11
8785.4661121192
 21
4128.5042541414
 31
0.0
  0
LINE
  5
456
330
1F
100
AcDbEntity
  8
0
  6
Continuous
 62
     7
370
    25
100
AcDbLine
 10
8343.37402381
 20
4128.5042541414
 30
0.0
 11
8343.37402381
 21
4124.5042541414
 31
0.0
  0
LINE
  5
457
330
1F
100
AcDbEntity
  8
0
  6
Continuous
 62
     7
370
    25
100
AcDbLine
 10
8353.37402381
 20
4124.5042541414
 30
0.0
 11
8353.37402381
 21
4128.5042541414
 31
0.0
  0
ARC
  5
458
330
1F
100
AcDbEntity
  8
0
  6
Continuous
 62
     7
370
    25
100
AcDbCircle
 10
8340.0196710447
 20
5346.9699535347
 30
0.0
 40
37.00000000000012
100
AcDbArc
 50
59.0753555839
 51
96.9246444161
  0
LINE
  5
459
330
1F
100
AcDbEntity
  8
0
  6
Continuous
 62
     7
370
    25
100
AcDbLine
 10
8374.8661121184
 20
5306.5042541415
 30
0.0
 11
8372.3661121184
 21
5306.5042541415
 31
0.0
  0
LINE
  5
45A
330
1F
100
AcDbEntity
  8
0
  6
Continuous
 62
     7
370
    25
100
AcDbLine
 10
8372.3661121184
 20
5246.5042541415
 30
0.0
 11
8374.8661121184
 21
5246.5042541415
 31
0.0
  0
LINE
  5
45B
330
1F
100
AcDbEntity
  8
0
  6
Continuous
 62
     7
370
    25
100
AcDbLine
 10
8374.8661121184
 20
5246.5042541415
 30
0.0
 11
8375.3661121184
 21
5247.0042541415
 31
0.0
  0
LINE
  5
45C
330
1F
100
AcDbEntity
  8
0
  6
Continuous
 62
     7
370
    25
100
AcDbLine
 10
8375.3661121184
 20
5306.0042541415
 30
0.0
 11
8374.8661121184
 21
5306.5042541415
 31
0.0
  0
LINE
  5
45D
330
1F
100
AcDbEntity
  8
0
  6
Continuous
 62
     7
370
    25
100
AcDbLine
 10
8384.0161121188
 20
5262.5042541394
 30
0.0
 11
8506.3661121188
 21
5262.5042541394
 31
0.0
  0
LINE
  5
45E
330
1F
100
AcDbEntity
  8
0
  6
Continuous
 62
     7
370
    25
100
AcDbLine
 10
8375.3661121188
 20
5262.5042541394
 30
0.0
 11
8380.7368015536
 21
5262.5042541394
 31
0.0
  0
LINE
  5
45F
330
1F
100
AcDbEntity
  8
0
  6
Continuous
 62
     7
370
    25
100
AcDbLine
 10
8540.3661121188
 20
5290.5042541394
 30
0.0
 11
8375.3661121188
 21
5290.5042541394
 31
0.0
  0
LINE
  5
460
330
1F
100
AcDbEntity
  8
0
  6
Continuous
 62
     7
370
    25
100
AcDbLine
 10
8541.3661121188
 20
5289.5042541394
 30
0.0
 11
8540.3661121188
 21
5290.5042541394
 31
0.0
  0
LINE
  5
461
330
1F
100
AcDbEntity
  8
0
  6
Continuous
 62
     7
370
    25
100
AcDbLine
 10
8322.3661121192
 20
4702.7601443687
 30
0.0
 11
8322.3661121192
 21
4622.7601443687
 31
0.0
  0
LINE
  5
462
330
1F
100
AcDbEntity
  8
0
  6
Continuous
 62
     7
370
    25
100
AcDbLine
 10
8312.3661121192
 20
4682.7601443687
 30
0.0
 11
8312.3661121192
 21
4642.7601443687
 31
0.0
  0
LWPOLYLINE
  5
463
330
1F
100
AcDbEntity
  8
0
  6
Continuous
 62
     7
370
    25
100
AcDbPolyline
 90
       20
 70
   128
 43
0.0
 10
8539.6443583389
 20
4682.1077864674
 10
8540.6497563666
 20
4680.4877276703
 10
8541.9241049188
 20
4678.2422142651
 10
8543.2346969661
 20
4675.5583634278
 10
8544.2473487792
 20
4672.9498446912
 10
8545.0314845314
 20
4670.0054847609
 10
8545.3588982561
 20
4667.5966344978
 10
8545.3791409156
 20
4665.0337590426
 10
8545.0708621914
 20
4662.5269174286
 10
8544.449327962
 20
4660.0085476968
 10
8543.2512033468
 20
4656.8057285647
 10
8541.7463239222
 20
4653.7544055939
 10
8539.6307067713
 20
4650.1974543321
 10
8537.4598579996
 20
4646.9890735325
 10
8535.8490000841
 20
4644.7782439096
 10
8534.440636046
 20
4642.9272640522
 10
8533.5738758565
 20
4641.818083819
 10
8532.9810699044
 20
4641.070700525
 10
8532.7390610243
 20
4640.7679847335
 10
8532.7609903663
 20
4640.7953844457
  0
LINE
  5
464
330
1F
100
AcDbEntity
  8
0
  6
Continuous
 62
     7
370
    25
100
AcDbLine
 10
8530.8661121192
 20
4624.7601443687
 30
0.0
 11
8598.8661121192
 21
4624.7601443687
 31
0.0
  0
LINE
  5
465
330
1F
100
AcDbEntity
  8
0
  6
Continuous
 62
     7
370
    25
100
AcDbLine
 10
8520.8661121192
 20
4690.2601443687
 30
0.0
 11
8520.8661121192
 21
4635.2601443687
 31
0.0
  0
LINE
  5
466
330
1F
100
AcDbEntity
  8
0
  6
Continuous
 62
     7
370
    25
100
AcDbLine
 10
8516.8661121192
 20
4688.7601443687
 30
0.0
 11
8516.8661121192
 21
4636.7601443687
 31
0.0
  0
ARC
  5
467
330
1F
100
AcDbEntity
  8
0
  6
Continuous
 62
     7
370
    25
100
AcDbCircle
 10
8542.4973670029
 20
4681.9014695255
 30
0.0
 40
2.860458899837492
100
AcDbArc
 50
92.0237024968
 51
175.863823239
  0
LINE
  5
468
330
1F
100
AcDbEntity
  8
0
  6
Continuous
 62
     7
370
    25
100
AcDbLine
 10
8542.3963558229
 20
4684.7601443687
 30
0.0
 11
8589.1957644571
 21
4684.7601443687
 31
0.0
  0
LINE
  5
469
330
1F
100
AcDbEntity
  8
0
  6
Continuous
 62
     7
370
    25
100
AcDbLine
 10
8540.744284253
 20
4554.7601443687
 30
0.0
 11
8588.9879399712
 21
4554.7601443687
 31
0.0
  0
LINE
  5
46A
330
1F
100
AcDbEntity
  8
0
  6
Continuous
 62
     7
370
    25
100
AcDbLine
 10
8504.8661121192
 20
4685.7601443687
 30
0.0
 11
8504.8661121192
 21
4639.7601443687
 31
0.0
  0
LINE
  5
46B
330
1F
100
AcDbEntity
  8
0
  6
Continuous
 62
     7
370
    25
100
AcDbLine
 10
8541.8661121192
 20
4691.2601443687
 30
0.0
 11
8587.8661121192
 21
4691.2601443687
 31
0.0
  0
LINE
  5
46C
330
1F
100
AcDbEntity
  8
0
  6
Continuous
 62
     7
370
    25
100
AcDbLine
 10
8539.8661121192
 20
4687.2601443687
 30
0.0
 11
8589.8661121192
 21
4687.2601443687
 31
0.0
  0
LINE
  5
46D
330
1F
100
AcDbEntity
  8
0
  6
Continuous
 62
     7
370
    25
100
AcDbLine
 10
8544.8661121192
 20
4701.2601443687
 30
0.0
 11
8584.8661119453
 21
4701.2601443687
 31
0.0
  0
ARC
  5
46E
330
1F
100
AcDbEntity
  8
0
  6
Continuous
 62
     7
370
    25
100
AcDbCircle
 10
8470.076762174
 20
4637.3891857824
 30
0.0
 40
82.70068732113603
100
AcDbArc
 50
32.7332300189
 51
34.9457141135
  0
LINE
  5
46F
330
1F
100
AcDbEntity
  8
0
  6
Continuous
 62
     7
370
    25
100
AcDbLine
 10
8537.8661121192
 20
4684.7601443687
 30
0.0
 11
8542.3963558229
 21
4684.7601443687
 31
0.0
  0
LINE
  5
470
330
1F
100
AcDbEntity
  8
0
  6
Continuous
 62
     7
370
    25
100
AcDbLine
 10
8762.4661121192
 20
4136.5042541414
 30
0.0
 11
8759.9661121192
 21
4136.5042541414
 31
0.0
  0
LINE
  5
471
330
1F
100
AcDbEntity
  8
0
  6
Continuous
 62
     7
370
    25
100
AcDbLine
 10
8762.4661121192
 20
4134.5042541414
 30
0.0
 11
8762.4661121192
 21
4136.5042541414
 31
0.0
  0
LINE
  5
472
330
1F
100
AcDbEntity
  8
0
  6
Continuous
 62
     7
370
    25
100
AcDbLine
 10
8759.9661121192
 20
4134.5042541414
 30
0.0
 11
8762.4661121192
 21
4134.5042541414
 31
0.0
  0
LINE
  5
473
330
1F
100
AcDbEntity
  8
0
  6
Continuous
 62
     7
370
    25
100
AcDbLine
 10
8759.9661121192
 20
4134.5042541414
 30
0.0
 11
8759.9661121192
 21
4136.5042541414
 31
0.0
  0
LINE
  5
474
330
1F
100
AcDbEntity
  8
0
  6
Continuous
 62
     7
370
    25
100
AcDbLine
 10
8762.4661121192
 20
4134.5042541414
 30
0.0
 11
8798.4661121192
 21
4134.5042541414
 31
0.0
  0
ELLIPSE
  5
475
330
1F
100
AcDbEntity
  8
0
  6
Continuous
 62
     7
370
    25
100
AcDbEllipse
 10
8794.9661121192
 20
4134.5042541414
 30
0.0
 11
0.0
 21
6.0
 31
0.0
210
0.0
220
0.0
230
1.0
 40
0.5833333333
 41
3.141592653589793
 42
4.712388980384698
  0
LINE
  5
476
330
1F
100
AcDbEntity
  8
0
  6
Continuous
 62
     7
370
    25
100
AcDbLine
 10
8794.9661121192
 20
4128.5042541414
 30
0.0
 11
8765.9661121192
 21
4128.5042541414
 31
0.0
  0
ELLIPSE
  5
477
330
1F
100
AcDbEntity
  8
0
  6
Continuous
 62
     7
370
    25
100
AcDbEllipse
 10
8765.9661121192
 20
4134.5042541414
 30
0.0
 11
0.0
 21
6.0
 31
0.0
210
0.0
220
0.0
230
1.0
 40
0.5833333333
 41
1.570796326794897
 42
3.141592653589793
  0
LINE
  5
478
330
1F
100
AcDbEntity
  8
0
  6
Continuous
 62
     7
370
    25
100
AcDbLine
 10
8798.4661121192
 20
4136.5042541414
 30
0.0
 11
8762.4661121192
 21
4136.5042541414
 31
0.0
  0
LINE
  5
479
330
1F
100
AcDbEntity
  8
0
  6
Continuous
 62
     7
370
    25
100
AcDbLine
 10
8798.4661121192
 20
4134.5042541414
 30
0.0
 11
8798.4661121192
 21
4136.5042541414
 31
0.0
  0
ARC
  5
47A
330
1F
100
AcDbEntity
  8
0
  6
Continuous
 62
     7
370
    25
100
AcDbCircle
 10
8765.9661121192
 20
4134.5042541414
 30
0.0
 40
5.999999999999091
100
AcDbArc
 50
180.0
 51
270.0
  0
ARC
  5
47B
330
1F
100
AcDbEntity
  8
0
  6
Continuous
 62
     7
370
    25
100
AcDbCircle
 10
8794.9661121192
 20
4134.5042541414
 30
0.0
 40
6.0
100
AcDbArc
 50
270.0
 51
0.0
  0
LINE
  5
47C
330
1F
100
AcDbEntity
  8
0
  6
Continuous
 62
     7
370
    25
100
AcDbLine
 10
8798.4661121192
 20
4134.5042541414
 30
0.0
 11
8800.9661121192
 21
4134.5042541414
 31
0.0
  0
LINE
  5
47D
330
1F
100
AcDbEntity
  8
0
  6
Continuous
 62
     7
370
    25
100
AcDbLine
 10
8800.9661121192
 20
4134.5042541414
 30
0.0
 11
8800.9661121192
 21
4136.5042541414
 31
0.0
  0
LINE
  5
47E
330
1F
100
AcDbEntity
  8
0
  6
Continuous
 62
     7
370
    25
100
AcDbLine
 10
8800.9661121192
 20
4136.5042541414
 30
0.0
 11
8798.4661121192
 21
4136.5042541414
 31
0.0
  0
LINE
  5
47F
330
1F
100
AcDbEntity
  8
0
  6
Continuous
 62
     7
370
    25
100
AcDbLine
 10
8780.4661121192
 20
4116.5042541414
 30
0.0
 11
8780.4661121192
 21
4124.5042541414
 31
0.0
  0
LINE
  5
480
330
1F
100
AcDbEntity
  8
0
  6
Continuous
 62
     7
370
    25
100
AcDbLine
 10
8780.4661121192
 20
4116.5042541414
 30
0.0
 11
8765.4661121192
 21
4116.5042541414
 31
0.0
  0
LINE
  5
481
330
1F
100
AcDbEntity
  8
0
  6
Continuous
 62
     7
370
    25
100
AcDbLine
 10
8765.4661121192
 20
4116.5042541414
 30
0.0
 11
8765.4661121192
 21
4124.5042541414
 31
0.0
  0
LINE
  5
482
330
1F
100
AcDbEntity
  8
0
  6
Continuous
 62
     7
370
    25
100
AcDbLine
 10
8780.4661121192
 20
4124.5042541414
 30
0.0
 11
8765.4661121192
 21
4124.5042541414
 31
0.0
  0
LINE
  5
483
330
1F
100
AcDbEntity
  8
0
  6
Continuous
 62
     7
370
    25
100
AcDbLine
 10
8795.4661121192
 20
4116.5042541414
 30
0.0
 11
8795.4661121192
 21
4124.5042541414
 31
0.0
  0
LINE
  5
484
330
1F
100
AcDbEntity
  8
0
  6
Continuous
 62
     7
370
    25
100
AcDbLine
 10
8795.4661121192
 20
4116.5042541414
 30
0.0
 11
8780.4661121192
 21
4116.5042541414
 31
0.0
  0
LINE
  5
485
330
1F
100
AcDbEntity
  8
0
  6
Continuous
 62
     7
370
    25
100
AcDbLine
 10
8795.4661121192
 20
4124.5042541414
 30
0.0
 11
8780.4661121192
 21
4124.5042541414
 31
0.0
  0
LINE
  5
486
330
1F
100
AcDbEntity
  8
0
  6
Continuous
 62
     7
370
    25
100
AcDbLine
 10
8330.37402381
 20
4136.5042541414
 30
0.0
 11
8327.87402381
 21
4136.5042541414
 31
0.0
  0
LINE
  5
487
330
1F
100
AcDbEntity
  8
0
  6
Continuous
 62
     7
370
    25
100
AcDbLine
 10
8330.37402381
 20
4134.5042541414
 30
0.0
 11
8330.37402381
 21
4136.5042541414
 31
0.0
  0
LINE
  5
488
330
1F
100
AcDbEntity
  8
0
  6
Continuous
 62
     7
370
    25
100
AcDbLine
 10
8327.87402381
 20
4134.5042541414
 30
0.0
 11
8330.37402381
 21
4134.5042541414
 31
0.0
  0
LINE
  5
489
330
1F
100
AcDbEntity
  8
0
  6
Continuous
 62
     7
370
    25
100
AcDbLine
 10
8327.87402381
 20
4134.5042541414
 30
0.0
 11
8327.87402381
 21
4136.5042541414
 31
0.0
  0
ARC
  5
48A
330
1F
100
AcDbEntity
  8
0
  6
Continuous
 62
     7
370
    25
100
AcDbCircle
 10
8333.87402381
 20
4134.5042541414
 30
0.0
 40
6.0
100
AcDbArc
 50
180.0
 51
270.0
  0
ELLIPSE
  5
48B
330
1F
100
AcDbEntity
  8
0
  6
Continuous
 62
     7
370
    25
100
AcDbEllipse
 10
8333.87402381
 20
4134.5042541414
 30
0.0
 11
0.0
 21
6.0
 31
0.0
210
0.0
220
0.0
230
1.0
 40
0.5833333333
 41
1.570796326794897
 42
3.141592653589793
  0
LINE
  5
48C
330
1F
100
AcDbEntity
  8
0
  6
Continuous
 62
     7
370
    25
100
AcDbLine
 10
8366.37402381
 20
4136.5042541414
 30
0.0
 11
8330.37402381
 21
4136.5042541414
 31
0.0
  0
LINE
  5
48D
330
1F
100
AcDbEntity
  8
0
  6
Continuous
 62
     7
370
    25
100
AcDbLine
 10
8366.37402381
 20
4134.5042541414
 30
0.0
 11
8366.37402381
 21
4136.5042541414
 31
0.0
  0
LINE
  5
48E
330
1F
100
AcDbEntity
  8
0
  6
Continuous
 62
     7
370
    25
100
AcDbLine
 10
8330.37402381
 20
4134.5042541414
 30
0.0
 11
8366.37402381
 21
4134.5042541414
 31
0.0
  0
ELLIPSE
  5
48F
330
1F
100
AcDbEntity
  8
0
  6
Continuous
 62
     7
370
    25
100
AcDbEllipse
 10
8362.87402381
 20
4134.5042541414
 30
0.0
 11
0.0
 21
6.0
 31
0.0
210
0.0
220
0.0
230
1.0
 40
0.5833333333
 41
3.141592653589793
 42
4.712388980384698
  0
LINE
  5
490
330
1F
100
AcDbEntity
  8
0
  6
Continuous
 62
     7
370
    25
100
AcDbLine
 10
8362.87402381
 20
4128.5042541414
 30
0.0
 11
8333.87402381
 21
4128.5042541414
 31
0.0
  0
ARC
  5
491
330
1F
100
AcDbEntity
  8
0
  6
Continuous
 62
     7
370
    25
100
AcDbCircle
 10
8362.87402381
 20
4134.5042541414
 30
0.0
 40
6.0
100
AcDbArc
 50
270.0
 51
0.0
  0
LINE
  5
492
330
1F
100
AcDbEntity
  8
0
  6
Continuous
 62
     7
370
    25
100
AcDbLine
 10
8366.37402381
 20
4134.5042541414
 30
0.0
 11
8368.87402381
 21
4134.5042541414
 31
0.0
  0
LINE
  5
493
330
1F
100
AcDbEntity
  8
0
  6
Continuous
 62
     7
370
    25
100
AcDbLine
 10
8368.87402381
 20
4134.5042541414
 30
0.0
 11
8368.87402381
 21
4136.5042541414
 31
0.0
  0
LINE
  5
494
330
1F
100
AcDbEntity
  8
0
  6
Continuous
 62
     7
370
    25
100
AcDbLine
 10
8368.87402381
 20
4136.5042541414
 30
0.0
 11
8366.37402381
 21
4136.5042541414
 31
0.0
  0
LINE
  5
495
330
1F
100
AcDbEntity
  8
0
  6
Continuous
 62
     7
370
    25
100
AcDbLine
 10
8348.37402381
 20
4116.5042541414
 30
0.0
 11
8348.37402381
 21
4124.5042541414
 31
0.0
  0
LINE
  5
496
330
1F
100
AcDbEntity
  8
0
  6
Continuous
 62
     7
370
    25
100
AcDbLine
 10
8348.37402381
 20
4116.5042541414
 30
0.0
 11
8333.37402381
 21
4116.5042541414
 31
0.0
  0
LINE
  5
497
330
1F
100
AcDbEntity
  8
0
  6
Continuous
 62
     7
370
    25
100
AcDbLine
 10
8333.37402381
 20
4116.5042541414
 30
0.0
 11
8333.37402381
 21
4124.5042541414
 31
0.0
  0
LINE
  5
498
330
1F
100
AcDbEntity
  8
0
  6
Continuous
 62
     7
370
    25
100
AcDbLine
 10
8348.37402381
 20
4124.5042541414
 30
0.0
 11
8333.37402381
 21
4124.5042541414
 31
0.0
  0
LINE
  5
499
330
1F
100
AcDbEntity
  8
0
  6
Continuous
 62
     7
370
    25
100
AcDbLine
 10
8363.37402381
 20
4116.5042541414
 30
0.0
 11
8363.37402381
 21
4124.5042541414
 31
0.0
  0
LINE
  5
49A
330
1F
100
AcDbEntity
  8
0
  6
Continuous
 62
     7
370
    25
100
AcDbLine
 10
8363.37402381
 20
4124.5042541414
 30
0.0
 11
8348.37402381
 21
4124.5042541414
 31
0.0
  0
LINE
  5
49B
330
1F
100
AcDbEntity
  8
0
  6
Continuous
 62
     7
370
    25
100
AcDbLine
 10
8363.37402381
 20
4116.5042541414
 30
0.0
 11
8348.37402381
 21
4116.5042541414
 31
0.0
  0
LINE
  5
49C
330
1F
100
AcDbEntity
  8
0
  6
Continuous
 62
     7
370
    25
100
AcDbLine
 10
8760.4661121192
 20
4136.5042541414
 30
0.0
 11
8760.4661121192
 21
4716.5042541414
 31
0.0
  0
LINE
  5
49D
330
1F
100
AcDbEntity
  8
0
  6
Continuous
 62
     7
370
    25
100
AcDbLine
 10
8800.4661121192
 20
4136.5042541414
 30
0.0
 11
8800.4661121192
 21
4716.5042541414
 31
0.0
  0
LINE
  5
49E
330
1F
100
AcDbEntity
  8
0
  6
Continuous
 62
     7
370
    25
100
AcDbLine
 10
8328.37402381
 20
4136.5042541414
 30
0.0
 11
8328.37402381
 21
4716.5042541414
 31
0.0
  0
LINE
  5
49F
330
1F
100
AcDbEntity
  8
0
  6
Continuous
 62
     7
370
    25
100
AcDbLine
 10
8368.37402381
 20
4136.5042541414
 30
0.0
 11
8368.37402381
 21
4716.5042541414
 31
0.0
  0
LINE
  5
4A0
330
1F
100
AcDbEntity
  8
0
  6
Continuous
 62
     7
370
    25
100
AcDbLine
 10
8760.4661121193
 20
4309.5042541414
 30
0.0
 11
8368.37402381
 21
4309.5042541414
 31
0.0
  0
LINE
  5
4A1
330
1F
100
AcDbEntity
  8
0
  6
Continuous
 62
     7
370
    25
100
AcDbLine
 10
8760.4661121192
 20
4311.5042541414
 30
0.0
 11
8368.37402381
 21
4311.5042541414
 31
0.0
  0
LINE
  5
4A2
330
1F
100
AcDbEntity
  8
0
  6
Continuous
 62
     7
370
    25
100
AcDbLine
 10
8760.4661121192
 20
4271.5042541414
 30
0.0
 11
8368.37402381
 21
4271.5042541414
 31
0.0
  0
LINE
  5
4A3
330
1F
100
AcDbEntity
  8
0
  6
Continuous
 62
     7
370
    25
100
AcDbLine
 10
8760.4661121192
 20
4273.5042541414
 30
0.0
 11
8368.37402381
 21
4273.5042541414
 31
0.0
  0
LINE
  5
4A4
330
1F
100
AcDbEntity
  8
0
  6
Continuous
 62
     7
370
    25
100
AcDbLine
 10
8325.4661121192
 20
4716.5042541414
 30
0.0
 11
8322.3661121192
 21
4716.5042541414
 31
0.0
  0
LINE
  5
4A5
330
1F
100
AcDbEntity
  8
0
  6
Continuous
 62
     7
370
    25
100
AcDbLine
 10
8322.3661121192
 20
4716.5042541414
 30
0.0
 11
8322.3661121192
 21
5361.1042541414
 31
0.0
  0
LINE
  5
4A6
330
1F
100
AcDbEntity
  8
0
  6
Continuous
 62
     7
370
    25
100
AcDbLine
 10
8322.3661121192
 20
5361.1042541414
 30
0.0
 11
8325.4661121192
 21
5361.1042541414
 31
0.0
  0
LINE
  5
4A7
330
1F
100
AcDbEntity
  8
0
  6
Continuous
 62
     7
370
    25
100
AcDbLine
 10
8325.4661121192
 20
5361.1042541414
 30
0.0
 11
8325.4661121192
 21
4716.5042541414
 31
0.0
  0
LINE
  5
4A8
330
1F
100
AcDbEntity
  8
0
  6
Continuous
 62
     7
370
    25
100
AcDbLine
 10
8322.3661121192
 20
5363.1042541414
 30
0.0
 11
8322.3661121192
 21
5383.787480397
 31
0.0
  0
ARC
  5
4A9
330
1F
100
AcDbEntity
  8
0
  6
Continuous
 62
     7
370
    25
100
AcDbCircle
 10
8324.5661121192
 20
5383.787480397
 30
0.0
 40
2.200000000000641
100
AcDbArc
 50
78.0
 51
180.0
  0
LINE
  5
4AA
330
1F
100
AcDbEntity
  8
0
  6
Continuous
 62
     7
370
    25
100
AcDbLine
 10
8325.023517839
 20
5385.9394051187
 30
0.0
 11
8370.623517839
 21
5376.2468259065
 31
0.0
  0
ARC
  5
4AB
330
1F
100
AcDbEntity
  8
0
  6
Continuous
 62
     7
370
    25
100
AcDbCircle
 10
8370.1661121192
 20
5374.0949011849
 30
0.0
 40
2.200000000000728
100
AcDbArc
 50
0.0
 51
78.0
  0
LINE
  5
4AC
330
1F
100
AcDbEntity
  8
0
  6
Continuous
 62
     7
370
    25
100
AcDbLine
 10
8372.3661121192
 20
5374.0949011849
 30
0.0
 11
8372.3661121192
 21
4966.5042541414
 31
0.0
  0
LINE
  5
4AD
330
1F
100
AcDbEntity
  8
0
  6
Continuous
 62
     7
370
    25
100
AcDbLine
 10
8372.3661121192
 20
4966.5042541414
 30
0.0
 11
8800.1661121192
 21
4966.5042541414
 31
0.0
  0
ARC
  5
4AE
330
1F
100
AcDbEntity
  8
0
  6
Continuous
 62
     7
370
    25
100
AcDbCircle
 10
8800.1661121192
 20
4964.3042541414
 30
0.0
 40
2.200000000000728
100
AcDbArc
 50
0.0
 51
90.0
  0
LINE
  5
4AF
330
1F
100
AcDbEntity
  8
0
  6
Continuous
 62
     7
370
    25
100
AcDbLine
 10
8802.3661121192
 20
4964.3042541414
 30
0.0
 11
8802.3661121192
 21
4941.5042541414
 31
0.0
  0
LINE
  5
4B0
330
1F
100
AcDbEntity
  8
0
  6
Continuous
 62
     7
370
    25
100
AcDbLine
 10
8802.3661121192
 20
4941.5042541414
 30
0.0
 11
8799.3661121192
 21
4941.5042541414
 31
0.0
  0
LINE
  5
4B1
330
1F
100
AcDbEntity
  8
0
  6
Continuous
 62
     7
370
    25
100
AcDbLine
 10
8799.3661121192
 20
4941.5042541414
 30
0.0
 11
8799.3661121192
 21
4941.4942541414
 31
0.0
  0
LINE
  5
4B2
330
1F
100
AcDbEntity
  8
0
  6
Continuous
 62
     7
370
    25
100
AcDbLine
 10
8799.3661121192
 20
4716.5042541414
 30
0.0
 11
8799.3661121192
 21
4941.4942541414
 31
0.0
  0
LINE
  5
4B3
330
1F
100
AcDbEntity
  8
0
  6
Continuous
 62
     7
370
    25
100
AcDbLine
 10
8799.3661121192
 20
4716.5042541414
 30
0.0
 11
8325.4661121192
 21
4716.5042541414
 31
0.0
  0
LINE
  5
4B4
330
1F
100
AcDbEntity
  8
0
  6
Continuous
 62
     7
370
    25
100
AcDbLine
 10
8325.4661121192
 20
5361.1042541414
 30
0.0
 11
8326.4661121192
 21
5361.1042541414
 31
0.0
  0
LINE
  5
4B5
330
1F
100
AcDbEntity
  8
0
  6
Continuous
 62
     7
370
    25
100
AcDbLine
 10
8326.4661121192
 20
5361.1042541414
 30
0.0
 11
8326.4661121192
 21
5363.1042541414
 31
0.0
  0
LINE
  5
4B6
330
1F
100
AcDbEntity
  8
0
  6
Continuous
 62
     7
370
    25
100
AcDbLine
 10
8326.4661121192
 20
5363.1042541414
 30
0.0
 11
8322.3661121192
 21
5363.1042541414
 31
0.0
  0
LINE
  5
4B7
330
1F
100
AcDbEntity
  8
0
  6
Continuous
 62
     7
370
    25
100
AcDbLine
 10
8802.4661121192
 20
4716.5042541414
 30
0.0
 11
8802.4661121192
 21
4941.4942541414
 31
0.0
  0
LINE
  5
4B8
330
1F
100
AcDbEntity
  8
0
  6
Continuous
 62
     7
370
    25
100
AcDbLine
 10
8802.4661121192
 20
4716.5042541414
 30
0.0
 11
8799.3661121192
 21
4716.5042541414
 31
0.0
  0
LINE
  5
4B9
330
1F
100
AcDbEntity
  8
0
  6
Continuous
 62
     7
370
    25
100
AcDbLine
 10
8799.3661121192
 20
4941.4942541414
 30
0.0
 11
8802.4661121192
 21
4941.4942541414
 31
0.0
  0
LINE
  5
4BA
330
1F
100
AcDbEntity
  8
0
  6
Continuous
 62
     7
370
    25
100
AcDbLine
 10
8323.5661121192
 20
5363.1042541414
 30
0.0
 11
8323.5661121192
 21
5361.5042541414
 31
0.0
  0
LINE
  5
4BB
330
1F
100
AcDbEntity
  8
0
  6
Continuous
 62
     7
370
    25
100
AcDbLine
 10
8322.3661121192
 20
5363.1042541414
 30
0.0
 11
8322.3661121192
 21
5361.5042541414
 31
0.0
  0
LINE
  5
4BC
330
1F
100
AcDbEntity
  8
0
  6
Continuous
 62
     7
370
    25
100
AcDbLine
 10
8322.3661121192
 20
5361.5042541414
 30
0.0
 11
8323.5661121192
 21
5361.5042541414
 31
0.0
  0
LINE
  5
4BD
330
1F
100
AcDbEntity
  8
0
  6
Continuous
 62
     7
370
    25
100
AcDbLine
 10
8381.3119440488
 20
5262.504254126
 30
0.0
 11
8380.8661121198
 21
5262.504254126
 31
0.0
  0
LINE
  5
4BE
330
1F
100
AcDbEntity
  8
0
  6
Continuous
 62
     7
370
    25
100
AcDbLine
 10
8383.8661121198
 20
5262.504254126
 30
0.0
 11
8381.3119440488
 21
5262.504254126
 31
0.0
  0
LINE
  5
4BF
330
1F
100
AcDbEntity
  8
0
  6
Continuous
 62
     7
370
    25
100
AcDbLine
 10
8374.8661121184
 20
5246.5042541415
 30
0.0
 11
8374.8661121184
 21
5306.5042541415
 31
0.0
  0
LINE
  5
4C0
330
1F
100
AcDbEntity
  8
0
  6
Continuous
 62
     7
370
    25
100
AcDbLine
 10
8375.3661121184
 20
5306.0042541415
 30
0.0
 11
8375.3661121184
 21
5247.0042541415
 31
0.0
  0
LINE
  5
4C1
330
1F
100
AcDbEntity
  8
0
  6
Continuous
 62
     7
370
    25
100
AcDbLine
 10
8374.8661121188
 20
5288.0762104961
 30
0.0
 11
8374.8661121188
 21
5306.5042541393
 31
0.0
  0
LINE
  5
4C2
330
1F
100
AcDbEntity
  8
0
  6
Continuous
 62
     7
370
    25
100
AcDbLine
 10
8374.8661121188
 20
5246.5042541394
 30
0.0
 11
8374.8661121188
 21
5288.0762104961
 31
0.0
  0
LINE
  5
4C3
330
1F
100
AcDbEntity
  8
0
  6
Continuous
 62
     7
370
    25
100
AcDbLine
 10
8375.3661121188
 20
5287.8833445568
 30
0.0
 11
8375.3661121188
 21
5247.0042541394
 31
0.0
  0
LINE
  5
4C4
330
1F
100
AcDbEntity
  8
0
  6
Continuous
 62
     7
370
    25
100
AcDbLine
 10
8375.3661121188
 20
5306.0042541394
 30
0.0
 11
8375.3661121188
 21
5287.8833445568
 31
0.0
  0
LINE
  5
4C5
330
1F
100
AcDbEntity
  8
0
  6
Continuous
 62
     7
370
    25
100
AcDbLine
 10
8540.3661121188
 20
5271.614526682
 30
0.0
 11
8540.3661121188
 21
5290.5042541394
 31
0.0
  0
LINE
  5
4C6
330
1F
100
AcDbEntity
  8
0
  6
Continuous
 62
     7
370
    25
100
AcDbLine
 10
8506.3661121188
 20
5262.5042541394
 30
0.0
 11
8540.3661121188
 21
5271.614526682
 31
0.0
  0
ARC
  5
4C7
330
1F
100
AcDbEntity
  8
0
  6
Continuous
 62
     7
370
    25
100
AcDbCircle
 10
8382.3661806682
 20
5248.5562929131
 30
0.0
 40
14.04520901096385
100
AcDbArc
 50
83.253721142
 51
96.661860791
  0
LINE
  5
4C8
330
1F
100
AcDbEntity
  8
0
  6
Continuous
 62
     7
370
    25
100
AcDbLine
 10
8541.3661121188
 20
5289.5042541394
 30
0.0
 11
8541.3661121188
 21
5271.8824758744
 31
0.0
  0
LINE
  5
4C9
330
1F
100
AcDbEntity
  8
0
  6
Continuous
 62
     7
370
    25
100
AcDbLine
 10
8541.3661121188
 20
5271.8824758744
 30
0.0
 11
8540.3661121188
 21
5271.614526682
 31
0.0
  0
LINE
  5
4CA
330
1F
100
AcDbEntity
  8
0
  6
Continuous
 62
     8
370
    25
100
AcDbLine
 10
8592.1755538744
 20
4682.1077864674
 30
0.0
 11
8539.6443583389
 21
4682.1077864674
 31
0.0
  0
LINE
  5
4CB
330
1F
100
AcDbEntity
  8
0
  6
Continuous
 62
     8
370
    25
100
AcDbLine
 10
8537.7598978391
 20
4557.4544685073
 30
0.0
 11
8591.9723263994
 21
4557.4544685073
 31
0.0
  0
LINE
  5
4CC
330
1F
100
AcDbEntity
  8
0
  6
Continuous
 62
     8
370
    25
100
AcDbLine
 10
8507.8661121192
 20
4688.7601443687
 30
0.0
 11
8507.8661121192
 21
4636.7601443687
 31
0.0
  0
LINE
  5
4CD
330
1F
100
AcDbEntity
  8
0
  6
Continuous
 62
     8
370
    25
100
AcDbLine
 10
8541.8661121192
 20
4698.2601443687
 30
0.0
 11
8587.8661121192
 21
4698.2601443687
 31
0.0
  0
LINE
  5
4CE
330
1F
100
AcDbEntity
  8
0
  6
Continuous
 62
     8
370
    25
100
AcDbLine
 10
8762.4661121192
 20
4136.5042541414
 30
0.0
 11
8762.4661121192
 21
4716.5042541414
 31
0.0
  0
LINE
  5
4CF
330
1F
100
AcDbEntity
  8
0
  6
Continuous
 62
     8
370
    25
100
AcDbLine
 10
8798.4661121192
 20
4136.5042541414
 30
0.0
 11
8798.4661121192
 21
4716.5042541414
 31
0.0
  0
LINE
  5
4D0
330
1F
100
AcDbEntity
  8
0
  6
Continuous
 62
     8
370
    25
100
AcDbLine
 10
8330.37402381
 20
4136.5042541414
 30
0.0
 11
8330.37402381
 21
4716.5042541414
 31
0.0
  0
LINE
  5
4D1
330
1F
100
AcDbEntity
  8
0
  6
Continuous
 62
     8
370
    25
100
AcDbLine
 10
8366.37402381
 20
4136.5042541414
 30
0.0
 11
8366.37402381
 21
4716.5042541414
 31
0.0
  0
LINE
  5
4D2
330
1F
100
AcDbEntity
  8
0
  6
Continuous
 62
     7
370
    25
100
AcDbLine
 10
5211.9269011044
 20
3863.5972874516
 30
0.0
 11
5211.9269011044
 21
3873.5972874516
 31
0.0
  0
LINE
  5
4D3
330
1F
100
AcDbEntity
  8
0
  6
Continuous
 62
     7
370
    25
100
AcDbLine
 10
5171.9269011044
 20
3873.5972874516
 30
0.0
 11
5171.9269011044
 21
3863.5972874516
 31
0.0
  0
LINE
  5
4D4
330
1F
100
AcDbEntity
  8
0
  6
Continuous
 62
     7
370
    25
100
AcDbLine
 10
5445.4269011044
 20
3813.0972874516
 30
0.0
 11
5446.9269011044
 21
3811.5972874516
 31
0.0
  0
LINE
  5
4D5
330
1F
100
AcDbEntity
  8
0
  6
Continuous
 62
     7
370
    25
100
AcDbLine
 10
5471.9269011044
 20
3811.5972874516
 30
0.0
 11
5473.4269011044
 21
3813.0972874516
 31
0.0
  0
LINE
  5
4D6
330
1F
100
AcDbEntity
  8
0
  6
Continuous
 62
     7
370
    25
100
AcDbLine
 10
5445.4269011044
 20
3813.5972874516
 30
0.0
 11
5445.4269011044
 21
3813.0972874516
 31
0.0
  0
LINE
  5
4D7
330
1F
100
AcDbEntity
  8
0
  6
Continuous
 62
     7
370
    25
100
AcDbLine
 10
5473.4269011044
 20
3813.0972874516
 30
0.0
 11
5473.4269011044
 21
3813.5972874516
 31
0.0
  0
LINE
  5
4D8
330
1F
100
AcDbEntity
  8
0
  6
Continuous
 62
     7
370
    25
100
AcDbLine
 10
7845.4269011044
 20
3813.5972874516
 30
0.0
 11
7845.4269011044
 21
3813.0972874516
 31
0.0
  0
LINE
  5
4D9
330
1F
100
AcDbEntity
  8
0
  6
Continuous
 62
     7
370
    25
100
AcDbLine
 10
7873.4269011044
 20
3813.0972874516
 30
0.0
 11
7873.4269011044
 21
3813.5972874516
 31
0.0
  0
LINE
  5
4DA
330
1F
100
AcDbEntity
  8
0
  6
Continuous
 62
     7
370
    25
100
AcDbLine
 10
7845.4269011044
 20
3813.0972874516
 30
0.0
 11
7846.9269011044
 21
3811.5972874516
 31
0.0
  0
LINE
  5
4DB
330
1F
100
AcDbEntity
  8
0
  6
Continuous
 62
     7
370
    25
100
AcDbLine
 10
7871.9269011044
 20
3811.5972874516
 30
0.0
 11
7873.4269011044
 21
3813.0972874516
 31
0.0
  0
LINE
  5
4DC
330
1F
100
AcDbEntity
  8
0
  6
Continuous
 62
     7
370
    25
100
AcDbLine
 10
6645.4269011044
 20
3813.0972874516
 30
0.0
 11
6646.9269011044
 21
3811.5972874516
 31
0.0
  0
LINE
  5
4DD
330
1F
100
AcDbEntity
  8
0
  6
Continuous
 62
     7
370
    25
100
AcDbLine
 10
6671.9269011044
 20
3811.5972874516
 30
0.0
 11
6673.4269011044
 21
3813.0972874516
 31
0.0
  0
LINE
  5
4DE
330
1F
100
AcDbEntity
  8
0
  6
Continuous
 62
     7
370
    25
100
AcDbLine
 10
6645.4269011044
 20
3813.5972874516
 30
0.0
 11
6645.4269011044
 21
3813.0972874516
 31
0.0
  0
LINE
  5
4DF
330
1F
100
AcDbEntity
  8
0
  6
Continuous
 62
     7
370
    25
100
AcDbLine
 10
6673.4269011044
 20
3813.0972874516
 30
0.0
 11
6673.4269011044
 21
3813.5972874516
 31
0.0
  0
LINE
  5
4E0
330
1F
100
AcDbEntity
  8
0
  6
Continuous
 62
     7
370
    25
100
AcDbLine
 10
7245.4269011044
 20
3813.5972874516
 30
0.0
 11
7245.4269011044
 21
3813.0972874516
 31
0.0
  0
LINE
  5
4E1
330
1F
100
AcDbEntity
  8
0
  6
Continuous
 62
     7
370
    25
100
AcDbLine
 10
7273.4269011044
 20
3813.0972874516
 30
0.0
 11
7273.4269011044
 21
3813.5972874516
 31
0.0
  0
LINE
  5
4E2
330
1F
100
AcDbEntity
  8
0
  6
Continuous
 62
     7
370
    25
100
AcDbLine
 10
7245.4269011044
 20
3813.0972874516
 30
0.0
 11
7246.9269011044
 21
3811.5972874516
 31
0.0
  0
LINE
  5
4E3
330
1F
100
AcDbEntity
  8
0
  6
Continuous
 62
     7
370
    25
100
AcDbLine
 10
7271.9269011044
 20
3811.5972874516
 30
0.0
 11
7273.4269011044
 21
3813.0972874516
 31
0.0
  0
LINE
  5
4E4
330
1F
100
AcDbEntity
  8
0
  6
Continuous
 62
     7
370
    25
100
AcDbLine
 10
6045.4269011044
 20
3813.5972874516
 30
0.0
 11
6045.4269011044
 21
3813.0972874516
 31
0.0
  0
LINE
  5
4E5
330
1F
100
AcDbEntity
  8
0
  6
Continuous
 62
     7
370
    25
100
AcDbLine
 10
6073.4269011044
 20
3813.0972874516
 30
0.0
 11
6073.4269011044
 21
3813.5972874516
 31
0.0
  0
LINE
  5
4E6
330
1F
100
AcDbEntity
  8
0
  6
Continuous
 62
     7
370
    25
100
AcDbLine
 10
6045.4269011044
 20
3813.0972874516
 30
0.0
 11
6046.9269011044
 21
3811.5972874516
 31
0.0
  0
LINE
  5
4E7
330
1F
100
AcDbEntity
  8
0
  6
Continuous
 62
     7
370
    25
100
AcDbLine
 10
6071.9269011044
 20
3811.5972874516
 30
0.0
 11
6073.4269011044
 21
3813.0972874516
 31
0.0
  0
LINE
  5
4E8
330
1F
100
AcDbEntity
  8
0
  6
Continuous
 62
     7
370
    25
100
AcDbLine
 10
7169.4269011047
 20
3811.0972874524
 30
0.0
 11
7169.4269011047
 21
3813.5972874524
 31
0.0
  0
LINE
  5
4E9
330
1F
100
AcDbEntity
  8
0
  6
Continuous
 62
     7
370
    25
100
AcDbLine
 10
7109.4269011047
 20
3813.5972874524
 30
0.0
 11
7109.4269011047
 21
3811.0972874524
 31
0.0
  0
LINE
  5
4EA
330
1F
100
AcDbEntity
  8
0
  6
Continuous
 62
     7
370
    25
100
AcDbLine
 10
7109.4269011047
 20
3811.0972874524
 30
0.0
 11
7109.9269011047
 21
3810.5972874524
 31
0.0
  0
LINE
  5
4EB
330
1F
100
AcDbEntity
  8
0
  6
Continuous
 62
     7
370
    25
100
AcDbLine
 10
7168.9269011047
 20
3810.5972874524
 30
0.0
 11
7169.4269011047
 21
3811.0972874524
 31
0.0
  0
LINE
  5
4EC
330
1F
100
AcDbEntity
  8
0
  6
Continuous
 62
     7
370
    25
100
AcDbLine
 10
5369.4269011047
 20
3811.0972874524
 30
0.0
 11
5369.4269011047
 21
3813.5972874524
 31
0.0
  0
LINE
  5
4ED
330
1F
100
AcDbEntity
  8
0
  6
Continuous
 62
     7
370
    25
100
AcDbLine
 10
5309.4269011047
 20
3813.5972874524
 30
0.0
 11
5309.4269011047
 21
3811.0972874524
 31
0.0
  0
LINE
  5
4EE
330
1F
100
AcDbEntity
  8
0
  6
Continuous
 62
     7
370
    25
100
AcDbLine
 10
5309.4269011047
 20
3811.0972874524
 30
0.0
 11
5309.9269011047
 21
3810.5972874524
 31
0.0
  0
LINE
  5
4EF
330
1F
100
AcDbEntity
  8
0
  6
Continuous
 62
     7
370
    25
100
AcDbLine
 10
5368.9269011047
 20
3810.5972874524
 30
0.0
 11
5369.4269011047
 21
3811.0972874524
 31
0.0
  0
LINE
  5
4F0
330
1F
100
AcDbEntity
  8
0
  6
Continuous
 62
     7
370
    25
100
AcDbLine
 10
7769.4269011047
 20
3811.0972874524
 30
0.0
 11
7769.4269011047
 21
3813.5972874524
 31
0.0
  0
LINE
  5
4F1
330
1F
100
AcDbEntity
  8
0
  6
Continuous
 62
     7
370
    25
100
AcDbLine
 10
7709.4269011047
 20
3813.5972874524
 30
0.0
 11
7709.4269011047
 21
3811.0972874524
 31
0.0
  0
LINE
  5
4F2
330
1F
100
AcDbEntity
  8
0
  6
Continuous
 62
     7
370
    25
100
AcDbLine
 10
7709.4269011047
 20
3811.0972874524
 30
0.0
 11
7709.9269011047
 21
3810.5972874524
 31
0.0
  0
LINE
  5
4F3
330
1F
100
AcDbEntity
  8
0
  6
Continuous
 62
     7
370
    25
100
AcDbLine
 10
7768.9269011047
 20
3810.5972874524
 30
0.0
 11
7769.4269011047
 21
3811.0972874524
 31
0.0
  0
LINE
  5
4F4
330
1F
100
AcDbEntity
  8
0
  6
Continuous
 62
     7
370
    25
100
AcDbLine
 10
6569.4269011047
 20
3811.0972874524
 30
0.0
 11
6569.4269011047
 21
3813.5972874524
 31
0.0
  0
LINE
  5
4F5
330
1F
100
AcDbEntity
  8
0
  6
Continuous
 62
     7
370
    25
100
AcDbLine
 10
6509.4269011047
 20
3813.5972874524
 30
0.0
 11
6509.4269011047
 21
3811.0972874524
 31
0.0
  0
LINE
  5
4F6
330
1F
100
AcDbEntity
  8
0
  6
Continuous
 62
     7
370
    25
100
AcDbLine
 10
6509.4269011047
 20
3811.0972874524
 30
0.0
 11
6509.9269011047
 21
3810.5972874524
 31
0.0
  0
LINE
  5
4F7
330
1F
100
AcDbEntity
  8
0
  6
Continuous
 62
     7
370
    25
100
AcDbLine
 10
6568.9269011047
 20
3810.5972874524
 30
0.0
 11
6569.4269011047
 21
3811.0972874524
 31
0.0
  0
LINE
  5
4F8
330
1F
100
AcDbEntity
  8
0
  6
Continuous
 62
     7
370
    25
100
AcDbLine
 10
5969.4269011047
 20
3811.0972874524
 30
0.0
 11
5969.4269011047
 21
3813.5972874524
 31
0.0
  0
LINE
  5
4F9
330
1F
100
AcDbEntity
  8
0
  6
Continuous
 62
     7
370
    25
100
AcDbLine
 10
5909.4269011047
 20
3813.5972874524
 30
0.0
 11
5909.4269011047
 21
3811.0972874524
 31
0.0
  0
LINE
  5
4FA
330
1F
100
AcDbEntity
  8
0
  6
Continuous
 62
     7
370
    25
100
AcDbLine
 10
5909.4269011047
 20
3811.0972874524
 30
0.0
 11
5909.9269011047
 21
3810.5972874524
 31
0.0
  0
LINE
  5
4FB
330
1F
100
AcDbEntity
  8
0
  6
Continuous
 62
     7
370
    25
100
AcDbLine
 10
5968.9269011047
 20
3810.5972874524
 30
0.0
 11
5969.4269011047
 21
3811.0972874524
 31
0.0
  0
LINE
  5
4FC
330
1F
100
AcDbEntity
  8
0
  6
Continuous
 62
     7
370
    25
100
AcDbLine
 10
5925.426901104
 20
3810.597287452
 30
0.0
 11
5925.426901104
 21
3645.597287452
 31
0.0
  0
LINE
  5
4FD
330
1F
100
AcDbEntity
  8
0
  6
Continuous
 62
     7
370
    25
100
AcDbLine
 10
5953.426901104
 20
3645.597287452
 30
0.0
 11
5953.426901104
 21
3810.597287452
 31
0.0
  0
LINE
  5
4FE
330
1F
100
AcDbEntity
  8
0
  6
Continuous
 62
     7
370
    25
100
AcDbLine
 10
5925.426901104
 20
3645.597287452
 30
0.0
 11
5926.426901104
 21
3644.597287452
 31
0.0
  0
LINE
  5
4FF
330
1F
100
AcDbEntity
  8
0
  6
Continuous
 62
     7
370
    25
100
AcDbLine
 10
5952.426901104
 20
3644.597287452
 30
0.0
 11
5953.426901104
 21
3645.597287452
 31
0.0
  0
LINE
  5
500
330
1F
100
AcDbEntity
  8
0
  6
Continuous
 62
     7
370
    25
100
AcDbLine
 10
7725.426901104
 20
3810.597287452
 30
0.0
 11
7725.426901104
 21
3645.597287452
 31
0.0
  0
LINE
  5
501
330
1F
100
AcDbEntity
  8
0
  6
Continuous
 62
     7
370
    25
100
AcDbLine
 10
7753.426901104
 20
3645.597287452
 30
0.0
 11
7753.426901104
 21
3810.597287452
 31
0.0
  0
LINE
  5
502
330
1F
100
AcDbEntity
  8
0
  6
Continuous
 62
     7
370
    25
100
AcDbLine
 10
7725.426901104
 20
3645.597287452
 30
0.0
 11
7726.426901104
 21
3644.597287452
 31
0.0
  0
LINE
  5
503
330
1F
100
AcDbEntity
  8
0
  6
Continuous
 62
     7
370
    25
100
AcDbLine
 10
7752.426901104
 20
3644.597287452
 30
0.0
 11
7753.426901104
 21
3645.597287452
 31
0.0
  0
LINE
  5
504
330
1F
100
AcDbEntity
  8
0
  6
Continuous
 62
     7
370
    25
100
AcDbLine
 10
7125.426901104
 20
3810.597287452
 30
0.0
 11
7125.426901104
 21
3645.597287452
 31
0.0
  0
LINE
  5
505
330
1F
100
AcDbEntity
  8
0
  6
Continuous
 62
     7
370
    25
100
AcDbLine
 10
7153.426901104
 20
3645.597287452
 30
0.0
 11
7153.426901104
 21
3810.597287452
 31
0.0
  0
LINE
  5
506
330
1F
100
AcDbEntity
  8
0
  6
Continuous
 62
     7
370
    25
100
AcDbLine
 10
7125.426901104
 20
3645.597287452
 30
0.0
 11
7126.426901104
 21
3644.597287452
 31
0.0
  0
LINE
  5
507
330
1F
100
AcDbEntity
  8
0
  6
Continuous
 62
     7
370
    25
100
AcDbLine
 10
7152.426901104
 20
3644.597287452
 30
0.0
 11
7153.426901104
 21
3645.597287452
 31
0.0
  0
LINE
  5
508
330
1F
100
AcDbEntity
  8
0
  6
Continuous
 62
     7
370
    25
100
AcDbLine
 10
6525.426901104
 20
3810.597287452
 30
0.0
 11
6525.426901104
 21
3645.597287452
 31
0.0
  0
LINE
  5
509
330
1F
100
AcDbEntity
  8
0
  6
Continuous
 62
     7
370
    25
100
AcDbLine
 10
6553.426901104
 20
3645.597287452
 30
0.0
 11
6553.426901104
 21
3810.597287452
 31
0.0
  0
LINE
  5
50A
330
1F
100
AcDbEntity
  8
0
  6
Continuous
 62
     7
370
    25
100
AcDbLine
 10
6525.426901104
 20
3645.597287452
 30
0.0
 11
6526.426901104
 21
3644.597287452
 31
0.0
  0
LINE
  5
50B
330
1F
100
AcDbEntity
  8
0
  6
Continuous
 62
     7
370
    25
100
AcDbLine
 10
6552.426901104
 20
3644.597287452
 30
0.0
 11
6553.426901104
 21
3645.597287452
 31
0.0
  0
LINE
  5
50C
330
1F
100
AcDbEntity
  8
0
  6
Continuous
 62
     7
370
    25
100
AcDbLine
 10
5325.426901104
 20
3810.597287452
 30
0.0
 11
5325.426901104
 21
3645.597287452
 31
0.0
  0
LINE
  5
50D
330
1F
100
AcDbEntity
  8
0
  6
Continuous
 62
     7
370
    25
100
AcDbLine
 10
5353.426901104
 20
3645.597287452
 30
0.0
 11
5353.426901104
 21
3810.597287452
 31
0.0
  0
LINE
  5
50E
330
1F
100
AcDbEntity
  8
0
  6
Continuous
 62
     7
370
    25
100
AcDbLine
 10
5325.426901104
 20
3645.597287452
 30
0.0
 11
5326.426901104
 21
3644.597287452
 31
0.0
  0
LINE
  5
50F
330
1F
100
AcDbEntity
  8
0
  6
Continuous
 62
     7
370
    25
100
AcDbLine
 10
5352.426901104
 20
3644.597287452
 30
0.0
 11
5353.426901104
 21
3645.597287452
 31
0.0
  0
ARC
  5
510
330
1F
100
AcDbEntity
  8
0
  6
Continuous
 62
     7
370
    25
100
AcDbCircle
 10
5191.9269011044
 20
3621.0972874517
 30
0.0
 40
5.250000000000412
100
AcDbArc
 50
347.044139803
 51
150.6177183995
  0
LINE
  5
511
330
1F
100
AcDbEntity
  8
0
  6
Continuous
 62
     7
370
    25
100
AcDbLine
 10
5197.0432522457
 20
3619.9202356263
 30
0.0
 11
5187.3522318163
 21
3623.6731175905
 31
0.0
  0
ARC
  5
512
330
1F
100
AcDbEntity
  8
0
  6
Continuous
 62
     7
370
    25
100
AcDbCircle
 10
5191.9269011044
 20
3621.0972874517
 30
0.0
 40
5.250000000001098
100
AcDbArc
 50
167.044139803
 51
330.6177183995
  0
LINE
  5
513
330
1F
100
AcDbEntity
  8
0
  6
Continuous
 62
     7
370
    25
100
AcDbLine
 10
5186.8105499632
 20
3622.274339277
 30
0.0
 11
5196.5015703926
 21
3618.5214573129
 31
0.0
  0
ARC
  5
514
330
1F
100
AcDbEntity
  8
0
  6
Continuous
 62
     7
370
    25
100
AcDbCircle
 10
5191.9269011044
 20
3621.0972874517
 30
0.0
 40
5.250000000001098
100
AcDbArc
 50
150.6177183995
 51
167.044139803
  0
ARC
  5
515
330
1F
100
AcDbEntity
  8
0
  6
Continuous
 62
     7
370
    25
100
AcDbCircle
 10
5191.9269011044
 20
3621.0972874517
 30
0.0
 40
5.250000000000007
100
AcDbArc
 50
330.6177183995
 51
347.044139803
  0
CIRCLE
  5
516
330
1F
100
AcDbEntity
  8
0
  6
Continuous
 62
     7
370
    25
100
AcDbCircle
 10
5191.9269011044
 20
3621.0972874516
 30
0.0
 40
24.50000000000018
  0
CIRCLE
  5
517
330
1F
100
AcDbEntity
  8
0
  6
Continuous
 62
     7
370
    25
100
AcDbCircle
 10
5191.9269011044
 20
3621.0972874516
 30
0.0
 40
35.00000000000029
  0
CIRCLE
  5
518
330
1F
100
AcDbEntity
  8
0
  6
Continuous
 62
     7
370
    25
100
AcDbCircle
 10
5191.9269011044
 20
3621.0972874516
 30
0.0
 40
22.50000000000008
  0
CIRCLE
  5
519
330
1F
100
AcDbEntity
  8
0
  6
Continuous
 62
     7
370
    25
100
AcDbCircle
 10
5191.9269011044
 20
3621.0972874516
 30
0.0
 40
21.49999999999997
  0
CIRCLE
  5
51A
330
1F
100
AcDbEntity
  8
0
  6
Continuous
 62
     7
370
    25
100
AcDbCircle
 10
5191.9269011044
 20
3621.0972874516
 30
0.0
 40
19.55298992456339
  0
CIRCLE
  5
51B
330
1F
100
AcDbEntity
  8
0
  6
Continuous
 62
     7
370
    25
100
AcDbCircle
 10
5191.9269011044
 20
3621.0972874516
 30
0.0
 40
6.182050807569122
  0
ARC
  5
51C
330
1F
100
AcDbEntity
  8
0
  6
Continuous
 62
     7
370
    25
100
AcDbCircle
 10
5191.9269011044
 20
3621.0972874516
 30
0.0
 40
19.49999999999998
100
AcDbArc
 50
110.4734666804
 51
136.5740765598
  0
ARC
  5
51D
330
1F
100
AcDbEntity
  8
0
  6
Continuous
 62
     7
370
    25
100
AcDbCircle
 10
5180.6698133779
 20
3631.7522382219
 30
0.0
 40
3.999999999999781
100
AcDbArc
 50
136.5740765598
 51
316.5740765598
  0
ARC
  5
51E
330
1F
100
AcDbEntity
  8
0
  6
Continuous
 62
     7
370
    25
100
AcDbCircle
 10
5191.9269011044
 20
3621.0972874516
 30
0.0
 40
11.50000000000072
100
AcDbArc
 50
110.4734666804
 51
136.5740765598
  0
ARC
  5
51F
330
1F
100
AcDbEntity
  8
0
  6
Continuous
 62
     7
370
    25
100
AcDbCircle
 10
5186.5054106663
 20
3635.6182186005
 30
0.0
 40
4.000000000000198
100
AcDbArc
 50
290.4734666804
 51
110.4734666804
  0
ARC
  5
520
330
1F
100
AcDbEntity
  8
0
  6
Continuous
 62
     7
370
    25
100
AcDbCircle
 10
5191.9269011044
 20
3621.0972874516
 30
0.0
 40
19.50000000000037
100
AcDbArc
 50
200.4734666804
 51
226.5740765598
  0
ARC
  5
521
330
1F
100
AcDbEntity
  8
0
  6
Continuous
 62
     7
370
    25
100
AcDbCircle
 10
5181.2719503341
 20
3609.8401997251
 30
0.0
 40
4.000000000000093
100
AcDbArc
 50
226.5740765598
 51
46.5740765598
  0
ARC
  5
522
330
1F
100
AcDbEntity
  8
0
  6
Continuous
 62
     7
370
    25
100
AcDbCircle
 10
5191.9269011044
 20
3621.0972874516
 30
0.0
 40
11.50000000000098
100
AcDbArc
 50
200.4734666804
 51
226.5740765598
  0
ARC
  5
523
330
1F
100
AcDbEntity
  8
0
  6
Continuous
 62
     7
370
    25
100
AcDbCircle
 10
5177.4059699555
 20
3615.6757970135
 30
0.0
 40
4.000000000000039
100
AcDbArc
 50
20.4734666804
 51
200.4734666804
  0
ARC
  5
524
330
1F
100
AcDbEntity
  8
0
  6
Continuous
 62
     7
370
    25
100
AcDbCircle
 10
5191.9269011044
 20
3621.0972874516
 30
0.0
 40
19.50000000000029
100
AcDbArc
 50
290.4734666804
 51
316.5740765598
  0
ARC
  5
525
330
1F
100
AcDbEntity
  8
0
  6
Continuous
 62
     7
370
    25
100
AcDbCircle
 10
5203.1839888309
 20
3610.4423366813
 30
0.0
 40
4.000000000000754
100
AcDbArc
 50
316.5740765598
 51
136.5740765598
  0
ARC
  5
526
330
1F
100
AcDbEntity
  8
0
  6
Continuous
 62
     7
370
    25
100
AcDbCircle
 10
5191.9269011044
 20
3621.0972874516
 30
0.0
 40
11.50000000000029
100
AcDbArc
 50
290.4734666804
 51
316.5740765598
  0
ARC
  5
527
330
1F
100
AcDbEntity
  8
0
  6
Continuous
 62
     7
370
    25
100
AcDbCircle
 10
5197.3483915424
 20
3606.5763563028
 30
0.0
 40
4.000000000000198
100
AcDbArc
 50
110.4734666804
 51
290.4734666804
  0
ARC
  5
528
330
1F
100
AcDbEntity
  8
0
  6
Continuous
 62
     7
370
    25
100
AcDbCircle
 10
5191.9269011044
 20
3621.0972874516
 30
0.0
 40
19.49999999999998
100
AcDbArc
 50
20.4734666804
 51
46.5740765598
  0
ARC
  5
529
330
1F
100
AcDbEntity
  8
0
  6
Continuous
 62
     7
370
    25
100
AcDbCircle
 10
5202.5818518747
 20
3632.3543751781
 30
0.0
 40
4.000000000000129
100
AcDbArc
 50
46.5740765598
 51
226.5740765598
  0
ARC
  5
52A
330
1F
100
AcDbEntity
  8
0
  6
Continuous
 62
     7
370
    25
100
AcDbCircle
 10
5191.9269011044
 20
3621.0972874516
 30
0.0
 40
11.50000000000013
100
AcDbArc
 50
20.4734666804
 51
46.5740765598
  0
ARC
  5
52B
330
1F
100
AcDbEntity
  8
0
  6
Continuous
 62
     7
370
    25
100
AcDbCircle
 10
5206.4478322532
 20
3626.5187778897
 30
0.0
 40
4.000000000000039
100
AcDbArc
 50
200.4734666804
 51
20.4734666804
  0
CIRCLE
  5
52C
330
1F
100
AcDbEntity
  8
0
  6
Continuous
 62
     7
370
    25
100
AcDbCircle
 10
5191.9269011044
 20
3621.0972874516
 30
0.0
 40
5.682050807568753
  0
LINE
  5
52D
330
1F
100
AcDbEntity
  8
0
  6
Continuous
 62
     7
370
    25
100
AcDbLine
 10
5201.6817096479
 20
3873.5972874516
 30
0.0
 11
5171.9269011044
 21
3873.5972874516
 31
0.0
  0
LINE
  5
52E
330
1F
100
AcDbEntity
  8
0
  6
Continuous
 62
     7
370
    25
100
AcDbLine
 10
5211.9269011044
 20
3873.5972874516
 30
0.0
 11
5201.6817096479
 21
3873.5972874516
 31
0.0
  0
LINE
  5
52F
330
1F
100
AcDbEntity
  8
0
  6
Continuous
 62
     7
370
    25
100
AcDbLine
 10
5206.1089520411
 20
3611.7949905061
 30
0.0
 11
5206.5634648039
 21
3612.5822297039
 31
0.0
  0
LINE
  5
530
330
1F
100
AcDbEntity
  8
0
  6
Continuous
 62
     7
370
    25
100
AcDbLine
 10
5201.893864781
 20
3614.2285722704
 30
0.0
 11
5206.1089520411
 21
3611.7949905061
 31
0.0
  0
LINE
  5
531
330
1F
100
AcDbEntity
  8
0
  6
Continuous
 62
     7
370
    25
100
AcDbLine
 10
5177.7448501676
 20
3611.7949905061
 30
0.0
 11
5182.4852345776
 21
3614.5318527213
 31
0.0
  0
LINE
  5
532
330
1F
100
AcDbEntity
  8
0
  6
Continuous
 62
     7
370
    25
100
AcDbLine
 10
5176.7798501676
 20
3613.4664195354
 30
0.0
 11
5177.7448501676
 21
3611.7949905061
 31
0.0
  0
LINE
  5
533
330
1F
100
AcDbEntity
  8
0
  6
Continuous
 62
     7
370
    25
100
AcDbLine
 10
5181.5202345776
 20
3616.2032817506
 30
0.0
 11
5176.7798501676
 21
3613.4664195354
 31
0.0
  0
ARC
  5
534
330
1F
100
AcDbEntity
  8
0
  6
Continuous
 62
     7
370
    25
100
AcDbCircle
 10
5191.9269011044
 20
3621.0972874516
 30
0.0
 40
14.50000000000074
100
AcDbArc
 50
213.815953349
 51
241.4174832656
  0
ARC
  5
535
330
1F
100
AcDbEntity
  8
0
  6
Continuous
 62
     7
370
    25
100
AcDbCircle
 10
5191.9269011044
 20
3621.0972874516
 30
0.0
 40
14.5
100
AcDbArc
 50
275.6300600516
 51
326.184046651
  0
ARC
  5
536
330
1F
100
AcDbEntity
  8
0
  6
Continuous
 62
     7
370
    25
100
AcDbCircle
 10
5191.9269011044
 20
3621.0972874516
 30
0.0
 40
14.50000000000114
100
AcDbArc
 50
95.6300600148
 51
151.4174831767
  0
ARC
  5
537
330
1F
100
AcDbEntity
  8
0
  6
Continuous
 62
     7
370
    25
100
AcDbCircle
 10
5191.9269011044
 20
3621.0972874516
 30
0.0
 40
14.50000000000094
100
AcDbArc
 50
185.6300600626
 51
206.184046651
  0
ARC
  5
538
330
1F
100
AcDbEntity
  8
0
  6
Continuous
 62
     7
370
    25
100
AcDbCircle
 10
5191.9269011044
 20
3621.0972874516
 30
0.0
 40
14.49999999999924
100
AcDbArc
 50
5.6300600641
 51
61.4174831037
  0
LINE
  5
539
330
1F
100
AcDbEntity
  8
0
  6
Continuous
 62
     7
370
    25
100
AcDbLine
 10
7992.7769011044
 20
3383.4972874516
 30
0.0
 11
5086.0769011044
 21
3383.4972874516
 31
0.0
  0
LINE
  5
53A
330
1F
100
AcDbEntity
  8
0
  6
Continuous
 62
     7
370
    25
100
AcDbLine
 10
7992.7769011044
 20
3383.4972874516
 30
0.0
 11
7992.7769011044
 21
3383.5972874516
 31
0.0
  0
LINE
  5
53B
330
1F
100
AcDbEntity
  8
0
  6
Continuous
 62
     7
370
    25
100
AcDbLine
 10
5086.0769011044
 20
3383.4972874516
 30
0.0
 11
5086.0769011044
 21
3383.5972874516
 31
0.0
  0
LWPOLYLINE
  5
53C
330
1F
100
AcDbEntity
  8
0
  6
Continuous
 62
     7
370
    25
100
AcDbPolyline
 90
        3
 70
   128
 43
0.0
 10
5085.5112156795
 20
3383.5972874516
 10
5085.755002073
 20
3383.528991739
 10
5086.0769011044
 20
3383.4972874516
  0
LWPOLYLINE
  5
53D
330
1F
100
AcDbEntity
  8
0
  6
Continuous
 62
     7
370
    25
100
AcDbPolyline
 90
        3
 70
   128
 43
0.0
 10
7992.7769011044
 20
3383.4972874516
 10
7993.0988001357
 20
3383.528991739
 10
7993.3425865293
 20
3383.5972874516
  0
LINE
  5
53E
330
1F
100
AcDbEntity
  8
0
  6
Continuous
 62
     7
370
    25
100
AcDbLine
 10
8039.4269011044
 20
3863.5972874516
 30
0.0
 11
8037.4269011044
 21
3863.5972874516
 31
0.0
  0
LINE
  5
53F
330
1F
100
AcDbEntity
  8
0
  6
Continuous
 62
     7
370
    25
100
AcDbLine
 10
8039.4269011044
 20
3860.9398817318
 30
0.0
 11
8037.4269011044
 21
3860.9398817318
 31
0.0
  0
LINE
  5
540
330
1F
100
AcDbEntity
  8
0
  6
Continuous
 62
     7
370
    25
100
AcDbLine
 10
8039.4269011044
 20
3863.5972874516
 30
0.0
 11
8039.4269011044
 21
3860.9398817318
 31
0.0
  0
LINE
  5
541
330
1F
100
AcDbEntity
  8
0
  6
Continuous
 62
     7
370
    25
100
AcDbLine
 10
8037.4269011044
 20
3863.5972874516
 30
0.0
 11
8037.4269011044
 21
3860.9398817318
 31
0.0
  0
LINE
  5
542
330
1F
100
AcDbEntity
  8
0
  6
Continuous
 62
     7
370
    25
100
AcDbLine
 10
8039.4269011044
 20
3815.3398817318
 30
0.0
 11
8037.4269011044
 21
3815.3398817318
 31
0.0
  0
LINE
  5
543
330
1F
100
AcDbEntity
  8
0
  6
Continuous
 62
     7
370
    25
100
AcDbLine
 10
8039.4269011044
 20
3860.9398817318
 30
0.0
 11
8039.4269011044
 21
3815.3398817318
 31
0.0
  0
LINE
  5
544
330
1F
100
AcDbEntity
  8
0
  6
Continuous
 62
     7
370
    25
100
AcDbLine
 10
8037.4269011044
 20
3860.9398817318
 30
0.0
 11
8037.4269011044
 21
3815.3398817318
 31
0.0
  0
LINE
  5
545
330
1F
100
AcDbEntity
  8
0
  6
Continuous
 62
     7
370
    25
100
AcDbLine
 10
8039.4269011044
 20
3813.5972874516
 30
0.0
 11
8037.4269011044
 21
3813.5972874516
 31
0.0
  0
LINE
  5
546
330
1F
100
AcDbEntity
  8
0
  6
Continuous
 62
     7
370
    25
100
AcDbLine
 10
8039.4269011044
 20
3815.3398817318
 30
0.0
 11
8039.4269011044
 21
3813.5972874516
 31
0.0
  0
LINE
  5
547
330
1F
100
AcDbEntity
  8
0
  6
Continuous
 62
     7
370
    25
100
AcDbLine
 10
8037.4269011044
 20
3815.3398817318
 30
0.0
 11
8037.4269011044
 21
3813.5972874516
 31
0.0
  0
LINE
  5
548
330
1F
100
AcDbEntity
  8
0
  6
Continuous
 62
     7
370
    25
100
AcDbLine
 10
8039.4269011044
 20
3385.7972874516
 30
0.0
 11
8037.4269011044
 21
3385.7972874516
 31
0.0
  0
LINE
  5
549
330
1F
100
AcDbEntity
  8
0
  6
Continuous
 62
     7
370
    25
100
AcDbLine
 10
8039.4269011044
 20
3813.5972874516
 30
0.0
 11
8039.4269011044
 21
3385.7972874516
 31
0.0
  0
LINE
  5
54A
330
1F
100
AcDbEntity
  8
0
  6
Continuous
 62
     7
370
    25
100
AcDbLine
 10
8037.4269011044
 20
3813.5972874516
 30
0.0
 11
8037.4269011044
 21
3385.7972874516
 31
0.0
  0
LINE
  5
54B
330
1F
100
AcDbEntity
  8
0
  6
Continuous
 62
     7
370
    25
100
AcDbLine
 10
8039.4269011044
 20
3383.5972874516
 30
0.0
 11
8037.4269011044
 21
3383.5972874516
 31
0.0
  0
LINE
  5
54C
330
1F
100
AcDbEntity
  8
0
  6
Continuous
 62
     7
370
    25
100
AcDbLine
 10
8039.4269011044
 20
3385.7972874516
 30
0.0
 11
8039.4269011044
 21
3383.5972874516
 31
0.0
  0
LINE
  5
54D
330
1F
100
AcDbEntity
  8
0
  6
Continuous
 62
     7
370
    25
100
AcDbLine
 10
8037.4269011044
 20
3385.7972874516
 30
0.0
 11
8037.4269011044
 21
3383.5972874516
 31
0.0
  0
LWPOLYLINE
  5
54E
330
1F
100
AcDbEntity
  8
0
  6
Continuous
 62
     7
370
    25
100
AcDbPolyline
 90
        3
 70
   128
 43
0.0
 10
8037.107926072
 20
3383.5972874516
 10
8036.9316811026
 20
3383.5568530824
 10
8036.3269011044
 20
3383.4972874516
  0
LINE
  5
54F
330
1F
100
AcDbEntity
  8
0
  6
Continuous
 62
     7
370
    25
100
AcDbLine
 10
8036.3269011044
 20
3383.4972874516
 30
0.0
 11
7997.5269011044
 21
3383.4972874516
 31
0.0
  0
LWPOLYLINE
  5
550
330
1F
100
AcDbEntity
  8
0
  6
Continuous
 62
     7
370
    25
100
AcDbPolyline
 90
        3
 70
   128
 43
0.0
 10
7996.7458761368
 20
3383.5972874516
 10
7996.9221211061
 20
3383.5568530824
 10
7997.5269011044
 20
3383.4972874516
  0
LINE
  5
551
330
1F
100
AcDbEntity
  8
0
  6
Continuous
 62
     7
370
    25
100
AcDbLine
 10
5039.4269011044
 20
3860.9398817318
 30
0.0
 11
5041.4269011044
 21
3860.9398817318
 31
0.0
  0
LINE
  5
552
330
1F
100
AcDbEntity
  8
0
  6
Continuous
 62
     7
370
    25
100
AcDbLine
 10
5039.4269011044
 20
3863.5972874516
 30
0.0
 11
5039.4269011044
 21
3860.9398817318
 31
0.0
  0
LINE
  5
553
330
1F
100
AcDbEntity
  8
0
  6
Continuous
 62
     7
370
    25
100
AcDbLine
 10
5039.4269011044
 20
3863.5972874516
 30
0.0
 11
5041.4269011044
 21
3863.5972874516
 31
0.0
  0
LINE
  5
554
330
1F
100
AcDbEntity
  8
0
  6
Continuous
 62
     7
370
    25
100
AcDbLine
 10
5041.4269011044
 20
3863.5972874516
 30
0.0
 11
5041.4269011044
 21
3860.9398817318
 31
0.0
  0
LINE
  5
555
330
1F
100
AcDbEntity
  8
0
  6
Continuous
 62
     7
370
    25
100
AcDbLine
 10
5039.4269011044
 20
3815.3398817318
 30
0.0
 11
5041.4269011044
 21
3815.3398817318
 31
0.0
  0
LINE
  5
556
330
1F
100
AcDbEntity
  8
0
  6
Continuous
 62
     7
370
    25
100
AcDbLine
 10
5041.4269011044
 20
3860.9398817318
 30
0.0
 11
5041.4269011044
 21
3815.3398817318
 31
0.0
  0
LINE
  5
557
330
1F
100
AcDbEntity
  8
0
  6
Continuous
 62
     7
370
    25
100
AcDbLine
 10
5039.4269011044
 20
3860.9398817318
 30
0.0
 11
5039.4269011044
 21
3815.3398817318
 31
0.0
  0
LINE
  5
558
330
1F
100
AcDbEntity
  8
0
  6
Continuous
 62
     7
370
    25
100
AcDbLine
 10
5039.4269011044
 20
3813.5972874516
 30
0.0
 11
5041.4269011044
 21
3813.5972874516
 31
0.0
  0
LINE
  5
559
330
1F
100
AcDbEntity
  8
0
  6
Continuous
 62
     7
370
    25
100
AcDbLine
 10
5041.4269011044
 20
3815.3398817318
 30
0.0
 11
5041.4269011044
 21
3813.5972874516
 31
0.0
  0
LINE
  5
55A
330
1F
100
AcDbEntity
  8
0
  6
Continuous
 62
     7
370
    25
100
AcDbLine
 10
5039.4269011044
 20
3815.3398817318
 30
0.0
 11
5039.4269011044
 21
3813.5972874516
 31
0.0
  0
LINE
  5
55B
330
1F
100
AcDbEntity
  8
0
  6
Continuous
 62
     7
370
    25
100
AcDbLine
 10
5039.4269011044
 20
3385.7972874516
 30
0.0
 11
5041.4269011044
 21
3385.7972874516
 31
0.0
  0
LINE
  5
55C
330
1F
100
AcDbEntity
  8
0
  6
Continuous
 62
     7
370
    25
100
AcDbLine
 10
5041.4269011044
 20
3813.5972874516
 30
0.0
 11
5041.4269011044
 21
3385.7972874516
 31
0.0
  0
LINE
  5
55D
330
1F
100
AcDbEntity
  8
0
  6
Continuous
 62
     7
370
    25
100
AcDbLine
 10
5039.4269011044
 20
3813.5972874516
 30
0.0
 11
5039.4269011044
 21
3385.7972874516
 31
0.0
  0
LINE
  5
55E
330
1F
100
AcDbEntity
  8
0
  6
Continuous
 62
     7
370
    25
100
AcDbLine
 10
5039.4269011044
 20
3383.5972874516
 30
0.0
 11
5041.4269011044
 21
3383.5972874516
 31
0.0
  0
LINE
  5
55F
330
1F
100
AcDbEntity
  8
0
  6
Continuous
 62
     7
370
    25
100
AcDbLine
 10
5041.4269011044
 20
3385.7972874516
 30
0.0
 11
5041.4269011044
 21
3383.5972874516
 31
0.0
  0
LINE
  5
560
330
1F
100
AcDbEntity
  8
0
  6
Continuous
 62
     7
370
    25
100
AcDbLine
 10
5039.4269011044
 20
3385.7972874516
 30
0.0
 11
5039.4269011044
 21
3383.5972874516
 31
0.0
  0
LWPOLYLINE
  5
561
330
1F
100
AcDbEntity
  8
0
  6
Continuous
 62
     7
370
    25
100
AcDbPolyline
 90
        3
 70
   128
 43
0.0
 10
5041.7458761368
 20
3383.5972874516
 10
5041.9221211061
 20
3383.5568530824
 10
5042.5269011044
 20
3383.4972874516
  0
LINE
  5
562
330
1F
100
AcDbEntity
  8
0
  6
Continuous
 62
     7
370
    25
100
AcDbLine
 10
5042.5269011044
 20
3383.4972874516
 30
0.0
 11
5081.3269011044
 21
3383.4972874516
 31
0.0
  0
LWPOLYLINE
  5
563
330
1F
100
AcDbEntity
  8
0
  6
Continuous
 62
     7
370
    25
100
AcDbPolyline
 90
        3
 70
   128
 43
0.0
 10
5082.1079260719
 20
3383.5972874516
 10
5081.9316811026
 20
3383.5568530824
 10
5081.3269011044
 20
3383.4972874516
  0
LINE
  5
564
330
1F
100
AcDbEntity
  8
0
  6
Continuous
 62
     7
370
    25
100
AcDbLine
 10
8037.4269011044
 20
3863.5972874516
 30
0.0
 11
5041.4269011044
 21
3863.5972874516
 31
0.0
  0
LINE
  5
565
330
1F
100
AcDbEntity
  8
0
  6
Continuous
 62
     7
370
    25
100
AcDbLine
 10
5041.4269011044
 20
3860.9398817318
 30
0.0
 11
8037.4269011044
 21
3860.9398817318
 31
0.0
  0
LINE
  5
566
330
1F
100
AcDbEntity
  8
0
  6
Continuous
 62
     7
370
    25
100
AcDbLine
 10
8037.4269011044
 20
3815.3398817318
 30
0.0
 11
5041.4269011044
 21
3815.3398817318
 31
0.0
  0
LINE
  5
567
330
1F
100
AcDbEntity
  8
0
  6
Continuous
 62
     7
370
    25
100
AcDbLine
 10
5041.4269011044
 20
3813.5972874516
 30
0.0
 11
8037.4269011044
 21
3813.5972874516
 31
0.0
  0
LINE
  5
568
330
1F
100
AcDbEntity
  8
0
  6
Continuous
 62
     7
370
    25
100
AcDbLine
 10
8037.4269011044
 20
3428.5972874516
 30
0.0
 11
5041.4269011044
 21
3428.5972874516
 31
0.0
  0
LINE
  5
569
330
1F
100
AcDbEntity
  8
0
  6
Continuous
 62
     7
370
    25
100
AcDbLine
 10
5041.4269011044
 20
3426.3972874516
 30
0.0
 11
8037.4269011044
 21
3426.3972874516
 31
0.0
  0
LINE
  5
56A
330
1F
100
AcDbEntity
  8
0
  6
Continuous
 62
     7
370
    25
100
AcDbLine
 10
8037.4269011044
 20
3385.7972874516
 30
0.0
 11
5041.4269011044
 21
3385.7972874516
 31
0.0
  0
LINE
  5
56B
330
1F
100
AcDbEntity
  8
0
  6
Continuous
 62
     7
370
    25
100
AcDbLine
 10
5041.4269011044
 20
3385.7972874516
 30
0.0
 11
5041.4269011044
 21
3426.3972874516
 31
0.0
  0
LINE
  5
56C
330
1F
100
AcDbEntity
  8
0
  6
Continuous
 62
     7
370
    25
100
AcDbLine
 10
8037.4269011044
 20
3385.7972874516
 30
0.0
 11
8037.4269011044
 21
3426.3972874516
 31
0.0
  0
LINE
  5
56D
330
1F
100
AcDbEntity
  8
0
  6
Continuous
 62
     7
370
    25
100
AcDbLine
 10
5041.4269011044
 20
3383.5972874516
 30
0.0
 11
8037.4269011044
 21
3383.5972874516
 31
0.0
  0
LINE
  5
56E
330
1F
100
AcDbEntity
  8
0
  6
Continuous
 62
     7
370
    25
100
AcDbLine
 10
8037.4269011044
 20
3428.9396485124
 30
0.0
 11
5041.4269011044
 21
3428.9396485124
 31
0.0
  0
LINE
  5
56F
330
1F
100
AcDbEntity
  8
0
  6
Continuous
 62
     7
370
    25
100
AcDbLine
 10
5041.4269011044
 20
3554.3147277674
 30
0.0
 11
8037.4269011044
 21
3554.3147277674
 31
0.0
  0
LINE
  5
570
330
1F
100
AcDbEntity
  8
0
  6
Continuous
 62
     7
370
    25
100
AcDbLine
 10
8037.4269011044
 20
3554.9723667066
 30
0.0
 11
5041.4269011044
 21
3554.9723667066
 31
0.0
  0
LWPOLYLINE
  5
571
330
1F
100
AcDbEntity
  8
0
  6
Continuous
 62
     7
370
    25
100
AcDbPolyline
 90
       37
 70
   128
 43
0.0
 10
5161.4269011044
 20
3826.9290481387
 10
5163.5106792364
 20
3827.107371258
 10
5165.5311428243
 20
3827.6369223581
 10
5167.4269011044
 20
3828.5016112968
 10
5169.1403524206
 20
3829.6751649384
 10
5170.6194344218
 20
3831.1219254491
 10
5171.8192059498
 20
3832.7979337431
 10
5172.7032125538
 20
3834.6522651563
 10
5173.2445941405
 20
3836.6285767672
 10
5173.4269011044
 20
3838.6668193475
 10
5173.2445941405
 20
3840.7050619278
 10
5172.7032125538
 20
3842.6813735386
 10
5171.8192059498
 20
3844.5357049519
 10
5170.6194344218
 20
3846.2117132458
 10
5169.1403524206
 20
3847.6584737566
 10
5167.4269011044
 20
3848.8320273981
 10
5165.5311428243
 20
3849.6967163369
 10
5163.5106792364
 20
3850.226267437
 10
5161.4269011044
 20
3850.4045905563
 10
5159.3431229724
 20
3850.226267437
 10
5157.3226593845
 20
3849.6967163369
 10
5155.4269011044
 20
3848.8320273981
 10
5153.7134497881
 20
3847.6584737566
 10
5152.2343677869
 20
3846.2117132458
 10
5151.034596259
 20
3844.5357049519
 10
5150.1505896549
 20
3842.6813735386
 10
5149.6092080682
 20
3840.7050619278
 10
5149.4269011044
 20
3838.6668193475
 10
5149.6092080682
 20
3836.6285767672
 10
5150.1505896549
 20
3834.6522651563
 10
5151.034596259
 20
3832.7979337431
 10
5152.2343677869
 20
3831.1219254491
 10
5153.7134497881
 20
3829.6751649384
 10
5155.4269011044
 20
3828.5016112968
 10
5157.3226593845
 20
3827.6369223581
 10
5159.3431229724
 20
3827.107371258
 10
5161.4269011044
 20
3826.9290481387
  0
LINE
  5
572
330
1F
100
AcDbEntity
  8
0
  6
Continuous
 62
     7
370
    25
100
AcDbLine
 10
5471.9269011044
 20
3811.5972874516
 30
0.0
 11
5446.9269011044
 21
3811.5972874516
 31
0.0
  0
LINE
  5
573
330
1F
100
AcDbEntity
  8
0
  6
Continuous
 62
     7
370
    25
100
AcDbLine
 10
5445.4269011044
 20
3813.0972874516
 30
0.0
 11
5473.4269011044
 21
3813.0972874516
 31
0.0
  0
LINE
  5
574
330
1F
100
AcDbEntity
  8
0
  6
Continuous
 62
     7
370
    25
100
AcDbLine
 10
7845.4269011044
 20
3813.0972874516
 30
0.0
 11
7873.4269011044
 21
3813.0972874516
 31
0.0
  0
LINE
  5
575
330
1F
100
AcDbEntity
  8
0
  6
Continuous
 62
     7
370
    25
100
AcDbLine
 10
7871.9269011044
 20
3811.5972874516
 30
0.0
 11
7846.9269011044
 21
3811.5972874516
 31
0.0
  0
LINE
  5
576
330
1F
100
AcDbEntity
  8
0
  6
Continuous
 62
     7
370
    25
100
AcDbLine
 10
6671.9269011044
 20
3811.5972874516
 30
0.0
 11
6646.9269011044
 21
3811.5972874516
 31
0.0
  0
LINE
  5
577
330
1F
100
AcDbEntity
  8
0
  6
Continuous
 62
     7
370
    25
100
AcDbLine
 10
6645.4269011044
 20
3813.0972874516
 30
0.0
 11
6673.4269011044
 21
3813.0972874516
 31
0.0
  0
LINE
  5
578
330
1F
100
AcDbEntity
  8
0
  6
Continuous
 62
     7
370
    25
100
AcDbLine
 10
7245.4269011044
 20
3813.0972874516
 30
0.0
 11
7273.4269011044
 21
3813.0972874516
 31
0.0
  0
LINE
  5
579
330
1F
100
AcDbEntity
  8
0
  6
Continuous
 62
     7
370
    25
100
AcDbLine
 10
7271.9269011044
 20
3811.5972874516
 30
0.0
 11
7246.9269011044
 21
3811.5972874516
 31
0.0
  0
LINE
  5
57A
330
1F
100
AcDbEntity
  8
0
  6
Continuous
 62
     7
370
    25
100
AcDbLine
 10
6045.4269011044
 20
3813.0972874516
 30
0.0
 11
6073.4269011044
 21
3813.0972874516
 31
0.0
  0
LINE
  5
57B
330
1F
100
AcDbEntity
  8
0
  6
Continuous
 62
     7
370
    25
100
AcDbLine
 10
6071.9269011044
 20
3811.5972874516
 30
0.0
 11
6046.9269011044
 21
3811.5972874516
 31
0.0
  0
LINE
  5
57C
330
1F
100
AcDbEntity
  8
0
  6
Continuous
 62
     7
370
    25
100
AcDbLine
 10
7109.4269011047
 20
3811.0972874524
 30
0.0
 11
7169.4269011047
 21
3811.0972874524
 31
0.0
  0
LINE
  5
57D
330
1F
100
AcDbEntity
  8
0
  6
Continuous
 62
     7
370
    25
100
AcDbLine
 10
7168.9269011047
 20
3810.5972874524
 30
0.0
 11
7109.9269011047
 21
3810.5972874524
 31
0.0
  0
LINE
  5
57E
330
1F
100
AcDbEntity
  8
0
  6
Continuous
 62
     7
370
    25
100
AcDbLine
 10
5309.4269011047
 20
3811.0972874524
 30
0.0
 11
5369.4269011047
 21
3811.0972874524
 31
0.0
  0
LINE
  5
57F
330
1F
100
AcDbEntity
  8
0
  6
Continuous
 62
     7
370
    25
100
AcDbLine
 10
5368.9269011047
 20
3810.5972874524
 30
0.0
 11
5309.9269011047
 21
3810.5972874524
 31
0.0
  0
LINE
  5
580
330
1F
100
AcDbEntity
  8
0
  6
Continuous
 62
     7
370
    25
100
AcDbLine
 10
7709.4269011047
 20
3811.0972874524
 30
0.0
 11
7769.4269011047
 21
3811.0972874524
 31
0.0
  0
LINE
  5
581
330
1F
100
AcDbEntity
  8
0
  6
Continuous
 62
     7
370
    25
100
AcDbLine
 10
7768.9269011047
 20
3810.5972874524
 30
0.0
 11
7709.9269011047
 21
3810.5972874524
 31
0.0
  0
LINE
  5
582
330
1F
100
AcDbEntity
  8
0
  6
Continuous
 62
     7
370
    25
100
AcDbLine
 10
6509.4269011047
 20
3811.0972874524
 30
0.0
 11
6569.4269011047
 21
3811.0972874524
 31
0.0
  0
LINE
  5
583
330
1F
100
AcDbEntity
  8
0
  6
Continuous
 62
     7
370
    25
100
AcDbLine
 10
6568.9269011047
 20
3810.5972874524
 30
0.0
 11
6509.9269011047
 21
3810.5972874524
 31
0.0
  0
LINE
  5
584
330
1F
100
AcDbEntity
  8
0
  6
Continuous
 62
     7
370
    25
100
AcDbLine
 10
5909.4269011047
 20
3811.0972874524
 30
0.0
 11
5969.4269011047
 21
3811.0972874524
 31
0.0
  0
LINE
  5
585
330
1F
100
AcDbEntity
  8
0
  6
Continuous
 62
     7
370
    25
100
AcDbLine
 10
5968.9269011047
 20
3810.5972874524
 30
0.0
 11
5909.9269011047
 21
3810.5972874524
 31
0.0
  0
LINE
  5
586
330
1F
100
AcDbEntity
  8
0
  6
Continuous
 62
     7
370
    25
100
AcDbLine
 10
5312.2098788335
 20
3810.597287452
 30
0.0
 11
5309.926901104
 21
3810.597287452
 31
0.0
  0
LINE
  5
587
330
1F
100
AcDbEntity
  8
0
  6
Continuous
 62
     7
370
    25
100
AcDbLine
 10
5368.926901104
 20
3810.597287452
 30
0.0
 11
5312.2098788335
 21
3810.597287452
 31
0.0
  0
LINE
  5
588
330
1F
100
AcDbEntity
  8
0
  6
Continuous
 62
     7
370
    25
100
AcDbLine
 10
5311.7485733713
 20
3811.097287452
 30
0.0
 11
5369.426901104
 21
3811.097287452
 31
0.0
  0
LINE
  5
589
330
1F
100
AcDbEntity
  8
0
  6
Continuous
 62
     7
370
    25
100
AcDbLine
 10
5309.426901104
 20
3811.097287452
 30
0.0
 11
5311.7485733713
 21
3811.097287452
 31
0.0
  0
LINE
  5
58A
330
1F
100
AcDbEntity
  8
0
  6
Continuous
 62
     7
370
    25
100
AcDbLine
 10
5912.2098788335
 20
3810.597287452
 30
0.0
 11
5909.926901104
 21
3810.597287452
 31
0.0
  0
LINE
  5
58B
330
1F
100
AcDbEntity
  8
0
  6
Continuous
 62
     7
370
    25
100
AcDbLine
 10
5968.926901104
 20
3810.597287452
 30
0.0
 11
5912.2098788335
 21
3810.597287452
 31
0.0
  0
LINE
  5
58C
330
1F
100
AcDbEntity
  8
0
  6
Continuous
 62
     7
370
    25
100
AcDbLine
 10
5911.7485733713
 20
3811.097287452
 30
0.0
 11
5969.426901104
 21
3811.097287452
 31
0.0
  0
LINE
  5
58D
330
1F
100
AcDbEntity
  8
0
  6
Continuous
 62
     7
370
    25
100
AcDbLine
 10
5909.426901104
 20
3811.097287452
 30
0.0
 11
5911.7485733713
 21
3811.097287452
 31
0.0
  0
LINE
  5
58E
330
1F
100
AcDbEntity
  8
0
  6
Continuous
 62
     7
370
    25
100
AcDbLine
 10
6511.7485733713
 20
3811.097287452
 30
0.0
 11
6569.426901104
 21
3811.097287452
 31
0.0
  0
LINE
  5
58F
330
1F
100
AcDbEntity
  8
0
  6
Continuous
 62
     7
370
    25
100
AcDbLine
 10
6509.426901104
 20
3811.097287452
 30
0.0
 11
6511.7485733713
 21
3811.097287452
 31
0.0
  0
LINE
  5
590
330
1F
100
AcDbEntity
  8
0
  6
Continuous
 62
     7
370
    25
100
AcDbLine
 10
6512.2098788335
 20
3810.597287452
 30
0.0
 11
6509.926901104
 21
3810.597287452
 31
0.0
  0
LINE
  5
591
330
1F
100
AcDbEntity
  8
0
  6
Continuous
 62
     7
370
    25
100
AcDbLine
 10
6568.926901104
 20
3810.597287452
 30
0.0
 11
6512.2098788335
 21
3810.597287452
 31
0.0
  0
LINE
  5
592
330
1F
100
AcDbEntity
  8
0
  6
Continuous
 62
     7
370
    25
100
AcDbLine
 10
7111.7485733713
 20
3811.097287452
 30
0.0
 11
7169.426901104
 21
3811.097287452
 31
0.0
  0
LINE
  5
593
330
1F
100
AcDbEntity
  8
0
  6
Continuous
 62
     7
370
    25
100
AcDbLine
 10
7109.426901104
 20
3811.097287452
 30
0.0
 11
7111.7485733713
 21
3811.097287452
 31
0.0
  0
LINE
  5
594
330
1F
100
AcDbEntity
  8
0
  6
Continuous
 62
     7
370
    25
100
AcDbLine
 10
7112.2098788335
 20
3810.597287452
 30
0.0
 11
7109.926901104
 21
3810.597287452
 31
0.0
  0
LINE
  5
595
330
1F
100
AcDbEntity
  8
0
  6
Continuous
 62
     7
370
    25
100
AcDbLine
 10
7168.926901104
 20
3810.597287452
 30
0.0
 11
7112.2098788335
 21
3810.597287452
 31
0.0
  0
LINE
  5
596
330
1F
100
AcDbEntity
  8
0
  6
Continuous
 62
     7
370
    25
100
AcDbLine
 10
7711.7485733713
 20
3811.097287452
 30
0.0
 11
7769.426901104
 21
3811.097287452
 31
0.0
  0
LINE
  5
597
330
1F
100
AcDbEntity
  8
0
  6
Continuous
 62
     7
370
    25
100
AcDbLine
 10
7709.426901104
 20
3811.097287452
 30
0.0
 11
7711.7485733713
 21
3811.097287452
 31
0.0
  0
LINE
  5
598
330
1F
100
AcDbEntity
  8
0
  6
Continuous
 62
     7
370
    25
100
AcDbLine
 10
7712.2098788335
 20
3810.597287452
 30
0.0
 11
7709.926901104
 21
3810.597287452
 31
0.0
  0
LINE
  5
599
330
1F
100
AcDbEntity
  8
0
  6
Continuous
 62
     7
370
    25
100
AcDbLine
 10
7768.926901104
 20
3810.597287452
 30
0.0
 11
7712.2098788335
 21
3810.597287452
 31
0.0
  0
LINE
  5
59A
330
1F
100
AcDbEntity
  8
0
  6
Continuous
 62
     7
370
    25
100
AcDbLine
 10
5925.426901104
 20
3645.597287452
 30
0.0
 11
5953.426901104
 21
3645.597287452
 31
0.0
  0
LINE
  5
59B
330
1F
100
AcDbEntity
  8
0
  6
Continuous
 62
     7
370
    25
100
AcDbLine
 10
5952.426901104
 20
3644.597287452
 30
0.0
 11
5926.426901104
 21
3644.597287452
 31
0.0
  0
LINE
  5
59C
330
1F
100
AcDbEntity
  8
0
  6
Continuous
 62
     7
370
    25
100
AcDbLine
 10
7725.426901104
 20
3645.597287452
 30
0.0
 11
7753.426901104
 21
3645.597287452
 31
0.0
  0
LINE
  5
59D
330
1F
100
AcDbEntity
  8
0
  6
Continuous
 62
     7
370
    25
100
AcDbLine
 10
7752.426901104
 20
3644.597287452
 30
0.0
 11
7726.426901104
 21
3644.597287452
 31
0.0
  0
LINE
  5
59E
330
1F
100
AcDbEntity
  8
0
  6
Continuous
 62
     7
370
    25
100
AcDbLine
 10
7125.426901104
 20
3645.597287452
 30
0.0
 11
7153.426901104
 21
3645.597287452
 31
0.0
  0
LINE
  5
59F
330
1F
100
AcDbEntity
  8
0
  6
Continuous
 62
     7
370
    25
100
AcDbLine
 10
7152.426901104
 20
3644.597287452
 30
0.0
 11
7126.426901104
 21
3644.597287452
 31
0.0
  0
LINE
  5
5A0
330
1F
100
AcDbEntity
  8
0
  6
Continuous
 62
     7
370
    25
100
AcDbLine
 10
6525.426901104
 20
3645.597287452
 30
0.0
 11
6553.426901104
 21
3645.597287452
 31
0.0
  0
LINE
  5
5A1
330
1F
100
AcDbEntity
  8
0
  6
Continuous
 62
     7
370
    25
100
AcDbLine
 10
6552.426901104
 20
3644.597287452
 30
0.0
 11
6526.426901104
 21
3644.597287452
 31
0.0
  0
LINE
  5
5A2
330
1F
100
AcDbEntity
  8
0
  6
Continuous
 62
     7
370
    25
100
AcDbLine
 10
5325.426901104
 20
3645.597287452
 30
0.0
 11
5353.426901104
 21
3645.597287452
 31
0.0
  0
LINE
  5
5A3
330
1F
100
AcDbEntity
  8
0
  6
Continuous
 62
     7
370
    25
100
AcDbLine
 10
5352.426901104
 20
3644.597287452
 30
0.0
 11
5326.426901104
 21
3644.597287452
 31
0.0
  0
LINE
  5
5A4
330
1F
100
AcDbEntity
  8
0
  6
Continuous
 62
     8
370
    25
100
AcDbLine
 10
8036.3269011044
 20
3383.5972874516
 30
0.0
 11
8036.3269011044
 21
3383.4972874516
 31
0.0
  0
LINE
  5
5A5
330
1F
100
AcDbEntity
  8
0
  6
Continuous
 62
     8
370
    25
100
AcDbLine
 10
7997.5269011044
 20
3383.5972874516
 30
0.0
 11
7997.5269011044
 21
3383.4972874516
 31
0.0
  0
LINE
  5
5A6
330
1F
100
AcDbEntity
  8
0
  6
Continuous
 62
     8
370
    25
100
AcDbLine
 10
5042.5269011044
 20
3383.5972874516
 30
0.0
 11
5042.5269011044
 21
3383.4972874516
 31
0.0
  0
LINE
  5
5A7
330
1F
100
AcDbEntity
  8
0
  6
Continuous
 62
     8
370
    25
100
AcDbLine
 10
5081.3269011044
 20
3383.5972874516
 30
0.0
 11
5081.3269011044
 21
3383.4972874516
 31
0.0
  0
LINE
  5
5A8
330
1F
100
AcDbEntity
  8
0
  6
Continuous
 62
     8
370
    25
100
AcDbLine
 10
5041.4269011044
 20
3813.2549263908
 30
0.0
 11
5309.426901104
 21
3813.2549263908
 31
0.0
  0
LINE
  5
5A9
330
1F
100
AcDbEntity
  8
0
  6
Continuous
 62
     8
370
    25
100
AcDbLine
 10
5369.426901104
 20
3813.2549263908
 30
0.0
 11
5445.4269011044
 21
3813.2549263908
 31
0.0
  0
LINE
  5
5AA
330
1F
100
AcDbEntity
  8
0
  6
Continuous
 62
     8
370
    25
100
AcDbLine
 10
5473.4269011044
 20
3813.2549263908
 30
0.0
 11
5909.4269011047
 21
3813.2549263908
 31
0.0
  0
LINE
  5
5AB
330
1F
100
AcDbEntity
  8
0
  6
Continuous
 62
     8
370
    25
100
AcDbLine
 10
5969.4269011047
 20
3813.2549263908
 30
0.0
 11
6045.4269011044
 21
3813.2549263908
 31
0.0
  0
LINE
  5
5AC
330
1F
100
AcDbEntity
  8
0
  6
Continuous
 62
     8
370
    25
100
AcDbLine
 10
6073.4269011044
 20
3813.2549263908
 30
0.0
 11
6509.426901104
 21
3813.2549263908
 31
0.0
  0
LINE
  5
5AD
330
1F
100
AcDbEntity
  8
0
  6
Continuous
 62
     8
370
    25
100
AcDbLine
 10
6569.426901104
 20
3813.2549263908
 30
0.0
 11
6645.4269011044
 21
3813.2549263908
 31
0.0
  0
LINE
  5
5AE
330
1F
100
AcDbEntity
  8
0
  6
Continuous
 62
     8
370
    25
100
AcDbLine
 10
6673.4269011044
 20
3813.2549263908
 30
0.0
 11
7109.426901104
 21
3813.2549263908
 31
0.0
  0
LINE
  5
5AF
330
1F
100
AcDbEntity
  8
0
  6
Continuous
 62
     8
370
    25
100
AcDbLine
 10
7169.426901104
 20
3813.2549263908
 30
0.0
 11
7245.4269011044
 21
3813.2549263908
 31
0.0
  0
LINE
  5
5B0
330
1F
100
AcDbEntity
  8
0
  6
Continuous
 62
     8
370
    25
100
AcDbLine
 10
7273.4269011044
 20
3813.2549263908
 30
0.0
 11
7709.426901104
 21
3813.2549263908
 31
0.0
  0
LINE
  5
5B1
330
1F
100
AcDbEntity
  8
0
  6
Continuous
 62
     8
370
    25
100
AcDbLine
 10
7769.426901104
 20
3813.2549263908
 30
0.0
 11
7845.4269011044
 21
3813.2549263908
 31
0.0
  0
LINE
  5
5B2
330
1F
100
AcDbEntity
  8
0
  6
Continuous
 62
     8
370
    25
100
AcDbLine
 10
7873.4269011044
 20
3813.2549263908
 30
0.0
 11
8037.4269011044
 21
3813.2549263908
 31
0.0
  0
LINE
  5
5B3
330
1F
100
AcDbEntity
  8
0
  6
Continuous
 62
     8
370
    25
100
AcDbLine
 10
8037.4269011044
 20
3687.8798471358
 30
0.0
 11
7753.426901104
 21
3687.8798471358
 31
0.0
  0
LINE
  5
5B4
330
1F
100
AcDbEntity
  8
0
  6
Continuous
 62
     8
370
    25
100
AcDbLine
 10
7725.426901104
 20
3687.8798471358
 30
0.0
 11
7153.426901104
 21
3687.8798471358
 31
0.0
  0
LINE
  5
5B5
330
1F
100
AcDbEntity
  8
0
  6
Continuous
 62
     8
370
    25
100
AcDbLine
 10
7125.426901104
 20
3687.8798471358
 30
0.0
 11
6553.426901104
 21
3687.8798471358
 31
0.0
  0
LINE
  5
5B6
330
1F
100
AcDbEntity
  8
0
  6
Continuous
 62
     8
370
    25
100
AcDbLine
 10
6525.426901104
 20
3687.8798471358
 30
0.0
 11
5953.426901104
 21
3687.8798471358
 31
0.0
  0
LINE
  5
5B7
330
1F
100
AcDbEntity
  8
0
  6
Continuous
 62
     8
370
    25
100
AcDbLine
 10
5925.426901104
 20
3687.8798471358
 30
0.0
 11
5353.426901104
 21
3687.8798471358
 31
0.0
  0
LINE
  5
5B8
330
1F
100
AcDbEntity
  8
0
  6
Continuous
 62
     8
370
    25
100
AcDbLine
 10
5325.426901104
 20
3687.8798471358
 30
0.0
 11
5041.4269011044
 21
3687.8798471358
 31
0.0
  0
LINE
  5
5B9
330
1F
100
AcDbEntity
  8
0
  6
Continuous
 62
     8
370
    25
100
AcDbLine
 10
5041.4269011044
 20
3687.2222081966
 30
0.0
 11
5325.426901104
 21
3687.2222081966
 31
0.0
  0
LINE
  5
5BA
330
1F
100
AcDbEntity
  8
0
  6
Continuous
 62
     8
370
    25
100
AcDbLine
 10
5353.426901104
 20
3687.2222081966
 30
0.0
 11
5925.426901104
 21
3687.2222081966
 31
0.0
  0
LINE
  5
5BB
330
1F
100
AcDbEntity
  8
0
  6
Continuous
 62
     8
370
    25
100
AcDbLine
 10
5953.426901104
 20
3687.2222081966
 30
0.0
 11
6525.426901104
 21
3687.2222081966
 31
0.0
  0
LINE
  5
5BC
330
1F
100
AcDbEntity
  8
0
  6
Continuous
 62
     8
370
    25
100
AcDbLine
 10
6553.426901104
 20
3687.2222081966
 30
0.0
 11
7125.426901104
 21
3687.2222081966
 31
0.0
  0
LINE
  5
5BD
330
1F
100
AcDbEntity
  8
0
  6
Continuous
 62
     8
370
    25
100
AcDbLine
 10
7153.426901104
 20
3687.2222081966
 30
0.0
 11
7725.426901104
 21
3687.2222081966
 31
0.0
  0
LINE
  5
5BE
330
1F
100
AcDbEntity
  8
0
  6
Continuous
 62
     8
370
    25
100
AcDbLine
 10
7753.426901104
 20
3687.2222081966
 30
0.0
 11
8037.4269011044
 21
3687.2222081966
 31
0.0
  0
ENDSEC
  0
SECTION
  2
OBJECTS
  0
DICTIONARY
  5
C
330
0
100
AcDbDictionary
281
     1
  3
ACAD_GROUP
350
D
  3
ACAD_LAYOUT
350
1A
  3
ACAD_MLINESTYLE
350
17
  3
ACAD_PLOTSETTINGS
350
19
  3
ACAD_PLOTSTYLENAME
350
E
  3
ACAD_SCALELIST
350
47
  3
DWGPROPS
350
5BF
  0
DICTIONARY
  5
D
102
{ACAD_REACTORS
330
C
102
}
330
C
100
AcDbDictionary
281
     1
  0
DICTIONARY
  5
1A
102
{ACAD_REACTORS
330
C
102
}
330
C
100
AcDbDictionary
281
     1
  3
Layout1
350
1E
  3
Layout2
350
26
  3
Model
350
22
  0
DICTIONARY
  5
17
102
{ACAD_REACTORS
330
C
102
}
330
C
100
AcDbDictionary
281
     1
  3
Standard
350
18
  0
DICTIONARY
  5
19
102
{ACAD_REACTORS
330
C
102
}
330
C
100
AcDbDictionary
281
     1
  0
ACDBDICTIONARYWDFLT
  5
E
102
{ACAD_REACTORS
330
C
102
}
330
C
100
AcDbDictionary
281
     1
  3
Normal
350
F
100
AcDbDictionaryWithDefault
340
F
  0
DICTIONARY
  5
47
102
{ACAD_REACTORS
330
C
102
}
330
C
100
AcDbDictionary
281
     1
  3
A0
350
48
  3
A1
350
49
  3
A2
350
4A
  3
A3
350
4B
  3
A4
350
4C
  3
A5
350
4D
  3
A6
350
4E
  3
A7
350
4F
  3
A8
350
50
  3
A9
350
51
  3
B0
350
52
  3
B1
350
53
  3
B2
350
54
  3
B3
350
55
  3
B4
350
56
  3
B5
350
57
  3
B6
350
58
  3
B7
350
59
  3
B8
350
5A
  3
B9
350
5B
  3
C0
350
5C
  3
C1
350
5D
  3
C2
350
5E
  3
C3
350
5F
  3
C4
350
60
  3
C5
350
61
  3
C6
350
62
  3
C7
350
63
  3
C8
350
64
  3
C9
350
65
  3
D0
350
66
  3
D1
350
67
  3
D2
350
68
  0
XRECORD
  5
5BF
102
{ACAD_REACTORS
330
C
102
}
330
C
100
AcDbXrecord
280
     1
  1
DWGPROPS COOKIE
  2

  3

  4

  6

  7

  8
radek.stransky
  9

300
=
301
=
302
=
303
=
304
=
305
=
306
=
307
=
308
=
309
=
 40
0.0
 41
2459838.465133692
 42
2459838.465134062
  1

 90
        0
  0
LAYOUT
  5
1E
102
{ACAD_REACTORS
330
1A
102
}
330
1A
100
AcDbPlotSettings
  1

  2
none_device
  4

  6

 40
0.0
 41
0.0
 42
0.0
 43
0.0
 44
0.0
 45
0.0
 46
0.0
 47
0.0
 48
0.0
 49
0.0
140
0.0
141
0.0
142
1.0
143
1.0
 70
   688
 72
     1
 73
     0
 74
     5
  7

 75
    16
147
1.0
148
0.0
149
0.0
100
AcDbLayout
  1
Layout1
 70
     1
 71
     1
 10
0.0
 20
0.0
 11
420.0
 21
297.0
 12
0.0
 22
0.0
 32
0.0
 14
1.0000000000E+20
 24
1.0000000000E+20
 34
1.0000000000E+20
 15
-1.0000000000E+20
 25
-1.0000000000E+20
 35
-1.0000000000E+20
146
0.0
 13
0.0
 23
0.0
 33
0.0
 16
1.0
 26
0.0
 36
0.0
 17
0.0
 27
1.0
 37
0.0
 76
     0
330
1B
  0
LAYOUT
  5
26
102
{ACAD_REACTORS
330
1A
102
}
330
1A
100
AcDbPlotSettings
  1

  2
none_device
  4

  6

 40
0.0
 41
0.0
 42
0.0
 43
0.0
 44
0.0
 45
0.0
 46
0.0
 47
0.0
 48
0.0
 49
0.0
140
0.0
141
0.0
142
1.0
143
1.0
 70
   688
 72
     1
 73
     0
 74
     5
  7

 75
    16
147
1.0
148
0.0
149
0.0
100
AcDbLayout
  1
Layout2
 70
     1
 71
     2
 10
0.0
 20
0.0
 11
0.0
 21
0.0
 12
0.0
 22
0.0
 32
0.0
 14
0.0
 24
0.0
 34
0.0
 15
0.0
 25
0.0
 35
0.0
146
0.0
 13
0.0
 23
0.0
 33
0.0
 16
1.0
 26
0.0
 36
0.0
 17
0.0
 27
1.0
 37
0.0
 76
     0
330
23
  0
LAYOUT
  5
22
102
{ACAD_REACTORS
330
1A
102
}
330
1A
100
AcDbPlotSettings
  1

  2
none_device
  4
Letter_(8.50_x_11.00_Inches)
  6

 40
6.35
 41
6.35
 42
6.35000508
 43
6.35000508
 44
215.9
 45
279.4
 46
0.0
 47
0.0
 48
0.0
 49
0.0
140
0.0
141
0.0
142
1.0
143
1.0
 70
  1712
 72
     1
 73
     0
 74
     0
  7

 75
     0
147
1.0
148
0.0
149
0.0
100
AcDbLayout
  1
Model
 70
     1
 71
     0
 10
0.0
 20
0.0
 11
20000.0
 21
10000.0
 12
0.0
 22
0.0
 32
0.0
 14
0.0
 24
0.0
 34
0.0
 15
20000.0
 25
10000.0
 35
0.0
146
0.0
 13
0.0
 23
0.0
 33
0.0
 16
1.0
 26
0.0
 36
0.0
 17
0.0
 27
1.0
 37
0.0
 76
     0
330
1F
331
29
  0
MLINESTYLE
  5
18
102
{ACAD_REACTORS
330
17
102
}
330
17
100
AcDbMlineStyle
  2
Standard
 70
     0
  3

 62
   256
 51
90.0
 52
90.0
 71
     2
 49
0.5
 62
   256
  6
BYLAYER
 49
-0.5
 62
   256
  6
BYLAYER
  0
ACDBPLACEHOLDER
  5
F
102
{ACAD_REACTORS
330
E
102
}
330
E
  0
SCALE
  5
48
102
{ACAD_REACTORS
330
47
102
}
330
47
100
AcDbScale
 70
     0
300
1:1
140
1.0
141
1.0
290
     1
  0
SCALE
  5
49
102
{ACAD_REACTORS
330
47
102
}
330
47
100
AcDbScale
 70
     0
300
1:2
140
1.0
141
2.0
290
     0
  0
SCALE
  5
4A
102
{ACAD_REACTORS
330
47
102
}
330
47
100
AcDbScale
 70
     0
300
1:4
140
1.0
141
4.0
290
     0
  0
SCALE
  5
4B
102
{ACAD_REACTORS
330
47
102
}
330
47
100
AcDbScale
 70
     0
300
1:5
140
1.0
141
5.0
290
     0
  0
SCALE
  5
4C
102
{ACAD_REACTORS
330
47
102
}
330
47
100
AcDbScale
 70
     0
300
1:8
140
1.0
141
8.0
290
     0
  0
SCALE
  5
4D
102
{ACAD_REACTORS
330
47
102
}
330
47
100
AcDbScale
 70
     0
300
1:10
140
1.0
141
10.0
290
     0
  0
SCALE
  5
4E
102
{ACAD_REACTORS
330
47
102
}
330
47
100
AcDbScale
 70
     0
300
1:16
140
1.0
141
16.0
290
     0
  0
SCALE
  5
4F
102
{ACAD_REACTORS
330
47
102
}
330
47
100
AcDbScale
 70
     0
300
1:20
140
1.0
141
20.0
290
     0
  0
SCALE
  5
50
102
{ACAD_REACTORS
330
47
102
}
330
47
100
AcDbScale
 70
     0
300
1:30
140
1.0
141
30.0
290
     0
  0
SCALE
  5
51
102
{ACAD_REACTORS
330
47
102
}
330
47
100
AcDbScale
 70
     0
300
1:40
140
1.0
141
40.0
290
     0
  0
SCALE
  5
52
102
{ACAD_REACTORS
330
47
102
}
330
47
100
AcDbScale
 70
     0
300
1:50
140
1.0
141
50.0
290
     0
  0
SCALE
  5
53
102
{ACAD_REACTORS
330
47
102
}
330
47
100
AcDbScale
 70
     0
300
1:100
140
1.0
141
100.0
290
     0
  0
SCALE
  5
54
102
{ACAD_REACTORS
330
47
102
}
330
47
100
AcDbScale
 70
     0
300
2:1
140
2.0
141
1.0
290
     0
  0
SCALE
  5
55
102
{ACAD_REACTORS
330
47
102
}
330
47
100
AcDbScale
 70
     0
300
4:1
140
4.0
141
1.0
290
     0
  0
SCALE
  5
56
102
{ACAD_REACTORS
330
47
102
}
330
47
100
AcDbScale
 70
     0
300
8:1
140
8.0
141
1.0
290
     0
  0
SCALE
  5
57
102
{ACAD_REACTORS
330
47
102
}
330
47
100
AcDbScale
 70
     0
300
10:1
140
10.0
141
1.0
290
     0
  0
SCALE
  5
58
102
{ACAD_REACTORS
330
47
102
}
330
47
100
AcDbScale
 70
     0
300
100:1
140
100.0
141
1.0
290
     0
  0
SCALE
  5
59
102
{ACAD_REACTORS
330
47
102
}
330
47
100
AcDbScale
 70
     0
300
1/128" = 1'-0"
140
0.0078125
141
12.0
290
     0
  0
SCALE
  5
5A
102
{ACAD_REACTORS
330
47
102
}
330
47
100
AcDbScale
 70
     0
300
1/64" = 1'-0"
140
0.015625
141
12.0
290
     0
  0
SCALE
  5
5B
102
{ACAD_REACTORS
330
47
102
}
330
47
100
AcDbScale
 70
     0
300
1/32" = 1'-0"
140
0.03125
141
12.0
290
     0
  0
SCALE
  5
5C
102
{ACAD_REACTORS
330
47
102
}
330
47
100
AcDbScale
 70
     0
300
1/16" = 1'-0"
140
0.0625
141
12.0
290
     0
  0
SCALE
  5
5D
102
{ACAD_REACTORS
330
47
102
}
330
47
100
AcDbScale
 70
     0
300
3/32" = 1'-0"
140
0.09375
141
12.0
290
     0
  0
SCALE
  5
5E
102
{ACAD_REACTORS
330
47
102
}
330
47
100
AcDbScale
 70
     0
300
1/8" = 1'-0"
140
0.125
141
12.0
290
     0
  0
SCALE
  5
5F
102
{ACAD_REACTORS
330
47
102
}
330
47
100
AcDbScale
 70
     0
300
3/16" = 1'-0"
140
0.1875
141
12.0
290
     0
  0
SCALE
  5
60
102
{ACAD_REACTORS
330
47
102
}
330
47
100
AcDbScale
 70
     0
300
1/4" = 1'-0"
140
0.25
141
12.0
290
     0
  0
SCALE
  5
61
102
{ACAD_REACTORS
330
47
102
}
330
47
100
AcDbScale
 70
     0
300
3/8" = 1'-0"
140
0.375
141
12.0
290
     0
  0
SCALE
  5
62
102
{ACAD_REACTORS
330
47
102
}
330
47
100
AcDbScale
 70
     0
300
1/2" = 1'-0"
140
0.5
141
12.0
290
     0
  0
SCALE
  5
63
102
{ACAD_REACTORS
330
47
102
}
330
47
100
AcDbScale
 70
     0
300
3/4" = 1'-0"
140
0.75
141
12.0
290
     0
  0
SCALE
  5
64
102
{ACAD_REACTORS
330
47
102
}
330
47
100
AcDbScale
 70
     0
300
1" = 1'-0"
140
1.0
141
12.0
290
     0
  0
SCALE
  5
65
102
{ACAD_REACTORS
330
47
102
}
330
47
100
AcDbScale
 70
     0
300
1-1/2" = 1'-0"
140
1.5
141
12.0
290
     0
  0
SCALE
  5
66
102
{ACAD_REACTORS
330
47
102
}
330
47
100
AcDbScale
 70
     0
300
3" = 1'-0"
140
3.0
141
12.0
290
     0
  0
SCALE
  5
67
102
{ACAD_REACTORS
330
47
102
}
330
47
100
AcDbScale
 70
     0
300
6" = 1'-0"
140
6.0
141
12.0
290
     0
  0
SCALE
  5
68
102
{ACAD_REACTORS
330
47
102
}
330
47
100
AcDbScale
 70
     0
300
1'-0" = 1'-0"
140
12.0
141
12.0
290
     0
  0
ENDSEC
  0
EOF
