  0
SECTION
  2
HEADER
  9
$ACADVER
  1
AC1015
  9
$ACADMAINTVER
 70
     6
  9
$DWGCODEPAGE
  3
ANSI_1250
  9
$INSBASE
 10
0.0
 20
0.0
 30
0.0
  9
$EXTMIN
 10
0.0
 20
0.0
 30
0.0
  9
$EXTMAX
 10
20000.0
 20
10000.0
 30
0.0
  9
$LIMMIN
 10
0.0
 20
0.0
  9
$LIMMAX
 10
20000.0
 20
10000.0
  9
$ORTHOMODE
 70
     0
  9
$REGENMODE
 70
     1
  9
$FILLMODE
 70
     1
  9
$QTEXTMODE
 70
     0
  9
$MIRRTEXT
 70
     1
  9
$LTSCALE
 40
1.0
  9
$ATTMODE
 70
     1
  9
$TEXTSIZE
 40
2.0
  9
$TRACEWID
 40
1.0
  9
$TEXTSTYLE
  7
Standard
  9
$CLAYER
  8
0
  9
$CELTYPE
  6
ByLayer
  9
$CECOLOR
 62
   256
  9
$CELTSCALE
 40
1.0
  9
$DISPSILH
 70
     0
  9
$DIMSCALE
 40
1.0
  9
$DIMASZ
 40
2.0
  9
$DIMEXO
 40
1.0
  9
$DIMDLI
 40
3.75
  9
$DIMRND
 40
0.0
  9
$DIMDLE
 40
0.0
  9
$DIMEXE
 40
1.0
  9
$DIMTP
 40
0.0
  9
$DIMTM
 40
0.0
  9
$DIMTXT
 40
2.0
  9
$DIMCEN
 40
2.5
  9
$DIMTSZ
 40
0.0
  9
$DIMTOL
 70
     0
  9
$DIMLIM
 70
     0
  9
$DIMTIH
 70
     1
  9
$DIMTOH
 70
     1
  9
$DIMSE1
 70
     0
  9
$DIMSE2
 70
     0
  9
$DIMTAD
 70
     1
  9
$DIMZIN
 70
     0
  9
$DIMBLK
  1

  9
$DIMASO
 70
     1
  9
$DIMSHO
 70
     1
  9
$DIMPOST
  1

  9
$DIMAPOST
  1

  9
$DIMALT
 70
     0
  9
$DIMALTD
 70
     3
  9
$DIMALTF
 40
0.0393700787
  9
$DIMLFAC
 40
1.0
  9
$DIMTOFL
 70
     1
  9
$DIMTVP
 40
0.0
  9
$DIMTIX
 70
     0
  9
$DIMSOXD
 70
     0
  9
$DIMSAH
 70
     0
  9
$DIMBLK1
  1

  9
$DIMBLK2
  1

  9
$DIMSTYLE
  2
ISO-25
  9
$DIMCLRD
 70
     0
  9
$DIMCLRE
 70
     0
  9
$DIMCLRT
 70
     0
  9
$DIMTFAC
 40
1.0
  9
$DIMGAP
 40
1.524
  9
$DIMJUST
 70
     0
  9
$DIMSD1
 70
     0
  9
$DIMSD2
 70
     0
  9
$DIMTOLJ
 70
     0
  9
$DIMTZIN
 70
     0
  9
$DIMALTZ
 70
     0
  9
$DIMALTTZ
 70
     0
  9
$DIMUPT
 70
     0
  9
$DIMDEC
 70
     2
  9
$DIMTDEC
 70
     0
  9
$DIMALTU
 70
     2
  9
$DIMALTTD
 70
     3
  9
$DIMTXSTY
  7
Standard
  9
$DIMAUNIT
 70
     0
  9
$DIMADEC
 70
     2
  9
$DIMALTRND
 40
0.0
  9
$DIMAZIN
 70
     0
  9
$DIMDSEP
 70
    44
  9
$DIMATFIT
 70
     3
  9
$DIMFRAC
 70
     0
  9
$DIMLDRBLK
  1

  9
$DIMLUNIT
 70
     2
  9
$DIMLWD
 70
    -2
  9
$DIMLWE
 70
    -2
  9
$DIMTMOVE
 70
     0
  9
$LUNITS
 70
     2
  9
$LUPREC
 70
     3
  9
$SKETCHINC
 40
1.0
  9
$FILLETRAD
 40
10.0
  9
$AUNITS
 70
     0
  9
$AUPREC
 70
     2
  9
$MENU
  1
.
  9
$ELEVATION
 40
0.0
  9
$PELEVATION
 40
0.0
  9
$THICKNESS
 40
0.0
  9
$LIMCHECK
 70
     0
  9
$CHAMFERA
 40
0.0
  9
$CHAMFERB
 40
0.0
  9
$CHAMFERC
 40
0.0
  9
$CHAMFERD
 40
0.0
  9
$SKPOLY
 70
     0
  9
$TDCREATE
 40
2459837.532517037
  9
$TDUCREATE
 40
2459837.449183704
  9
$TDUPDATE
 40
2459837.532517558
  9
$TDUUPDATE
 40
2459837.449184224
  9
$TDINDWG
 40
0.0000000116
  9
$TDUSRTIMER
 40
0.0000000116
  9
$USRTIMER
 70
     1
  9
$ANGBASE
 50
0.0
  9
$ANGDIR
 70
     0
  9
$PDMODE
 70
     0
  9
$PDSIZE
 40
-1.0
  9
$PLINEWID
 40
0.0
  9
$SPLFRAME
 70
     0
  9
$SPLINETYPE
 70
     6
  9
$SPLINESEGS
 70
     8
  9
$HANDSEED
  5
445
  9
$SURFTAB1
 70
     6
  9
$SURFTAB2
 70
     6
  9
$SURFTYPE
 70
     6
  9
$SURFU
 70
     6
  9
$SURFV
 70
     6
  9
$UCSBASE
  2

  9
$UCSNAME
  2

  9
$UCSORG
 10
0.0
 20
0.0
 30
0.0
  9
$UCSXDIR
 10
1.0
 20
0.0
 30
0.0
  9
$UCSYDIR
 10
0.0
 20
1.0
 30
0.0
  9
$UCSORTHOREF
  2

  9
$UCSORTHOVIEW
 70
     0
  9
$UCSORGTOP
 10
0.0
 20
0.0
 30
0.0
  9
$UCSORGBOTTOM
 10
0.0
 20
0.0
 30
0.0
  9
$UCSORGLEFT
 10
0.0
 20
0.0
 30
0.0
  9
$UCSORGRIGHT
 10
0.0
 20
0.0
 30
0.0
  9
$UCSORGFRONT
 10
0.0
 20
0.0
 30
0.0
  9
$UCSORGBACK
 10
0.0
 20
0.0
 30
0.0
  9
$PUCSBASE
  2

  9
$PUCSNAME
  2

  9
$PUCSORG
 10
0.0
 20
0.0
 30
0.0
  9
$PUCSXDIR
 10
1.0
 20
0.0
 30
0.0
  9
$PUCSYDIR
 10
0.0
 20
1.0
 30
0.0
  9
$PUCSORTHOREF
  2

  9
$PUCSORTHOVIEW
 70
     0
  9
$PUCSORGTOP
 10
0.0
 20
0.0
 30
0.0
  9
$PUCSORGBOTTOM
 10
0.0
 20
0.0
 30
0.0
  9
$PUCSORGLEFT
 10
0.0
 20
0.0
 30
0.0
  9
$PUCSORGRIGHT
 10
0.0
 20
0.0
 30
0.0
  9
$PUCSORGFRONT
 10
0.0
 20
0.0
 30
0.0
  9
$PUCSORGBACK
 10
0.0
 20
0.0
 30
0.0
  9
$USERI1
 70
     0
  9
$USERI2
 70
     0
  9
$USERI3
 70
     0
  9
$USERI4
 70
     0
  9
$USERI5
 70
     0
  9
$USERR1
 40
0.0
  9
$USERR2
 40
0.0
  9
$USERR3
 40
0.0
  9
$USERR4
 40
0.0
  9
$USERR5
 40
0.0
  9
$WORLDVIEW
 70
     1
  9
$SHADEDGE
 70
     3
  9
$SHADEDIF
 70
    70
  9
$TILEMODE
 70
     1
  9
$MAXACTVP
 70
    64
  9
$PINSBASE
 10
0.0
 20
0.0
 30
0.0
  9
$PLIMCHECK
 70
     0
  9
$PEXTMIN
 10
1.0000000000E+20
 20
1.0000000000E+20
 30
1.0000000000E+20
  9
$PEXTMAX
 10
-1.0000000000E+20
 20
-1.0000000000E+20
 30
-1.0000000000E+20
  9
$PLIMMIN
 10
0.0
 20
0.0
  9
$PLIMMAX
 10
420.0
 20
297.0
  9
$UNITMODE
 70
     0
  9
$VISRETAIN
 70
     1
  9
$PLINEGEN
 70
     0
  9
$PSLTSCALE
 70
     1
  9
$TREEDEPTH
 70
  3020
  9
$CMLSTYLE
  2
Standard
  9
$CMLJUST
 70
     0
  9
$CMLSCALE
 40
20.0
  9
$PROXYGRAPHICS
 70
     1
  9
$MEASUREMENT
 70
     1
  9
$CELWEIGHT
370
    -1
  9
$ENDCAPS
280
     0
  9
$JOINSTYLE
280
     0
  9
$LWDISPLAY
290
     1
  9
$INSUNITS
 70
     4
  9
$HYPERLINKBASE
  1

  9
$STYLESHEET
  1

  9
$XEDIT
290
     1
  9
$CEPSNTYPE
380
     0
  9
$PSTYLEMODE
290
     1
  9
$FINGERPRINTGUID
  2
{7515e24a-a927-445e-8ba9-42f2bc07b02f}
  9
$VERSIONGUID
  2
{FAEB1C32-E019-11D5-929B-00C0DF256EC4}
  9
$EXTNAMES
290
     1
  9
$PSVPSCALE
 40
0.0
  9
$OLESTARTUP
290
     0
  0
ENDSEC
  0
SECTION
  2
CLASSES
  0
CLASS
  1
ACDBDICTIONARYWDFLT
  2
AcDbDictionaryWithDefault
  3
ObjectDBX Classes
 90
        0
280
     0
281
     0
  0
CLASS
  1
VISUALSTYLE
  2
AcDbVisualStyle
  3
ObjectDBX Classes
 90
     4095
280
     0
281
     0
  0
CLASS
  1
MATERIAL
  2
AcDbMaterial
  3
ObjectDBX Classes
 90
     1153
280
     0
281
     0
  0
CLASS
  1
SCALE
  2
AcDbScale
  3
ObjectDBX Classes
 90
     1153
280
     0
281
     0
  0
CLASS
  1
TABLESTYLE
  2
AcDbTableStyle
  3
ObjectDBX Classes
 90
     4095
280
     0
281
     0
  0
CLASS
  1
MLEADERSTYLE
  2
AcDbMLeaderStyle
  3
ACDB_MLEADERSTYLE_CLASS
 90
     4095
280
     0
281
     0
  0
CLASS
  1
SUN
  2
AcDbSun
  3
SCENEOE
 90
     1153
280
     0
281
     0
  0
CLASS
  1
ACDBPLACEHOLDER
  2
AcDbPlaceHolder
  3
ObjectDBX Classes
 90
        0
280
     0
281
     0
  0
CLASS
  1
LAYOUT
  2
AcDbLayout
  3
ObjectDBX Classes
 90
        0
280
     0
281
     0
  0
ENDSEC
  0
SECTION
  2
TABLES
  0
TABLE
  2
VPORT
  5
8
330
0
100
AcDbSymbolTable
 70
     1
  0
VPORT
  5
29
330
8
100
AcDbSymbolTableRecord
100
AcDbViewportTableRecord
  2
*Active
 70
     0
 10
0.0
 20
0.0
 11
1.0
 21
1.0
 12
10000.0
 22
5000.0
 13
0.0
 23
0.0
 14
10.0
 24
10.0
 15
10.0
 25
10.0
 16
0.0
 26
0.0
 36
1.0
 17
0.0
 27
0.0
 37
0.0
 40
10000.0
 41
2.0
 42
50.0
 43
0.0
 44
0.0
 50
0.0
 51
0.0
 71
     0
 72
  2000
 73
     1
 74
     3
 75
     0
 76
     0
 77
     0
 78
     0
281
     0
 65
     1
110
0.0
120
0.0
130
0.0
111
1.0
121
0.0
131
0.0
112
0.0
122
1.0
132
0.0
 79
     0
146
0.0
  0
ENDTAB
  0
TABLE
  2
LTYPE
  5
5
330
0
100
AcDbSymbolTable
 70
     6
  0
LTYPE
  5
14
330
5
100
AcDbSymbolTableRecord
100
AcDbLinetypeTableRecord
  2
ByBlock
 70
     0
  3

 72
    65
 73
     0
 40
0.0
  0
LTYPE
  5
15
330
5
100
AcDbSymbolTableRecord
100
AcDbLinetypeTableRecord
  2
ByLayer
 70
     0
  3

 72
    65
 73
     0
 40
0.0
  0
LTYPE
  5
16
330
5
100
AcDbSymbolTableRecord
100
AcDbLinetypeTableRecord
  2
Continuous
 70
     0
  3
Solid line
 72
    65
 73
     0
 40
0.0
  0
LTYPE
  5
6E
330
5
100
AcDbSymbolTableRecord
100
AcDbLinetypeTableRecord
  2
HIDDEN
 70
     0
  3
Hidden __ __ __ __ __ __ __ __ __ __ __ __ __ __
 72
    65
 73
     2
 40
1.905
 49
1.27
 74
     0
 49
-0.635
 74
     0
  0
LTYPE
  5
6F
330
5
100
AcDbSymbolTableRecord
100
AcDbLinetypeTableRecord
  2
PHANTOM
 70
     0
  3
Phantom ______  __  __  ______  __  __  ______
 72
    65
 73
     6
 40
12.7
 49
6.35
 74
     0
 49
-1.27
 74
     0
 49
1.27
 74
     0
 49
-1.27
 74
     0
 49
1.27
 74
     0
 49
-1.27
 74
     0
  0
LTYPE
  5
70
330
5
100
AcDbSymbolTableRecord
100
AcDbLinetypeTableRecord
  2
CENTER
 70
     0
  3
Center ____ _ ____ _ ____ _ ____ _ ____ _ ____
 72
    65
 73
     4
 40
10.16
 49
6.35
 74
     0
 49
-1.27
 74
     0
 49
1.27
 74
     0
 49
-1.27
 74
     0
  0
LTYPE
  5
71
330
5
100
AcDbSymbolTableRecord
100
AcDbLinetypeTableRecord
  2
CENTERX2
 70
     0
  3
Center (2x) ________  __  ________  __  _____
 72
    65
 73
     4
 40
20.32
 49
12.7
 74
     0
 49
-2.54
 74
     0
 49
2.54
 74
     0
 49
-2.54
 74
     0
  0
LTYPE
  5
72
330
5
100
AcDbSymbolTableRecord
100
AcDbLinetypeTableRecord
  2
DOT2
 70
     0
  3
Dot (.5x) ........................................
 72
    65
 73
     2
 40
0.635
 49
0.0
 74
     0
 49
-0.635
 74
     0
  0
ENDTAB
  0
TABLE
  2
LAYER
  5
2
330
0
100
AcDbSymbolTable
 70
    13
  0
LAYER
  5
10
330
2
100
AcDbSymbolTableRecord
100
AcDbLayerTableRecord
  2
0
 70
     0
 62
     7
  6
Continuous
370
    -3
390
F
  0
LAYER
  5
73
330
2
100
AcDbSymbolTableRecord
100
AcDbLayerTableRecord
  2
FORMAT
 70
     0
 62
     7
  6
Continuous
370
    -3
390
F
  0
LAYER
  5
74
330
2
100
AcDbSymbolTableRecord
100
AcDbLayerTableRecord
  2
OSA
 70
     0
 62
     7
  6
CENTER
370
    -3
390
F
  0
LAYER
  5
75
330
2
100
AcDbSymbolTableRecord
100
AcDbLayerTableRecord
  2
0_35
 70
     0
 62
     7
  6
Continuous
370
    35
390
F
  0
LAYER
  5
76
330
2
100
AcDbSymbolTableRecord
100
AcDbLayerTableRecord
  2
0_5
 70
     0
 62
     7
  6
Continuous
370
    50
390
F
  0
LAYER
  5
77
330
2
100
AcDbSymbolTableRecord
100
AcDbLayerTableRecord
  2
0_25
 70
     0
 62
     7
  6
Continuous
370
    25
390
F
  0
LAYER
  5
78
330
2
100
AcDbSymbolTableRecord
100
AcDbLayerTableRecord
  2
0_18
 70
     0
 62
     7
  6
Continuous
370
    -3
390
F
  0
LAYER
  5
79
330
2
100
AcDbSymbolTableRecord
100
AcDbLayerTableRecord
  2
SLD-0
 70
     0
 62
   179
  6
Continuous
370
    -3
390
F
  0
LAYER
  5
7A
330
2
100
AcDbSymbolTableRecord
100
AcDbLayerTableRecord
  2
KOTY
 70
     0
 62
     7
  6
Continuous
370
    -3
390
F
  0
LAYER
  5
7B
330
2
100
AcDbSymbolTableRecord
100
AcDbLayerTableRecord
  2
SILNA
 70
     0
 62
   179
  6
Continuous
370
    -3
390
F
  0
LAYER
  5
7C
330
2
100
AcDbSymbolTableRecord
100
AcDbLayerTableRecord
  2
0_18_1
 70
     0
 62
   179
  6
Continuous
370
    -3
390
F
  0
LAYER
  5
7D
330
2
100
AcDbSymbolTableRecord
100
AcDbLayerTableRecord
  2
0_35_1
 70
     0
 62
   179
  6
Continuous
370
    35
390
F
  0
LAYER
  5
7E
330
2
100
AcDbSymbolTableRecord
100
AcDbLayerTableRecord
  2
0_5_1
 70
     0
 62
   179
  6
Continuous
370
    50
390
F
  0
ENDTAB
  0
TABLE
  2
STYLE
  5
3
330
0
100
AcDbSymbolTable
 70
     1
  0
STYLE
  5
11
330
3
100
AcDbSymbolTableRecord
100
AcDbTextStyleTableRecord
  2
Standard
 70
     0
 40
0.0
 41
1.0
 50
0.0
 71
     0
 42
2.0
  3
txt
  4

  0
ENDTAB
  0
TABLE
  2
VIEW
  5
6
330
0
100
AcDbSymbolTable
 70
     0
  0
ENDTAB
  0
TABLE
  2
UCS
  5
7
330
0
100
AcDbSymbolTable
 70
     0
  0
ENDTAB
  0
TABLE
  2
APPID
  5
9
330
0
100
AcDbSymbolTable
 70
     1
  0
APPID
  5
12
330
9
100
AcDbSymbolTableRecord
100
AcDbRegAppTableRecord
  2
ACAD
 70
     0
  0
ENDTAB
  0
TABLE
  2
DIMSTYLE
  5
A
330
0
100
AcDbSymbolTable
 70
     1
100
AcDbDimStyleTable
  0
DIMSTYLE
105
27
330
A
100
AcDbSymbolTableRecord
100
AcDbDimStyleTableRecord
  2
ISO-25
 70
     0
 41
2.5
 42
0.625
 43
3.75
 44
1.25
 73
     0
 74
     0
 77
     1
 78
     8
140
2.5
141
2.5
143
0.0393700787
147
0.625
171
     3
172
     1
178
     0
271
     2
272
     2
274
     3
278
    44
283
     0
284
     8
340
11
  0
ENDTAB
  0
TABLE
  2
BLOCK_RECORD
  5
1
330
0
100
AcDbSymbolTable
 70
     1
  0
BLOCK_RECORD
  5
1F
330
1
100
AcDbSymbolTableRecord
100
AcDbBlockTableRecord
  2
*Model_Space
340
22
  0
BLOCK_RECORD
  5
1B
330
1
100
AcDbSymbolTableRecord
100
AcDbBlockTableRecord
  2
*Paper_Space
340
1E
  0
BLOCK_RECORD
  5
23
330
1
100
AcDbSymbolTableRecord
100
AcDbBlockTableRecord
  2
*Paper_Space0
340
26
  0
ENDTAB
  0
ENDSEC
  0
SECTION
  2
BLOCKS
  0
BLOCK
  5
20
330
1F
100
AcDbEntity
  8
0
100
AcDbBlockBegin
  2
*Model_Space
 70
     0
 10
0.0
 20
0.0
 30
0.0
  3
*Model_Space
  1

  0
ENDBLK
  5
21
330
1F
100
AcDbEntity
  8
0
100
AcDbBlockEnd
  0
BLOCK
  5
1C
330
1B
100
AcDbEntity
 67
     1
  8
0
100
AcDbBlockBegin
  2
*Paper_Space
 70
     0
 10
0.0
 20
0.0
 30
0.0
  3
*Paper_Space
  1

  0
ENDBLK
  5
1D
330
1B
100
AcDbEntity
 67
     1
  8
0
100
AcDbBlockEnd
  0
BLOCK
  5
24
330
23
100
AcDbEntity
  8
0
100
AcDbBlockBegin
  2
*Paper_Space0
 70
     0
 10
0.0
 20
0.0
 30
0.0
  3
*Paper_Space0
  1

  0
ENDBLK
  5
25
330
23
100
AcDbEntity
  8
0
100
AcDbBlockEnd
  0
ENDSEC
  0
SECTION
  2
ENTITIES
  0
LINE
  5
7F
330
1F
100
AcDbEntity
  8
0
  6
Continuous
 62
     7
370
    25
100
AcDbLine
 10
7353.5961104968
 20
6166.9124619412
 30
0.0
 11
7353.5961104968
 21
6162.9124619412
 31
0.0
  0
LINE
  5
80
330
1F
100
AcDbEntity
  8
0
  6
Continuous
 62
     7
370
    25
100
AcDbLine
 10
7363.5961104968
 20
6162.9124619412
 30
0.0
 11
7363.5961104968
 21
6166.9124619412
 31
0.0
  0
LINE
  5
81
330
1F
100
AcDbEntity
  8
0
  6
Continuous
 62
     7
370
    25
100
AcDbLine
 10
5497.5961104968
 20
6166.9124619412
 30
0.0
 11
5497.5961104968
 21
6162.9124619412
 31
0.0
  0
LINE
  5
82
330
1F
100
AcDbEntity
  8
0
  6
Continuous
 62
     7
370
    25
100
AcDbLine
 10
5507.5961104968
 20
6162.9124619412
 30
0.0
 11
5507.5961104968
 21
6166.9124619412
 31
0.0
  0
LINE
  5
83
330
1F
100
AcDbEntity
  8
0
  6
Continuous
 62
     7
370
    25
100
AcDbLine
 10
7380.5961104968
 20
7424.3956881968
 30
0.0
 11
7378.5961104968
 21
7424.3956881968
 31
0.0
  0
LINE
  5
84
330
1F
100
AcDbEntity
  8
0
  6
Continuous
 62
     7
370
    25
100
AcDbLine
 10
5482.5961104968
 20
7424.3956881968
 30
0.0
 11
5480.5961104968
 21
7424.3956881968
 31
0.0
  0
LINE
  5
85
330
1F
100
AcDbEntity
  8
0
  6
Continuous
 62
     7
370
    25
100
AcDbLine
 10
7378.5961104968
 20
7424.3956881968
 30
0.0
 11
5482.5961104968
 21
7424.3956881968
 31
0.0
  0
LINE
  5
86
330
1F
100
AcDbEntity
  8
0
  6
Continuous
 62
     7
370
    25
100
AcDbLine
 10
5617.0961104968
 20
6754.9124619412
 30
0.0
 11
5617.0961104968
 21
6720.1140334026
 31
0.0
  0
LINE
  5
87
330
1F
100
AcDbEntity
  8
0
  6
Continuous
 62
     7
370
    25
100
AcDbLine
 10
5617.0961104968
 20
6706.1140334026
 30
0.0
 11
5617.0961104968
 21
6703.6140334026
 31
0.0
  0
LINE
  5
88
330
1F
100
AcDbEntity
  8
0
  6
Continuous
 62
     7
370
    25
100
AcDbLine
 10
5649.0961104968
 20
6703.6140334026
 30
0.0
 11
5649.0961104968
 21
6706.1140334026
 31
0.0
  0
LINE
  5
89
330
1F
100
AcDbEntity
  8
0
  6
Continuous
 62
     7
370
    25
100
AcDbLine
 10
5649.0961104968
 20
6720.1140334026
 30
0.0
 11
5649.0961104968
 21
6754.9124619412
 31
0.0
  0
LINE
  5
8A
330
1F
100
AcDbEntity
  8
0
  6
Continuous
 62
     7
370
    25
100
AcDbLine
 10
5599.0961104968
 20
6643.6140334026
 30
0.0
 11
5605.9898962167
 21
6576.3083575412
 31
0.0
  0
LINE
  5
8B
330
1F
100
AcDbEntity
  8
0
  6
Continuous
 62
     7
370
    25
100
AcDbLine
 10
5660.202324777
 20
6576.3083575412
 30
0.0
 11
5667.0961104968
 21
6643.6140334026
 31
0.0
  0
LINE
  5
8C
330
1F
100
AcDbEntity
  8
0
  6
Continuous
 62
     7
370
    25
100
AcDbLine
 10
5667.0961104968
 20
6643.6140334026
 30
0.0
 11
5660.405552252
 21
6700.9616755012
 31
0.0
  0
LINE
  5
8D
330
1F
100
AcDbEntity
  8
0
  6
Continuous
 62
     7
370
    25
100
AcDbLine
 10
5605.7866687417
 20
6700.9616755012
 30
0.0
 11
5599.0961104968
 21
6643.6140334026
 31
0.0
  0
ARC
  5
8E
330
1F
100
AcDbEntity
  8
0
  6
Continuous
 62
     7
370
    25
100
AcDbCircle
 10
5608.7664581589
 20
6700.6140334026
 30
0.0
 40
3.0
100
AcDbArc
 50
90.0
 51
173.345574954
  0
ARC
  5
8F
330
1F
100
AcDbEntity
  8
0
  6
Continuous
 62
     7
370
    25
100
AcDbCircle
 10
5657.4257628347
 20
6700.6140334026
 30
0.0
 40
3.0
100
AcDbArc
 50
6.654425046
 51
90.0
  0
ARC
  5
90
330
1F
100
AcDbEntity
  8
0
  6
Continuous
 62
     7
370
    25
100
AcDbCircle
 10
5608.9742826306
 20
6576.6140334026
 30
0.0
 40
3.000000000000909
100
AcDbArc
 50
185.8481280262
 51
270.0
  0
ARC
  5
91
330
1F
100
AcDbEntity
  8
0
  6
Continuous
 62
     7
370
    25
100
AcDbCircle
 10
5657.217938363
 20
6576.6140334026
 30
0.0
 40
3.000000000000909
100
AcDbArc
 50
270.0
 51
354.1518719738
  0
LINE
  5
92
330
1F
100
AcDbEntity
  8
0
  6
Continuous
 62
     7
370
    25
100
AcDbLine
 10
5658.0961104968
 20
6706.1140334026
 30
0.0
 11
5656.0961104968
 21
6710.1140334026
 31
0.0
  0
LINE
  5
93
330
1F
100
AcDbEntity
  8
0
  6
Continuous
 62
     7
370
    25
100
AcDbLine
 10
5610.0961104968
 20
6710.1140334026
 30
0.0
 11
5608.0961104968
 21
6706.1140334026
 31
0.0
  0
ARC
  5
94
330
1F
100
AcDbEntity
  8
0
  6
Continuous
 62
     7
370
    25
100
AcDbCircle
 10
5613.0961104968
 20
6717.1140334026
 30
0.0
 40
3.0
100
AcDbArc
 50
90.0
 51
180.0
  0
ARC
  5
95
330
1F
100
AcDbEntity
  8
0
  6
Continuous
 62
     7
370
    25
100
AcDbCircle
 10
5653.0961104968
 20
6717.1140334026
 30
0.0
 40
3.0
100
AcDbArc
 50
0.0
 51
90.0
  0
LINE
  5
96
330
1F
100
AcDbEntity
  8
0
  6
Continuous
 62
     7
370
    25
100
AcDbLine
 10
5610.0961104968
 20
6717.1140334026
 30
0.0
 11
5610.0961104968
 21
6710.1140334026
 31
0.0
  0
LINE
  5
97
330
1F
100
AcDbEntity
  8
0
  6
Continuous
 62
     7
370
    25
100
AcDbLine
 10
5656.0961104968
 20
6710.1140334026
 30
0.0
 11
5656.0961104968
 21
6717.1140334026
 31
0.0
  0
ARC
  5
98
330
1F
100
AcDbEntity
  8
0
  6
Continuous
 62
     7
370
    25
100
AcDbCircle
 10
5602.5961104968
 20
7385.3781613344
 30
0.0
 40
37.0000000000005
100
AcDbArc
 50
75.2574286589
 51
104.7425713411
  0
LINE
  5
99
330
1F
100
AcDbEntity
  8
0
  6
Continuous
 62
     7
370
    25
100
AcDbLine
 10
5829.0054529941
 20
7301.0031194438
 30
0.0
 11
5829.0961104968
 21
7300.9124619411
 31
0.0
  0
LINE
  5
9A
330
1F
100
AcDbEntity
  8
0
  6
Continuous
 62
     7
370
    25
100
AcDbLine
 10
5832.0961104968
 20
7300.9124619411
 30
0.0
 11
5832.1867679995
 21
7301.0031194438
 31
0.0
  0
LINE
  5
9B
330
1F
100
AcDbEntity
  8
0
  6
Continuous
 62
     7
370
    25
100
AcDbLine
 10
6429.0054529941
 20
7301.0031194438
 30
0.0
 11
6429.0961104968
 21
7300.9124619411
 31
0.0
  0
LINE
  5
9C
330
1F
100
AcDbEntity
  8
0
  6
Continuous
 62
     7
370
    25
100
AcDbLine
 10
6432.0961104968
 20
7300.9124619411
 30
0.0
 11
6432.1867679995
 21
7301.0031194438
 31
0.0
  0
LINE
  5
9D
330
1F
100
AcDbEntity
  8
0
  6
Continuous
 62
     7
370
    25
100
AcDbLine
 10
7029.0054529941
 20
7301.0031194438
 30
0.0
 11
7029.0961104968
 21
7300.9124619411
 31
0.0
  0
LINE
  5
9E
330
1F
100
AcDbEntity
  8
0
  6
Continuous
 62
     7
370
    25
100
AcDbLine
 10
7032.0961104968
 20
7300.9124619411
 30
0.0
 11
7032.1867679995
 21
7301.0031194438
 31
0.0
  0
LINE
  5
9F
330
1F
100
AcDbEntity
  8
0
  6
Continuous
 62
     7
370
    25
100
AcDbLine
 10
5821.3461104968
 20
7306.753282596
 30
0.0
 11
5821.3461104968
 21
7306.1495789546
 31
0.0
  0
LINE
  5
A0
330
1F
100
AcDbEntity
  8
0
  6
Continuous
 62
     7
370
    25
100
AcDbLine
 10
5839.8461104968
 20
7306.1495789546
 30
0.0
 11
5839.8461104968
 21
7306.753282596
 31
0.0
  0
LINE
  5
A1
330
1F
100
AcDbEntity
  8
0
  6
Continuous
 62
     7
370
    25
100
AcDbLine
 10
5838.0961104968
 20
7307.1155047809
 30
0.0
 11
5838.0961104968
 21
7307.3160606273
 31
0.0
  0
LINE
  5
A2
330
1F
100
AcDbEntity
  8
0
  6
Continuous
 62
     7
370
    25
100
AcDbLine
 10
5823.0961104968
 20
7307.8121891685
 30
0.0
 11
5823.0961104968
 21
7307.1155047809
 31
0.0
  0
LINE
  5
A3
330
1F
100
AcDbEntity
  8
0
  6
Continuous
 62
     7
370
    25
100
AcDbLine
 10
6421.3461104968
 20
7306.753282596
 30
0.0
 11
6421.3461104968
 21
7306.1495789546
 31
0.0
  0
LINE
  5
A4
330
1F
100
AcDbEntity
  8
0
  6
Continuous
 62
     7
370
    25
100
AcDbLine
 10
6439.8461104968
 20
7306.1495789546
 30
0.0
 11
6439.8461104968
 21
7306.753282596
 31
0.0
  0
LINE
  5
A5
330
1F
100
AcDbEntity
  8
0
  6
Continuous
 62
     7
370
    25
100
AcDbLine
 10
6438.0961104968
 20
7307.1155047809
 30
0.0
 11
6438.0961104968
 21
7307.3160606273
 31
0.0
  0
LINE
  5
A6
330
1F
100
AcDbEntity
  8
0
  6
Continuous
 62
     7
370
    25
100
AcDbLine
 10
6423.0961104968
 20
7307.8121891685
 30
0.0
 11
6423.0961104968
 21
7307.1155047809
 31
0.0
  0
LINE
  5
A7
330
1F
100
AcDbEntity
  8
0
  6
Continuous
 62
     7
370
    25
100
AcDbLine
 10
7021.3461104968
 20
7306.753282596
 30
0.0
 11
7021.3461104968
 21
7306.1495789546
 31
0.0
  0
LINE
  5
A8
330
1F
100
AcDbEntity
  8
0
  6
Continuous
 62
     7
370
    25
100
AcDbLine
 10
7039.8461104968
 20
7306.1495789546
 30
0.0
 11
7039.8461104968
 21
7306.753282596
 31
0.0
  0
LINE
  5
A9
330
1F
100
AcDbEntity
  8
0
  6
Continuous
 62
     7
370
    25
100
AcDbLine
 10
7038.0961104968
 20
7307.1155047809
 30
0.0
 11
7038.0961104968
 21
7307.3160606273
 31
0.0
  0
LINE
  5
AA
330
1F
100
AcDbEntity
  8
0
  6
Continuous
 62
     7
370
    25
100
AcDbLine
 10
7023.0961104968
 20
7307.8121891685
 30
0.0
 11
7023.0961104968
 21
7307.1155047809
 31
0.0
  0
LINE
  5
AB
330
1F
100
AcDbEntity
  8
0
  6
Continuous
 62
     7
370
    25
100
AcDbLine
 10
6432.2461104968
 20
7301.0075941543
 30
0.0
 11
6432.2461104968
 21
7301.0100340956
 31
0.0
  0
LINE
  5
AC
330
1F
100
AcDbEntity
  8
0
  6
Continuous
 62
     7
370
    25
100
AcDbLine
 10
7032.2461104968
 20
7301.0075941543
 30
0.0
 11
7032.2461104968
 21
7301.0100340956
 31
0.0
  0
LINE
  5
AD
330
1F
100
AcDbEntity
  8
0
  6
Continuous
 62
     7
370
    25
100
AcDbLine
 10
5832.2461104968
 20
7301.0075941543
 30
0.0
 11
5832.2461104968
 21
7301.0100340956
 31
0.0
  0
LINE
  5
AE
330
1F
100
AcDbEntity
  8
0
  6
Continuous
 62
     7
370
    25
100
AcDbLine
 10
5522.5961104968
 20
6349.9124619412
 30
0.0
 11
7338.5961104968
 21
6349.9124619412
 31
0.0
  0
LINE
  5
AF
330
1F
100
AcDbEntity
  8
0
  6
Continuous
 62
     7
370
    25
100
AcDbLine
 10
5522.5961104968
 20
6347.9124619412
 30
0.0
 11
7338.5961104968
 21
6347.9124619412
 31
0.0
  0
LINE
  5
B0
330
1F
100
AcDbEntity
  8
0
  6
Continuous
 62
     7
370
    25
100
AcDbLine
 10
5522.5961104968
 20
6311.9124619412
 30
0.0
 11
7338.5961104968
 21
6311.9124619412
 31
0.0
  0
LINE
  5
B1
330
1F
100
AcDbEntity
  8
0
  6
Continuous
 62
     7
370
    25
100
AcDbLine
 10
5522.5961104968
 20
6309.9124619412
 30
0.0
 11
7338.5961104968
 21
6309.9124619412
 31
0.0
  0
LINE
  5
B2
330
1F
100
AcDbEntity
  8
0
  6
Continuous
 62
     7
370
    25
100
AcDbLine
 10
7376.5961104968
 20
6172.9124619412
 30
0.0
 11
7340.5961104968
 21
6172.9124619412
 31
0.0
  0
LINE
  5
B3
330
1F
100
AcDbEntity
  8
0
  6
Continuous
 62
     7
370
    25
100
AcDbLine
 10
7340.5961104968
 20
6172.9124619412
 30
0.0
 11
7340.5961104968
 21
6174.9124619412
 31
0.0
  0
LINE
  5
B4
330
1F
100
AcDbEntity
  8
0
  6
Continuous
 62
     7
370
    25
100
AcDbLine
 10
7340.5961104968
 20
6174.9124619412
 30
0.0
 11
7376.5961104968
 21
6174.9124619412
 31
0.0
  0
LINE
  5
B5
330
1F
100
AcDbEntity
  8
0
  6
Continuous
 62
     7
370
    25
100
AcDbLine
 10
7376.5961104968
 20
6172.9124619412
 30
0.0
 11
7376.5961104968
 21
6174.9124619412
 31
0.0
  0
LINE
  5
B6
330
1F
100
AcDbEntity
  8
0
  6
Continuous
 62
     7
370
    25
100
AcDbLine
 10
7344.0961104968
 20
6166.9124619412
 30
0.0
 11
7373.0961104968
 21
6166.9124619412
 31
0.0
  0
ELLIPSE
  5
B7
330
1F
100
AcDbEntity
  8
0
  6
Continuous
 62
     7
370
    25
100
AcDbEllipse
 10
7344.0961104968
 20
6172.9124619412
 30
0.0
 11
0.0
 21
5.999999999999091
 31
0.0
210
0.0
220
0.0
230
1.0
 40
0.5833333333
 41
1.570796326794897
 42
3.141592653589793
  0
ELLIPSE
  5
B8
330
1F
100
AcDbEntity
  8
0
  6
Continuous
 62
     7
370
    25
100
AcDbEllipse
 10
7373.0961104968
 20
6172.9124619412
 30
0.0
 11
0.0
 21
5.999999999999091
 31
0.0
210
0.0
220
0.0
230
1.0
 40
0.5833333333
 41
3.141592653589793
 42
4.712388980384698
  0
ARC
  5
B9
330
1F
100
AcDbEntity
  8
0
  6
Continuous
 62
     7
370
    25
100
AcDbCircle
 10
7344.0961104968
 20
6172.9124619412
 30
0.0
 40
6.000000000000909
100
AcDbArc
 50
180.0
 51
270.0
  0
LINE
  5
BA
330
1F
100
AcDbEntity
  8
0
  6
Continuous
 62
     7
370
    25
100
AcDbLine
 10
7340.5961104968
 20
6172.9124619412
 30
0.0
 11
7338.0961104968
 21
6172.9124619412
 31
0.0
  0
LINE
  5
BB
330
1F
100
AcDbEntity
  8
0
  6
Continuous
 62
     7
370
    25
100
AcDbLine
 10
7338.0961104968
 20
6172.9124619412
 30
0.0
 11
7338.0961104968
 21
6174.9124619412
 31
0.0
  0
LINE
  5
BC
330
1F
100
AcDbEntity
  8
0
  6
Continuous
 62
     7
370
    25
100
AcDbLine
 10
7338.0961104968
 20
6174.9124619412
 30
0.0
 11
7340.5961104968
 21
6174.9124619412
 31
0.0
  0
ARC
  5
BD
330
1F
100
AcDbEntity
  8
0
  6
Continuous
 62
     7
370
    25
100
AcDbCircle
 10
7373.0961104968
 20
6172.9124619412
 30
0.0
 40
6.000000000000909
100
AcDbArc
 50
270.0
 51
0.0
  0
LINE
  5
BE
330
1F
100
AcDbEntity
  8
0
  6
Continuous
 62
     7
370
    25
100
AcDbLine
 10
7379.0961104968
 20
6172.9124619412
 30
0.0
 11
7376.5961104968
 21
6172.9124619412
 31
0.0
  0
LINE
  5
BF
330
1F
100
AcDbEntity
  8
0
  6
Continuous
 62
     7
370
    25
100
AcDbLine
 10
7379.0961104968
 20
6172.9124619412
 30
0.0
 11
7379.0961104968
 21
6174.9124619412
 31
0.0
  0
LINE
  5
C0
330
1F
100
AcDbEntity
  8
0
  6
Continuous
 62
     7
370
    25
100
AcDbLine
 10
7376.5961104968
 20
6174.9124619412
 30
0.0
 11
7379.0961104968
 21
6174.9124619412
 31
0.0
  0
LINE
  5
C1
330
1F
100
AcDbEntity
  8
0
  6
Continuous
 62
     7
370
    25
100
AcDbLine
 10
7367.2563645347
 20
6154.9124619412
 30
0.0
 11
7367.2563645347
 21
6162.9124619412
 31
0.0
  0
LINE
  5
C2
330
1F
100
AcDbEntity
  8
0
  6
Continuous
 62
     7
370
    25
100
AcDbLine
 10
7349.935856459
 20
6154.9124619412
 30
0.0
 11
7367.2563645347
 21
6154.9124619412
 31
0.0
  0
LINE
  5
C3
330
1F
100
AcDbEntity
  8
0
  6
Continuous
 62
     7
370
    25
100
AcDbLine
 10
7349.935856459
 20
6154.9124619412
 30
0.0
 11
7349.935856459
 21
6162.9124619412
 31
0.0
  0
LINE
  5
C4
330
1F
100
AcDbEntity
  8
0
  6
Continuous
 62
     7
370
    25
100
AcDbLine
 10
7349.935856459
 20
6162.9124619412
 30
0.0
 11
7367.2563645347
 21
6162.9124619412
 31
0.0
  0
LINE
  5
C5
330
1F
100
AcDbEntity
  8
0
  6
Continuous
 62
     7
370
    25
100
AcDbLine
 10
7375.9166185725
 20
6154.9124619412
 30
0.0
 11
7375.9166185725
 21
6162.9124619412
 31
0.0
  0
LINE
  5
C6
330
1F
100
AcDbEntity
  8
0
  6
Continuous
 62
     7
370
    25
100
AcDbLine
 10
7367.2563645347
 20
6154.9124619412
 30
0.0
 11
7375.9166185725
 21
6154.9124619412
 31
0.0
  0
LINE
  5
C7
330
1F
100
AcDbEntity
  8
0
  6
Continuous
 62
     7
370
    25
100
AcDbLine
 10
7367.2563645347
 20
6162.9124619412
 30
0.0
 11
7375.9166185725
 21
6162.9124619412
 31
0.0
  0
LINE
  5
C8
330
1F
100
AcDbEntity
  8
0
  6
Continuous
 62
     7
370
    25
100
AcDbLine
 10
7341.2756024211
 20
6154.9124619412
 30
0.0
 11
7341.2756024211
 21
6162.9124619412
 31
0.0
  0
LINE
  5
C9
330
1F
100
AcDbEntity
  8
0
  6
Continuous
 62
     7
370
    25
100
AcDbLine
 10
7341.2756024211
 20
6162.9124619412
 30
0.0
 11
7349.935856459
 21
6162.9124619412
 31
0.0
  0
LINE
  5
CA
330
1F
100
AcDbEntity
  8
0
  6
Continuous
 62
     7
370
    25
100
AcDbLine
 10
7341.2756024211
 20
6154.9124619412
 30
0.0
 11
7349.935856459
 21
6154.9124619412
 31
0.0
  0
LINE
  5
CB
330
1F
100
AcDbEntity
  8
0
  6
Continuous
 62
     7
370
    25
100
AcDbLine
 10
7338.5961104968
 20
6174.9124619412
 30
0.0
 11
7338.5961104968
 21
6754.9124619412
 31
0.0
  0
LINE
  5
CC
330
1F
100
AcDbEntity
  8
0
  6
Continuous
 62
     7
370
    25
100
AcDbLine
 10
7378.5961104968
 20
6174.9124619412
 30
0.0
 11
7378.5961104968
 21
6754.9124619412
 31
0.0
  0
ARC
  5
CD
330
1F
100
AcDbEntity
  8
0
  6
Continuous
 62
     7
370
    25
100
AcDbCircle
 10
5517.0961104968
 20
6172.9124619412
 30
0.0
 40
6.000000000000909
100
AcDbArc
 50
270.0
 51
0.0
  0
ELLIPSE
  5
CE
330
1F
100
AcDbEntity
  8
0
  6
Continuous
 62
     7
370
    25
100
AcDbEllipse
 10
5517.0961104968
 20
6172.9124619412
 30
0.0
 11
0.0
 21
5.999999999999091
 31
0.0
210
0.0
220
0.0
230
1.0
 40
0.5833333333
 41
3.141592653589793
 42
4.712388980384698
  0
LINE
  5
CF
330
1F
100
AcDbEntity
  8
0
  6
Continuous
 62
     7
370
    25
100
AcDbLine
 10
5520.5961104968
 20
6172.9124619412
 30
0.0
 11
5523.0961104968
 21
6172.9124619412
 31
0.0
  0
LINE
  5
D0
330
1F
100
AcDbEntity
  8
0
  6
Continuous
 62
     7
370
    25
100
AcDbLine
 10
5484.5961104968
 20
6172.9124619412
 30
0.0
 11
5520.5961104968
 21
6172.9124619412
 31
0.0
  0
LINE
  5
D1
330
1F
100
AcDbEntity
  8
0
  6
Continuous
 62
     7
370
    25
100
AcDbLine
 10
5517.0961104968
 20
6166.9124619412
 30
0.0
 11
5488.0961104968
 21
6166.9124619412
 31
0.0
  0
ELLIPSE
  5
D2
330
1F
100
AcDbEntity
  8
0
  6
Continuous
 62
     7
370
    25
100
AcDbEllipse
 10
5488.0961104968
 20
6172.9124619412
 30
0.0
 11
0.0
 21
5.999999999999091
 31
0.0
210
0.0
220
0.0
230
1.0
 40
0.5833333333
 41
1.570796326794897
 42
3.141592653589793
  0
LINE
  5
D3
330
1F
100
AcDbEntity
  8
0
  6
Continuous
 62
     7
370
    25
100
AcDbLine
 10
5523.0961104968
 20
6174.9124619412
 30
0.0
 11
5520.5961104968
 21
6174.9124619412
 31
0.0
  0
LINE
  5
D4
330
1F
100
AcDbEntity
  8
0
  6
Continuous
 62
     7
370
    25
100
AcDbLine
 10
5523.0961104968
 20
6172.9124619412
 30
0.0
 11
5523.0961104968
 21
6174.9124619412
 31
0.0
  0
LINE
  5
D5
330
1F
100
AcDbEntity
  8
0
  6
Continuous
 62
     7
370
    25
100
AcDbLine
 10
5520.5961104968
 20
6172.9124619412
 30
0.0
 11
5520.5961104968
 21
6174.9124619412
 31
0.0
  0
LINE
  5
D6
330
1F
100
AcDbEntity
  8
0
  6
Continuous
 62
     7
370
    25
100
AcDbLine
 10
5520.5961104968
 20
6174.9124619412
 30
0.0
 11
5484.5961104968
 21
6174.9124619412
 31
0.0
  0
LINE
  5
D7
330
1F
100
AcDbEntity
  8
0
  6
Continuous
 62
     7
370
    25
100
AcDbLine
 10
5484.5961104968
 20
6172.9124619412
 30
0.0
 11
5484.5961104968
 21
6174.9124619412
 31
0.0
  0
ARC
  5
D8
330
1F
100
AcDbEntity
  8
0
  6
Continuous
 62
     7
370
    25
100
AcDbCircle
 10
5488.0961104968
 20
6172.9124619412
 30
0.0
 40
6.000000000000909
100
AcDbArc
 50
180.0
 51
270.0
  0
LINE
  5
D9
330
1F
100
AcDbEntity
  8
0
  6
Continuous
 62
     7
370
    25
100
AcDbLine
 10
5482.0961104968
 20
6172.9124619412
 30
0.0
 11
5484.5961104968
 21
6172.9124619412
 31
0.0
  0
LINE
  5
DA
330
1F
100
AcDbEntity
  8
0
  6
Continuous
 62
     7
370
    25
100
AcDbLine
 10
5482.0961104968
 20
6172.9124619412
 30
0.0
 11
5482.0961104968
 21
6174.9124619412
 31
0.0
  0
LINE
  5
DB
330
1F
100
AcDbEntity
  8
0
  6
Continuous
 62
     7
370
    25
100
AcDbLine
 10
5484.5961104968
 20
6174.9124619412
 30
0.0
 11
5482.0961104968
 21
6174.9124619412
 31
0.0
  0
LINE
  5
DC
330
1F
100
AcDbEntity
  8
0
  6
Continuous
 62
     7
370
    25
100
AcDbLine
 10
5493.935856459
 20
6154.9124619412
 30
0.0
 11
5493.935856459
 21
6162.9124619412
 31
0.0
  0
LINE
  5
DD
330
1F
100
AcDbEntity
  8
0
  6
Continuous
 62
     7
370
    25
100
AcDbLine
 10
5493.935856459
 20
6154.9124619412
 30
0.0
 11
5485.2756024212
 21
6154.9124619412
 31
0.0
  0
LINE
  5
DE
330
1F
100
AcDbEntity
  8
0
  6
Continuous
 62
     7
370
    25
100
AcDbLine
 10
5485.2756024212
 20
6154.9124619412
 30
0.0
 11
5485.2756024212
 21
6162.9124619412
 31
0.0
  0
LINE
  5
DF
330
1F
100
AcDbEntity
  8
0
  6
Continuous
 62
     7
370
    25
100
AcDbLine
 10
5493.935856459
 20
6162.9124619412
 30
0.0
 11
5485.2756024212
 21
6162.9124619412
 31
0.0
  0
LINE
  5
E0
330
1F
100
AcDbEntity
  8
0
  6
Continuous
 62
     7
370
    25
100
AcDbLine
 10
5511.2563645347
 20
6154.9124619412
 30
0.0
 11
5511.2563645347
 21
6162.9124619412
 31
0.0
  0
LINE
  5
E1
330
1F
100
AcDbEntity
  8
0
  6
Continuous
 62
     7
370
    25
100
AcDbLine
 10
5511.2563645347
 20
6154.9124619412
 30
0.0
 11
5493.935856459
 21
6154.9124619412
 31
0.0
  0
LINE
  5
E2
330
1F
100
AcDbEntity
  8
0
  6
Continuous
 62
     7
370
    25
100
AcDbLine
 10
5511.2563645347
 20
6162.9124619412
 30
0.0
 11
5493.935856459
 21
6162.9124619412
 31
0.0
  0
LINE
  5
E3
330
1F
100
AcDbEntity
  8
0
  6
Continuous
 62
     7
370
    25
100
AcDbLine
 10
5519.9166185725
 20
6154.9124619412
 30
0.0
 11
5519.9166185725
 21
6162.9124619412
 31
0.0
  0
LINE
  5
E4
330
1F
100
AcDbEntity
  8
0
  6
Continuous
 62
     7
370
    25
100
AcDbLine
 10
5519.9166185725
 20
6162.9124619412
 30
0.0
 11
5511.2563645347
 21
6162.9124619412
 31
0.0
  0
LINE
  5
E5
330
1F
100
AcDbEntity
  8
0
  6
Continuous
 62
     7
370
    25
100
AcDbLine
 10
5519.9166185725
 20
6154.9124619412
 30
0.0
 11
5511.2563645347
 21
6154.9124619412
 31
0.0
  0
LINE
  5
E6
330
1F
100
AcDbEntity
  8
0
  6
Continuous
 62
     7
370
    25
100
AcDbLine
 10
5522.5961104968
 20
6174.9124619412
 30
0.0
 11
5522.5961104968
 21
6754.9124619412
 31
0.0
  0
LINE
  5
E7
330
1F
100
AcDbEntity
  8
0
  6
Continuous
 62
     7
370
    25
100
AcDbLine
 10
5482.5961104968
 20
6174.9124619412
 30
0.0
 11
5482.5961104968
 21
6754.9124619412
 31
0.0
  0
LINE
  5
E8
330
1F
100
AcDbEntity
  8
0
  6
Continuous
 62
     7
370
    25
100
AcDbLine
 10
7333.9461104968
 20
6978.2524619412
 30
0.0
 11
5527.2461104968
 21
6978.2524619412
 31
0.0
  0
LINE
  5
E9
330
1F
100
AcDbEntity
  8
0
  6
Continuous
 62
     7
370
    25
100
AcDbLine
 10
5527.2461104968
 20
6978.2524619412
 30
0.0
 11
5527.2461104968
 21
6979.9024619412
 31
0.0
  0
LINE
  5
EA
330
1F
100
AcDbEntity
  8
0
  6
Continuous
 62
     7
370
    25
100
AcDbLine
 10
7333.9461104968
 20
6979.9024619412
 30
0.0
 11
5527.2461104968
 21
6979.9024619412
 31
0.0
  0
LINE
  5
EB
330
1F
100
AcDbEntity
  8
0
  6
Continuous
 62
     7
370
    25
100
AcDbLine
 10
7333.9461104968
 20
6978.2524619412
 30
0.0
 11
7333.9461104968
 21
6979.9024619412
 31
0.0
  0
LINE
  5
EC
330
1F
100
AcDbEntity
  8
0
  6
Continuous
 62
     7
370
    25
100
AcDbLine
 10
7333.9461104968
 20
6756.5624619412
 30
0.0
 11
5527.2461104968
 21
6756.5624619412
 31
0.0
  0
LINE
  5
ED
330
1F
100
AcDbEntity
  8
0
  6
Continuous
 62
     7
370
    25
100
AcDbLine
 10
5527.2461104968
 20
6756.5624619412
 30
0.0
 11
5527.2461104968
 21
6978.2524619412
 31
0.0
  0
LINE
  5
EE
330
1F
100
AcDbEntity
  8
0
  6
Continuous
 62
     7
370
    25
100
AcDbLine
 10
7333.9461104968
 20
6756.5624619412
 30
0.0
 11
7333.9461104968
 21
6978.2524619412
 31
0.0
  0
LINE
  5
EF
330
1F
100
AcDbEntity
  8
0
  6
Continuous
 62
     7
370
    25
100
AcDbLine
 10
7335.5961104968
 20
6756.5624619412
 30
0.0
 11
7335.5961104968
 21
6978.2524619412
 31
0.0
  0
LINE
  5
F0
330
1F
100
AcDbEntity
  8
0
  6
Continuous
 62
     7
370
    25
100
AcDbLine
 10
7335.5961104968
 20
6756.5624619412
 30
0.0
 11
7333.9461104968
 21
6756.5624619412
 31
0.0
  0
LINE
  5
F1
330
1F
100
AcDbEntity
  8
0
  6
Continuous
 62
     7
370
    25
100
AcDbLine
 10
7333.9461104968
 20
6978.2524619412
 30
0.0
 11
7335.5961104968
 21
6978.2524619412
 31
0.0
  0
LINE
  5
F2
330
1F
100
AcDbEntity
  8
0
  6
Continuous
 62
     7
370
    25
100
AcDbLine
 10
7333.9461104968
 20
6754.9124619412
 30
0.0
 11
5527.2461104968
 21
6754.9124619412
 31
0.0
  0
LINE
  5
F3
330
1F
100
AcDbEntity
  8
0
  6
Continuous
 62
     7
370
    25
100
AcDbLine
 10
7333.9461104968
 20
6754.9124619412
 30
0.0
 11
7333.9461104968
 21
6756.5624619412
 31
0.0
  0
LINE
  5
F4
330
1F
100
AcDbEntity
  8
0
  6
Continuous
 62
     7
370
    25
100
AcDbLine
 10
5527.2461104968
 20
6754.9124619412
 30
0.0
 11
5527.2461104968
 21
6756.5624619412
 31
0.0
  0
LINE
  5
F5
330
1F
100
AcDbEntity
  8
0
  6
Continuous
 62
     7
370
    25
100
AcDbLine
 10
5525.5961104968
 20
6756.5624619412
 30
0.0
 11
5525.5961104968
 21
6978.2524619412
 31
0.0
  0
LINE
  5
F6
330
1F
100
AcDbEntity
  8
0
  6
Continuous
 62
     7
370
    25
100
AcDbLine
 10
5525.5961104968
 20
6978.2524619412
 30
0.0
 11
5527.2461104968
 21
6978.2524619412
 31
0.0
  0
LINE
  5
F7
330
1F
100
AcDbEntity
  8
0
  6
Continuous
 62
     7
370
    25
100
AcDbLine
 10
5527.2461104968
 20
6756.5624619412
 30
0.0
 11
5525.5961104968
 21
6756.5624619412
 31
0.0
  0
LINE
  5
F8
330
1F
100
AcDbEntity
  8
0
  6
Continuous
 62
     7
370
    25
100
AcDbLine
 10
7380.5961104968
 20
6754.9124619412
 30
0.0
 11
7380.5961104968
 21
6979.9024619412
 31
0.0
  0
LINE
  5
F9
330
1F
100
AcDbEntity
  8
0
  6
Continuous
 62
     7
370
    25
100
AcDbLine
 10
7377.4961104968
 20
6754.9124619412
 30
0.0
 11
7380.5961104968
 21
6754.9124619412
 31
0.0
  0
LINE
  5
FA
330
1F
100
AcDbEntity
  8
0
  6
Continuous
 62
     7
370
    25
100
AcDbLine
 10
7377.4961104968
 20
6754.9124619412
 30
0.0
 11
7377.4961104968
 21
6979.9024619412
 31
0.0
  0
LINE
  5
FB
330
1F
100
AcDbEntity
  8
0
  6
Continuous
 62
     7
370
    25
100
AcDbLine
 10
7380.5961104968
 20
6979.9024619412
 30
0.0
 11
7377.4961104968
 21
6979.9024619412
 31
0.0
  0
LINE
  5
FC
330
1F
100
AcDbEntity
  8
0
  6
Continuous
 62
     7
370
    25
100
AcDbLine
 10
7338.6961104968
 20
6754.9124619412
 30
0.0
 11
7377.4961104968
 21
6754.9124619412
 31
0.0
  0
LINE
  5
FD
330
1F
100
AcDbEntity
  8
0
  6
Continuous
 62
     7
370
    25
100
AcDbLine
 10
7338.6961104968
 20
6754.9124619412
 30
0.0
 11
7338.6961104968
 21
6979.9024619412
 31
0.0
  0
LINE
  5
FE
330
1F
100
AcDbEntity
  8
0
  6
Continuous
 62
     7
370
    25
100
AcDbLine
 10
7377.4961104968
 20
6979.9024619412
 30
0.0
 11
7338.6961104968
 21
6979.9024619412
 31
0.0
  0
LINE
  5
FF
330
1F
100
AcDbEntity
  8
0
  6
Continuous
 62
     7
370
    25
100
AcDbLine
 10
7335.5961104968
 20
6979.9024619412
 30
0.0
 11
7338.6961104968
 21
6979.9024619412
 31
0.0
  0
LINE
  5
100
330
1F
100
AcDbEntity
  8
0
  6
Continuous
 62
     7
370
    25
100
AcDbLine
 10
7338.6961104968
 20
6754.9124619412
 30
0.0
 11
7335.5961104968
 21
6754.9124619412
 31
0.0
  0
LINE
  5
101
330
1F
100
AcDbEntity
  8
0
  6
Continuous
 62
     7
370
    25
100
AcDbLine
 10
7335.5961104968
 20
6754.9124619412
 30
0.0
 11
7335.5961104968
 21
6756.5624619412
 31
0.0
  0
LINE
  5
102
330
1F
100
AcDbEntity
  8
0
  6
Continuous
 62
     7
370
    25
100
AcDbLine
 10
7335.5961104968
 20
6978.2524619412
 30
0.0
 11
7335.5961104968
 21
6979.9024619412
 31
0.0
  0
LINE
  5
103
330
1F
100
AcDbEntity
  8
0
  6
Continuous
 62
     7
370
    25
100
AcDbLine
 10
7380.5961104968
 20
7004.9124619412
 30
0.0
 11
7378.5961104968
 21
7004.9124619412
 31
0.0
  0
LINE
  5
104
330
1F
100
AcDbEntity
  8
0
  6
Continuous
 62
     7
370
    25
100
AcDbLine
 10
7380.5961104968
 20
7002.7124619412
 30
0.0
 11
7378.5961104968
 21
7002.7124619412
 31
0.0
  0
LINE
  5
105
330
1F
100
AcDbEntity
  8
0
  6
Continuous
 62
     7
370
    25
100
AcDbLine
 10
7380.5961104968
 20
7004.9124619412
 30
0.0
 11
7380.5961104968
 21
7002.7124619412
 31
0.0
  0
LINE
  5
106
330
1F
100
AcDbEntity
  8
0
  6
Continuous
 62
     7
370
    25
100
AcDbLine
 10
7378.5961104968
 20
7004.9124619412
 30
0.0
 11
7378.5961104968
 21
7002.7124619412
 31
0.0
  0
LINE
  5
107
330
1F
100
AcDbEntity
  8
0
  6
Continuous
 62
     7
370
    25
100
AcDbLine
 10
7380.5961104968
 20
6979.9124619412
 30
0.0
 11
7378.5961104968
 21
6979.9124619412
 31
0.0
  0
LINE
  5
108
330
1F
100
AcDbEntity
  8
0
  6
Continuous
 62
     7
370
    25
100
AcDbLine
 10
7380.5961104968
 20
7002.7124619412
 30
0.0
 11
7380.5961104968
 21
6979.9124619412
 31
0.0
  0
LINE
  5
109
330
1F
100
AcDbEntity
  8
0
  6
Continuous
 62
     7
370
    25
100
AcDbLine
 10
7378.5961104968
 20
7002.7124619412
 30
0.0
 11
7378.5961104968
 21
6979.9124619412
 31
0.0
  0
LINE
  5
10A
330
1F
100
AcDbEntity
  8
0
  6
Continuous
 62
     7
370
    25
100
AcDbLine
 10
7380.5961104968
 20
6979.9124619412
 30
0.0
 11
7380.5961104968
 21
6979.9024619412
 31
0.0
  0
LINE
  5
10B
330
1F
100
AcDbEntity
  8
0
  6
Continuous
 62
     7
370
    25
100
AcDbLine
 10
7378.5961104968
 20
6979.9124619412
 30
0.0
 11
7378.5961104968
 21
6979.9024619412
 31
0.0
  0
LINE
  5
10C
330
1F
100
AcDbEntity
  8
0
  6
Continuous
 62
     7
370
    25
100
AcDbLine
 10
7380.5961104968
 20
7414.6550337062
 30
0.0
 11
7378.5961104968
 21
7414.6550337062
 31
0.0
  0
LINE
  5
10D
330
1F
100
AcDbEntity
  8
0
  6
Continuous
 62
     7
370
    25
100
AcDbLine
 10
7380.5961104968
 20
7412.5031089846
 30
0.0
 11
7378.5961104968
 21
7412.5031089846
 31
0.0
  0
LINE
  5
10E
330
1F
100
AcDbEntity
  8
0
  6
Continuous
 62
     7
370
    25
100
AcDbLine
 10
7380.5961104968
 20
7414.6550337062
 30
0.0
 11
7380.5961104968
 21
7412.5031089846
 31
0.0
  0
LINE
  5
10F
330
1F
100
AcDbEntity
  8
0
  6
Continuous
 62
     7
370
    25
100
AcDbLine
 10
7378.5961104968
 20
7414.6550337062
 30
0.0
 11
7378.5961104968
 21
7412.5031089846
 31
0.0
  0
LINE
  5
110
330
1F
100
AcDbEntity
  8
0
  6
Continuous
 62
     7
370
    25
100
AcDbLine
 10
7380.5961104968
 20
7412.5031089846
 30
0.0
 11
7380.5961104968
 21
7004.9124619412
 31
0.0
  0
LINE
  5
111
330
1F
100
AcDbEntity
  8
0
  6
Continuous
 62
     7
370
    25
100
AcDbLine
 10
7378.5961104968
 20
7412.5031089846
 30
0.0
 11
7378.5961104968
 21
7004.9124619412
 31
0.0
  0
LINE
  5
112
330
1F
100
AcDbEntity
  8
0
  6
Continuous
 62
     7
370
    25
100
AcDbLine
 10
7380.5961104968
 20
7424.3476129184
 30
0.0
 11
7378.5961104968
 21
7424.3476129184
 31
0.0
  0
LINE
  5
113
330
1F
100
AcDbEntity
  8
0
  6
Continuous
 62
     7
370
    25
100
AcDbLine
 10
7380.5961104968
 20
7424.3476129184
 30
0.0
 11
7380.5961104968
 21
7414.6550337062
 31
0.0
  0
LINE
  5
114
330
1F
100
AcDbEntity
  8
0
  6
Continuous
 62
     7
370
    25
100
AcDbLine
 10
7378.5961104968
 20
7424.3476129184
 30
0.0
 11
7378.5961104968
 21
7414.6550337062
 31
0.0
  0
LINE
  5
115
330
1F
100
AcDbEntity
  8
0
  6
Continuous
 62
     7
370
    25
100
AcDbLine
 10
7380.5961104968
 20
7424.3956881968
 30
0.0
 11
7380.5961104968
 21
7424.3476129184
 31
0.0
  0
LINE
  5
116
330
1F
100
AcDbEntity
  8
0
  6
Continuous
 62
     7
370
    25
100
AcDbLine
 10
7378.5961104968
 20
7424.3956881968
 30
0.0
 11
7378.5961104968
 21
7424.3476129184
 31
0.0
  0
LINE
  5
117
330
1F
100
AcDbEntity
  8
0
  6
Continuous
 62
     7
370
    25
100
AcDbLine
 10
5483.6961104968
 20
6754.9124619412
 30
0.0
 11
5483.6961104968
 21
6979.9024619412
 31
0.0
  0
LINE
  5
118
330
1F
100
AcDbEntity
  8
0
  6
Continuous
 62
     7
370
    25
100
AcDbLine
 10
5483.6961104968
 20
6754.9124619412
 30
0.0
 11
5480.5961104968
 21
6754.9124619412
 31
0.0
  0
LINE
  5
119
330
1F
100
AcDbEntity
  8
0
  6
Continuous
 62
     7
370
    25
100
AcDbLine
 10
5480.5961104968
 20
6754.9124619412
 30
0.0
 11
5480.5961104968
 21
6979.9024619412
 31
0.0
  0
LINE
  5
11A
330
1F
100
AcDbEntity
  8
0
  6
Continuous
 62
     7
370
    25
100
AcDbLine
 10
5480.5961104968
 20
6979.9024619412
 30
0.0
 11
5483.6961104968
 21
6979.9024619412
 31
0.0
  0
LINE
  5
11B
330
1F
100
AcDbEntity
  8
0
  6
Continuous
 62
     7
370
    25
100
AcDbLine
 10
5522.4961104968
 20
6754.9124619412
 30
0.0
 11
5522.4961104968
 21
6979.9024619412
 31
0.0
  0
LINE
  5
11C
330
1F
100
AcDbEntity
  8
0
  6
Continuous
 62
     7
370
    25
100
AcDbLine
 10
5522.4961104968
 20
6754.9124619412
 30
0.0
 11
5483.6961104968
 21
6754.9124619412
 31
0.0
  0
LINE
  5
11D
330
1F
100
AcDbEntity
  8
0
  6
Continuous
 62
     7
370
    25
100
AcDbLine
 10
5483.6961104968
 20
6979.9024619412
 30
0.0
 11
5522.4961104968
 21
6979.9024619412
 31
0.0
  0
LINE
  5
11E
330
1F
100
AcDbEntity
  8
0
  6
Continuous
 62
     7
370
    25
100
AcDbLine
 10
5522.4961104968
 20
6754.9124619412
 30
0.0
 11
5525.5961104968
 21
6754.9124619412
 31
0.0
  0
LINE
  5
11F
330
1F
100
AcDbEntity
  8
0
  6
Continuous
 62
     7
370
    25
100
AcDbLine
 10
5525.5961104968
 20
6979.9024619412
 30
0.0
 11
5522.4961104968
 21
6979.9024619412
 31
0.0
  0
LINE
  5
120
330
1F
100
AcDbEntity
  8
0
  6
Continuous
 62
     7
370
    25
100
AcDbLine
 10
5525.5961104968
 20
6754.9124619412
 30
0.0
 11
5525.5961104968
 21
6756.5624619412
 31
0.0
  0
LINE
  5
121
330
1F
100
AcDbEntity
  8
0
  6
Continuous
 62
     7
370
    25
100
AcDbLine
 10
5525.5961104968
 20
6978.2524619412
 30
0.0
 11
5525.5961104968
 21
6979.9024619412
 31
0.0
  0
LINE
  5
122
330
1F
100
AcDbEntity
  8
0
  6
Continuous
 62
     7
370
    25
100
AcDbLine
 10
5480.5961104968
 20
6979.9124619412
 30
0.0
 11
5482.5961104968
 21
6979.9124619412
 31
0.0
  0
LINE
  5
123
330
1F
100
AcDbEntity
  8
0
  6
Continuous
 62
     7
370
    25
100
AcDbLine
 10
5480.5961104968
 20
7002.7124619412
 30
0.0
 11
5480.5961104968
 21
6979.9124619412
 31
0.0
  0
LINE
  5
124
330
1F
100
AcDbEntity
  8
0
  6
Continuous
 62
     7
370
    25
100
AcDbLine
 10
5480.5961104968
 20
7002.7124619412
 30
0.0
 11
5482.5961104968
 21
7002.7124619412
 31
0.0
  0
LINE
  5
125
330
1F
100
AcDbEntity
  8
0
  6
Continuous
 62
     7
370
    25
100
AcDbLine
 10
5482.5961104968
 20
7002.7124619412
 30
0.0
 11
5482.5961104968
 21
6979.9124619412
 31
0.0
  0
LINE
  5
126
330
1F
100
AcDbEntity
  8
0
  6
Continuous
 62
     7
370
    25
100
AcDbLine
 10
5480.5961104968
 20
7004.9124619412
 30
0.0
 11
5480.5961104968
 21
7002.7124619412
 31
0.0
  0
LINE
  5
127
330
1F
100
AcDbEntity
  8
0
  6
Continuous
 62
     7
370
    25
100
AcDbLine
 10
5480.5961104968
 20
7004.9124619412
 30
0.0
 11
5482.5961104968
 21
7004.9124619412
 31
0.0
  0
LINE
  5
128
330
1F
100
AcDbEntity
  8
0
  6
Continuous
 62
     7
370
    25
100
AcDbLine
 10
5482.5961104968
 20
7004.9124619412
 30
0.0
 11
5482.5961104968
 21
7002.7124619412
 31
0.0
  0
LINE
  5
129
330
1F
100
AcDbEntity
  8
0
  6
Continuous
 62
     7
370
    25
100
AcDbLine
 10
5480.5961104968
 20
6979.9124619412
 30
0.0
 11
5480.5961104968
 21
6979.9024619412
 31
0.0
  0
LINE
  5
12A
330
1F
100
AcDbEntity
  8
0
  6
Continuous
 62
     7
370
    25
100
AcDbLine
 10
5482.5961104968
 20
6979.9124619412
 30
0.0
 11
5482.5961104968
 21
6979.9024619412
 31
0.0
  0
LINE
  5
12B
330
1F
100
AcDbEntity
  8
0
  6
Continuous
 62
     7
370
    25
100
AcDbLine
 10
5480.5961104968
 20
7412.5031089846
 30
0.0
 11
5482.5961104968
 21
7412.5031089846
 31
0.0
  0
LINE
  5
12C
330
1F
100
AcDbEntity
  8
0
  6
Continuous
 62
     7
370
    25
100
AcDbLine
 10
5480.5961104968
 20
7414.6550337062
 30
0.0
 11
5482.5961104968
 21
7414.6550337062
 31
0.0
  0
LINE
  5
12D
330
1F
100
AcDbEntity
  8
0
  6
Continuous
 62
     7
370
    25
100
AcDbLine
 10
5480.5961104968
 20
7414.6550337062
 30
0.0
 11
5480.5961104968
 21
7412.5031089846
 31
0.0
  0
LINE
  5
12E
330
1F
100
AcDbEntity
  8
0
  6
Continuous
 62
     7
370
    25
100
AcDbLine
 10
5482.5961104968
 20
7414.6550337062
 30
0.0
 11
5482.5961104968
 21
7412.5031089846
 31
0.0
  0
LINE
  5
12F
330
1F
100
AcDbEntity
  8
0
  6
Continuous
 62
     7
370
    25
100
AcDbLine
 10
5480.5961104968
 20
7412.5031089846
 30
0.0
 11
5480.5961104968
 21
7004.9124619412
 31
0.0
  0
LINE
  5
130
330
1F
100
AcDbEntity
  8
0
  6
Continuous
 62
     7
370
    25
100
AcDbLine
 10
5482.5961104968
 20
7412.5031089846
 30
0.0
 11
5482.5961104968
 21
7004.9124619412
 31
0.0
  0
LINE
  5
131
330
1F
100
AcDbEntity
  8
0
  6
Continuous
 62
     7
370
    25
100
AcDbLine
 10
5480.5961104968
 20
7424.3476129184
 30
0.0
 11
5482.5961104968
 21
7424.3476129184
 31
0.0
  0
LINE
  5
132
330
1F
100
AcDbEntity
  8
0
  6
Continuous
 62
     7
370
    25
100
AcDbLine
 10
5480.5961104968
 20
7424.3476129184
 30
0.0
 11
5480.5961104968
 21
7414.6550337062
 31
0.0
  0
LINE
  5
133
330
1F
100
AcDbEntity
  8
0
  6
Continuous
 62
     7
370
    25
100
AcDbLine
 10
5482.5961104968
 20
7424.3476129184
 30
0.0
 11
5482.5961104968
 21
7414.6550337062
 31
0.0
  0
LINE
  5
134
330
1F
100
AcDbEntity
  8
0
  6
Continuous
 62
     7
370
    25
100
AcDbLine
 10
5480.5961104968
 20
7424.3956881968
 30
0.0
 11
5480.5961104968
 21
7424.3476129184
 31
0.0
  0
LINE
  5
135
330
1F
100
AcDbEntity
  8
0
  6
Continuous
 62
     7
370
    25
100
AcDbLine
 10
5482.5961104968
 20
7424.3956881968
 30
0.0
 11
5482.5961104968
 21
7424.3476129184
 31
0.0
  0
LINE
  5
136
330
1F
100
AcDbEntity
  8
0
  6
Continuous
 62
     7
370
    25
100
AcDbLine
 10
7378.5961104968
 20
7004.9124619412
 30
0.0
 11
5482.5961104968
 21
7004.9124619412
 31
0.0
  0
LINE
  5
137
330
1F
100
AcDbEntity
  8
0
  6
Continuous
 62
     7
370
    25
100
AcDbLine
 10
5482.5961104968
 20
7002.7124619412
 30
0.0
 11
7378.5961104968
 21
7002.7124619412
 31
0.0
  0
LINE
  5
138
330
1F
100
AcDbEntity
  8
0
  6
Continuous
 62
     7
370
    25
100
AcDbLine
 10
5482.5961104968
 20
6979.9124619412
 30
0.0
 11
7378.5961104968
 21
6979.9124619412
 31
0.0
  0
LINE
  5
139
330
1F
100
AcDbEntity
  8
0
  6
Continuous
 62
     7
370
    25
100
AcDbLine
 10
5482.5961104968
 20
7412.5031089846
 30
0.0
 11
7378.5961104968
 21
7412.5031089846
 31
0.0
  0
LINE
  5
13A
330
1F
100
AcDbEntity
  8
0
  6
Continuous
 62
     7
370
    25
100
AcDbLine
 10
7378.5961104968
 20
7414.6550337062
 30
0.0
 11
5482.5961104968
 21
7414.6550337062
 31
0.0
  0
LINE
  5
13B
330
1F
100
AcDbEntity
  8
0
  6
Continuous
 62
     7
370
    25
100
AcDbLine
 10
5482.5961104968
 20
7424.3476129184
 30
0.0
 11
7378.5961104968
 21
7424.3476129184
 31
0.0
  0
ARC
  5
13C
330
1F
100
AcDbEntity
  8
0
  6
Continuous
 62
     7
370
    25
100
AcDbCircle
 10
5633.0961104968
 20
6681.6140334026
 30
0.0
 40
40.00000000000023
100
AcDbArc
 50
27.6050232597
 51
54.9003678046
  0
ARC
  5
13D
330
1F
100
AcDbEntity
  8
0
  6
Continuous
 62
     7
370
    25
100
AcDbCircle
 10
5633.0961104968
 20
6681.6140334026
 30
0.0
 40
40.00000000000009
100
AcDbArc
 50
125.0996321954
 51
216.1070114058
  0
ARC
  5
13E
330
1F
100
AcDbEntity
  8
0
  6
Continuous
 62
     7
370
    25
100
AcDbCircle
 10
5633.0961104968
 20
6681.6140334026
 30
0.0
 40
40.00000000000023
100
AcDbArc
 50
323.8929885942
 51
27.6050232597
  0
LINE
  5
13F
330
1F
100
AcDbEntity
  8
0
  6
Continuous
 62
     7
370
    25
100
AcDbLine
 10
5599.0961104968
 20
6643.6140334026
 30
0.0
 11
5667.0961104968
 21
6643.6140334026
 31
0.0
  0
LINE
  5
140
330
1F
100
AcDbEntity
  8
0
  6
Continuous
 62
     7
370
    25
100
AcDbLine
 10
5608.7664581589
 20
6703.6140334026
 30
0.0
 11
5657.4257628347
 21
6703.6140334026
 31
0.0
  0
LINE
  5
141
330
1F
100
AcDbEntity
  8
0
  6
Continuous
 62
     7
370
    25
100
AcDbLine
 10
5608.9742826306
 20
6573.6140334026
 30
0.0
 11
5657.217938363
 21
6573.6140334026
 31
0.0
  0
LINE
  5
142
330
1F
100
AcDbEntity
  8
0
  6
Continuous
 62
     7
370
    25
100
AcDbLine
 10
5610.0961104968
 20
6710.1140334026
 30
0.0
 11
5656.0961104968
 21
6710.1140334026
 31
0.0
  0
LINE
  5
143
330
1F
100
AcDbEntity
  8
0
  6
Continuous
 62
     7
370
    25
100
AcDbLine
 10
5608.0961104968
 20
6706.1140334026
 30
0.0
 11
5658.0961104968
 21
6706.1140334026
 31
0.0
  0
LINE
  5
144
330
1F
100
AcDbEntity
  8
0
  6
Continuous
 62
     7
370
    25
100
AcDbLine
 10
5613.0961104968
 20
6720.1140334026
 30
0.0
 11
5653.0961104968
 21
6720.1140334026
 31
0.0
  0
LINE
  5
145
330
1F
100
AcDbEntity
  8
0
  6
Continuous
 62
     7
370
    25
100
AcDbLine
 10
5649.5961104968
 20
6703.6140334026
 30
0.0
 11
5649.0961104968
 21
6703.9803026489
 31
0.0
  0
LINE
  5
146
330
1F
100
AcDbEntity
  8
0
  6
Continuous
 62
     7
370
    25
100
AcDbLine
 10
5617.0961104968
 20
6703.9803026489
 30
0.0
 11
5616.5961104968
 21
6703.6140334026
 31
0.0
  0
LWPOLYLINE
  5
147
330
1F
100
AcDbEntity
  8
0
  6
Continuous
 62
     7
370
    25
100
AcDbPolyline
 90
       14
 70
   128
 43
0.0
 10
5602.5961104968
 20
7417.1183870703
 10
5604.6798886288
 20
7417.1562908194
 10
5606.7003522167
 20
7417.2688503805
 10
5608.5961104968
 20
7417.4526456882
 10
5610.3095618131
 20
7417.7020922152
 10
5611.7886438143
 20
7418.0096106549
 10
5612.9884153422
 20
7418.3658572152
 10
5613.8724219463
 20
7418.7600075246
 10
5614.413803533
 20
7419.1800855254
 10
5614.5961104968
 20
7419.6133273601
 10
5614.413803533
 20
7420.0465691948
 10
5613.8724219463
 20
7420.4666471956
 10
5612.9884153422
 20
7420.860797505
 10
5612.0117433705
 20
7421.1600821547
  0
LWPOLYLINE
  5
148
330
1F
100
AcDbEntity
  8
0
  6
Continuous
 62
     7
370
    25
100
AcDbPolyline
 90
       14
 70
   128
 43
0.0
 10
5593.1804776232
 20
7421.1600821547
 10
5592.2038056514
 20
7420.860797505
 10
5591.3197990474
 20
7420.4666471956
 10
5590.7784174607
 20
7420.0465691948
 10
5590.5961104968
 20
7419.6133273601
 10
5590.7784174607
 20
7419.1800855254
 10
5591.3197990474
 20
7418.7600075246
 10
5592.2038056514
 20
7418.3658572152
 10
5593.4035771794
 20
7418.0096106549
 10
5594.8826591806
 20
7417.7020922152
 10
5596.5961104968
 20
7417.4526456882
 10
5598.4918687769
 20
7417.2688503805
 10
5600.5123323648
 20
7417.1562908194
 10
5602.5961104968
 20
7417.1183870703
  0
CIRCLE
  5
149
330
1F
100
AcDbEntity
  8
0
  6
Continuous
 62
     7
370
    25
100
AcDbCircle
 10
5950.5961104968
 20
7314.9124619412
 30
0.0
 40
12.49999999999909
  0
LINE
  5
14A
330
1F
100
AcDbEntity
  8
0
  6
Continuous
 62
     7
370
    25
100
AcDbLine
 10
5950.2061842615
 20
7320.1088557541
 30
0.0
 11
5950.2061842615
 21
7323.6545753986
 31
0.0
  0
LINE
  5
14B
330
1F
100
AcDbEntity
  8
0
  6
Continuous
 62
     7
370
    25
100
AcDbLine
 10
5946.972098471
 20
7323.6545753986
 30
0.0
 11
5946.972098471
 21
7316.116123813
 31
0.0
  0
ARC
  5
14C
330
1F
100
AcDbEntity
  8
0
  6
Continuous
 62
     7
370
    25
100
AcDbCircle
 10
5945.1270482078
 20
7314.3284950109
 30
0.0
 40
2.56901288587183
100
AcDbArc
 50
44.0944057145
 51
105.4941474424
  0
LINE
  5
14D
330
1F
100
AcDbEntity
  8
0
  6
Continuous
 62
     7
370
    25
100
AcDbLine
 10
5944.4407622511
 20
7316.804144177
 30
0.0
 11
5944.4407622511
 21
7311.3830296115
 31
0.0
  0
ARC
  5
14E
330
1F
100
AcDbEntity
  8
0
  6
Continuous
 62
     7
370
    25
100
AcDbCircle
 10
5950.7632925788
 20
7311.3830296115
 30
0.0
 40
6.322530327733148
100
AcDbArc
 50
180.0
 51
270.0
  0
LINE
  5
14F
330
1F
100
AcDbEntity
  8
0
  6
Continuous
 62
     7
370
    25
100
AcDbLine
 10
5950.7632925788
 20
7305.0604992838
 30
0.0
 11
5953.1305169858
 21
7305.0604992838
 31
0.0
  0
ARC
  5
150
330
1F
100
AcDbEntity
  8
0
  6
Continuous
 62
     7
370
    25
100
AcDbCircle
 10
5953.1305169858
 20
7309.6160998344
 30
0.0
 40
4.555600550637791
100
AcDbArc
 50
270.0
 51
0.0
  0
LINE
  5
151
330
1F
100
AcDbEntity
  8
0
  6
Continuous
 62
     7
370
    25
100
AcDbLine
 10
5957.6861175365
 20
7309.6160998344
 30
0.0
 11
5957.6861175365
 21
7317.4528703627
 31
0.0
  0
ARC
  5
152
330
1F
100
AcDbEntity
  8
0
  6
Continuous
 62
     7
370
    25
100
AcDbCircle
 10
5956.3325062902
 20
7317.4528703627
 30
0.0
 40
1.353611246209766
100
AcDbArc
 50
0.0
 51
90.0
  0
LINE
  5
153
330
1F
100
AcDbEntity
  8
0
  6
Continuous
 62
     7
370
    25
100
AcDbLine
 10
5956.3325062902
 20
7318.8064816089
 30
0.0
 11
5955.8382808256
 21
7318.8064816089
 31
0.0
  0
ARC
  5
154
330
1F
100
AcDbEntity
  8
0
  6
Continuous
 62
     7
370
    25
100
AcDbCircle
 10
5955.8382808256
 20
7317.4528703627
 30
0.0
 40
1.353611246209766
100
AcDbArc
 50
90.0
 51
118.7365577358
  0
ARC
  5
155
330
1F
100
AcDbEntity
  8
0
  6
Continuous
 62
     7
370
    25
100
AcDbCircle
 10
5953.8550209558
 20
7318.4014502862
 30
0.0
 40
1.353611246209073
100
AcDbArc
 50
10.1404867648
 51
90.0
  0
LINE
  5
156
330
1F
100
AcDbEntity
  8
0
  6
Continuous
 62
     7
370
    25
100
AcDbLine
 10
5953.8550209558
 20
7319.7550615324
 30
0.0
 11
5953.2757036738
 21
7319.7550615324
 31
0.0
  0
ARC
  5
157
330
1F
100
AcDbEntity
  8
0
  6
Continuous
 62
     7
370
    25
100
AcDbCircle
 10
5953.2757036738
 20
7318.4014502862
 30
0.0
 40
1.353611246209766
100
AcDbArc
 50
90.0
 51
124.744002227
  0
ARC
  5
158
330
1F
100
AcDbEntity
  8
0
  6
Continuous
 62
     7
370
    25
100
AcDbCircle
 10
5951.292443804
 20
7318.9106045214
 30
0.0
 40
1.353611246208857
100
AcDbArc
 50
26.4592691593
 51
90.0
  0
LINE
  5
159
330
1F
100
AcDbEntity
  8
0
  6
Continuous
 62
     7
370
    25
100
AcDbLine
 10
5951.292443804
 20
7320.2642157676
 30
0.0
 11
5950.835832885
 21
7320.2642157676
 31
0.0
  0
ARC
  5
15A
330
1F
100
AcDbEntity
  8
0
  6
Continuous
 62
     7
370
    25
100
AcDbCircle
 10
5950.835832885
 20
7318.9106045214
 30
0.0
 40
1.353611246209766
100
AcDbArc
 50
90.0
 51
117.7207121261
  0
ARC
  5
15B
330
1F
100
AcDbEntity
  8
0
  6
Continuous
 62
     7
370
    25
100
AcDbCircle
 10
5948.5891413662
 20
7323.6545753986
 30
0.0
 40
1.617042895244595
100
AcDbArc
 50
0.0
 51
180.0
  0
ARC
  5
15C
330
1F
100
AcDbEntity
  8
0
  6
Continuous
 62
     7
370
    25
100
AcDbCircle
 10
5949.8442029501
 20
7315.9837351245
 30
0.0
 40
0.6676186886570576
100
AcDbArc
 50
180.0
 51
0.0
  0
LINE
  5
15D
330
1F
100
AcDbEntity
  8
0
  6
Continuous
 62
     7
370
    25
100
AcDbLine
 10
5950.5118216388
 20
7318.9247666591
 30
0.0
 11
5950.5118216388
 21
7315.9837351245
 31
0.0
  0
ARC
  5
15E
330
1F
100
AcDbEntity
  8
0
  6
Continuous
 62
     7
370
    25
100
AcDbCircle
 10
5950.7519317551
 20
7318.9247666591
 30
0.0
 40
0.2401101162877239
100
AcDbArc
 50
90.0
 51
180.0
  0
LINE
  5
15F
330
1F
100
AcDbEntity
  8
0
  6
Continuous
 62
     7
370
    25
100
AcDbLine
 10
5951.376344934
 20
7319.1648767754
 30
0.0
 11
5950.7519317551
 21
7319.1648767754
 31
0.0
  0
ARC
  5
160
330
1F
100
AcDbEntity
  8
0
  6
Continuous
 62
     7
370
    25
100
AcDbCircle
 10
5951.376344934
 20
7318.9247666591
 30
0.0
 40
0.2401101162877239
100
AcDbArc
 50
0.0
 51
90.0
  0
LINE
  5
161
330
1F
100
AcDbEntity
  8
0
  6
Continuous
 62
     7
370
    25
100
AcDbLine
 10
5951.6164550502
 20
7315.9837351245
 30
0.0
 11
5951.6164550502
 21
7318.9247666591
 31
0.0
  0
ARC
  5
162
330
1F
100
AcDbEntity
  8
0
  6
Continuous
 62
     7
370
    25
100
AcDbCircle
 10
5952.2840737389
 20
7315.9837351245
 30
0.0
 40
0.6676186886570576
100
AcDbArc
 50
180.0
 51
0.0
  0
LINE
  5
163
330
1F
100
AcDbEntity
  8
0
  6
Continuous
 62
     7
370
    25
100
AcDbLine
 10
5952.9516924276
 20
7318.4156124239
 30
0.0
 11
5952.9516924276
 21
7315.9837351245
 31
0.0
  0
ARC
  5
164
330
1F
100
AcDbEntity
  8
0
  6
Continuous
 62
     7
370
    25
100
AcDbCircle
 10
5953.1918025438
 20
7318.4156124239
 30
0.0
 40
0.2401101162886334
100
AcDbArc
 50
90.0
 51
180.0
  0
LINE
  5
165
330
1F
100
AcDbEntity
  8
0
  6
Continuous
 62
     7
370
    25
100
AcDbLine
 10
5953.9389220857
 20
7318.6557225402
 30
0.0
 11
5953.1918025438
 21
7318.6557225402
 31
0.0
  0
ARC
  5
166
330
1F
100
AcDbEntity
  8
0
  6
Continuous
 62
     7
370
    25
100
AcDbCircle
 10
5953.9389220857
 20
7318.4156124239
 30
0.0
 40
0.2401101162877239
100
AcDbArc
 50
0.0
 51
90.0
  0
LINE
  5
167
330
1F
100
AcDbEntity
  8
0
  6
Continuous
 62
     7
370
    25
100
AcDbLine
 10
5954.179032202
 20
7315.9837351245
 30
0.0
 11
5954.179032202
 21
7318.4156124239
 31
0.0
  0
ARC
  5
168
330
1F
100
AcDbEntity
  8
0
  6
Continuous
 62
     7
370
    25
100
AcDbCircle
 10
5954.8466508907
 20
7315.9837351245
 30
0.0
 40
0.6676186886561482
100
AcDbArc
 50
180.0
 51
0.0
  0
LINE
  5
169
330
1F
100
AcDbEntity
  8
0
  6
Continuous
 62
     7
370
    25
100
AcDbLine
 10
5955.5142695793
 20
7317.4992621153
 30
0.0
 11
5955.5142695793
 21
7315.9837351245
 31
0.0
  0
ARC
  5
16A
330
1F
100
AcDbEntity
  8
0
  6
Continuous
 62
     7
370
    25
100
AcDbCircle
 10
5955.7543796956
 20
7317.4992621153
 30
0.0
 40
0.2401101162886334
100
AcDbArc
 50
90.0
 51
180.0
  0
LINE
  5
16B
330
1F
100
AcDbEntity
  8
0
  6
Continuous
 62
     7
370
    25
100
AcDbLine
 10
5956.4164074202
 20
7317.7393722316
 30
0.0
 11
5955.7543796956
 21
7317.7393722316
 31
0.0
  0
ARC
  5
16C
330
1F
100
AcDbEntity
  8
0
  6
Continuous
 62
     7
370
    25
100
AcDbCircle
 10
5956.4164074202
 20
7317.4992621153
 30
0.0
 40
0.2401101162877239
100
AcDbArc
 50
0.0
 51
90.0
  0
LINE
  5
16D
330
1F
100
AcDbEntity
  8
0
  6
Continuous
 62
     7
370
    25
100
AcDbLine
 10
5956.6565175365
 20
7309.6160998344
 30
0.0
 11
5956.6565175365
 21
7317.4992621153
 31
0.0
  0
ARC
  5
16E
330
1F
100
AcDbEntity
  8
0
  6
Continuous
 62
     7
370
    25
100
AcDbCircle
 10
5953.1305169858
 20
7309.6160998344
 30
0.0
 40
3.526000550637946
100
AcDbArc
 50
270.0
 51
0.0
  0
LINE
  5
16F
330
1F
100
AcDbEntity
  8
0
  6
Continuous
 62
     7
370
    25
100
AcDbLine
 10
5950.7632925788
 20
7306.0900992838
 30
0.0
 11
5953.1305169858
 21
7306.0900992838
 31
0.0
  0
ARC
  5
170
330
1F
100
AcDbEntity
  8
0
  6
Continuous
 62
     7
370
    25
100
AcDbCircle
 10
5950.7632925788
 20
7311.3830296115
 30
0.0
 40
5.292930327733302
100
AcDbArc
 50
180.0
 51
270.0
  0
LINE
  5
171
330
1F
100
AcDbEntity
  8
0
  6
Continuous
 62
     7
370
    25
100
AcDbLine
 10
5945.4703622511
 20
7315.8291373736
 30
0.0
 11
5945.4703622511
 21
7311.3830296115
 31
0.0
  0
ARC
  5
172
330
1F
100
AcDbEntity
  8
0
  6
Continuous
 62
     7
370
    25
100
AcDbCircle
 10
5945.1270482078
 20
7314.3284950109
 30
0.0
 40
1.539412885870834
100
AcDbArc
 50
0.0
 51
77.1137478469
  0
LINE
  5
173
330
1F
100
AcDbEntity
  8
0
  6
Continuous
 62
     7
370
    25
100
AcDbLine
 10
5946.6664610937
 20
7312.3740741289
 30
0.0
 11
5946.6664610937
 21
7314.3284950109
 31
0.0
  0
ARC
  5
174
330
1F
100
AcDbEntity
  8
0
  6
Continuous
 62
     7
370
    25
100
AcDbCircle
 10
5947.3340797823
 20
7312.3740741289
 30
0.0
 40
0.6676186886570576
100
AcDbArc
 50
180.0
 51
0.0
  0
LINE
  5
175
330
1F
100
AcDbEntity
  8
0
  6
Continuous
 62
     7
370
    25
100
AcDbLine
 10
5948.001698471
 20
7323.6545753986
 30
0.0
 11
5948.001698471
 21
7312.3740741289
 31
0.0
  0
LINE
  5
176
330
1F
100
AcDbEntity
  8
0
  6
Continuous
 62
     7
370
    25
100
AcDbLine
 10
5949.1765842615
 20
7315.9837351245
 30
0.0
 11
5949.1765842615
 21
7323.6545753986
 31
0.0
  0
ARC
  5
177
330
1F
100
AcDbEntity
  8
0
  6
Continuous
 62
     7
370
    25
100
AcDbCircle
 10
5948.5891413662
 20
7323.6545753986
 30
0.0
 40
0.5874428952456583
100
AcDbArc
 50
0.0
 51
180.0
  0
CIRCLE
  5
178
330
1F
100
AcDbEntity
  8
0
  6
Continuous
 62
     7
370
    25
100
AcDbCircle
 10
5950.5961104968
 20
7314.9124619412
 30
0.0
 40
13.99999999999909
  0
CIRCLE
  5
179
330
1F
100
AcDbEntity
  8
0
  6
Continuous
 62
     7
370
    25
100
AcDbCircle
 10
6550.5961104968
 20
7314.9124619412
 30
0.0
 40
12.5
  0
LINE
  5
17A
330
1F
100
AcDbEntity
  8
0
  6
Continuous
 62
     7
370
    25
100
AcDbLine
 10
6550.2061842615
 20
7320.1088557541
 30
0.0
 11
6550.2061842615
 21
7323.6545753986
 31
0.0
  0
ARC
  5
17B
330
1F
100
AcDbEntity
  8
0
  6
Continuous
 62
     7
370
    25
100
AcDbCircle
 10
6548.5891413662
 20
7323.6545753986
 30
0.0
 40
1.617042895244595
100
AcDbArc
 50
0.0
 51
180.0
  0
LINE
  5
17C
330
1F
100
AcDbEntity
  8
0
  6
Continuous
 62
     7
370
    25
100
AcDbLine
 10
6546.972098471
 20
7323.6545753986
 30
0.0
 11
6546.972098471
 21
7316.116123813
 31
0.0
  0
ARC
  5
17D
330
1F
100
AcDbEntity
  8
0
  6
Continuous
 62
     7
370
    25
100
AcDbCircle
 10
6545.1270482078
 20
7314.3284950109
 30
0.0
 40
2.569012885871402
100
AcDbArc
 50
44.0944057146
 51
105.4941474424
  0
LINE
  5
17E
330
1F
100
AcDbEntity
  8
0
  6
Continuous
 62
     7
370
    25
100
AcDbLine
 10
6544.4407622511
 20
7316.804144177
 30
0.0
 11
6544.4407622511
 21
7311.3830296115
 31
0.0
  0
ARC
  5
17F
330
1F
100
AcDbEntity
  8
0
  6
Continuous
 62
     7
370
    25
100
AcDbCircle
 10
6550.7632925788
 20
7311.3830296115
 30
0.0
 40
6.322530327734057
100
AcDbArc
 50
180.0
 51
270.0
  0
LINE
  5
180
330
1F
100
AcDbEntity
  8
0
  6
Continuous
 62
     7
370
    25
100
AcDbLine
 10
6550.7632925788
 20
7305.0604992838
 30
0.0
 11
6553.1305169858
 21
7305.0604992838
 31
0.0
  0
ARC
  5
181
330
1F
100
AcDbEntity
  8
0
  6
Continuous
 62
     7
370
    25
100
AcDbCircle
 10
6553.1305169858
 20
7309.6160998344
 30
0.0
 40
4.555600550637791
100
AcDbArc
 50
270.0
 51
0.0
  0
LINE
  5
182
330
1F
100
AcDbEntity
  8
0
  6
Continuous
 62
     7
370
    25
100
AcDbLine
 10
6557.6861175365
 20
7309.6160998344
 30
0.0
 11
6557.6861175365
 21
7317.4528703627
 31
0.0
  0
ARC
  5
183
330
1F
100
AcDbEntity
  8
0
  6
Continuous
 62
     7
370
    25
100
AcDbCircle
 10
6556.3325062902
 20
7317.4528703627
 30
0.0
 40
1.353611246209766
100
AcDbArc
 50
0.0
 51
90.0
  0
LINE
  5
184
330
1F
100
AcDbEntity
  8
0
  6
Continuous
 62
     7
370
    25
100
AcDbLine
 10
6556.3325062902
 20
7318.8064816089
 30
0.0
 11
6555.8382808256
 21
7318.8064816089
 31
0.0
  0
ARC
  5
185
330
1F
100
AcDbEntity
  8
0
  6
Continuous
 62
     7
370
    25
100
AcDbCircle
 10
6555.8382808256
 20
7317.4528703627
 30
0.0
 40
1.353611246209766
100
AcDbArc
 50
90.0
 51
118.7365577358
  0
ARC
  5
186
330
1F
100
AcDbEntity
  8
0
  6
Continuous
 62
     7
370
    25
100
AcDbCircle
 10
6553.8550209558
 20
7318.4014502862
 30
0.0
 40
1.353611246208857
100
AcDbArc
 50
10.1404867648
 51
90.0000000001
  0
LINE
  5
187
330
1F
100
AcDbEntity
  8
0
  6
Continuous
 62
     7
370
    25
100
AcDbLine
 10
6553.8550209558
 20
7319.7550615324
 30
0.0
 11
6553.2757036738
 21
7319.7550615324
 31
0.0
  0
ARC
  5
188
330
1F
100
AcDbEntity
  8
0
  6
Continuous
 62
     7
370
    25
100
AcDbCircle
 10
6553.2757036738
 20
7318.4014502862
 30
0.0
 40
1.353611246209766
100
AcDbArc
 50
90.0
 51
124.744002227
  0
ARC
  5
189
330
1F
100
AcDbEntity
  8
0
  6
Continuous
 62
     7
370
    25
100
AcDbCircle
 10
6551.292443804
 20
7318.9106045214
 30
0.0
 40
1.353611246208857
100
AcDbArc
 50
26.4592691593
 51
90.0
  0
LINE
  5
18A
330
1F
100
AcDbEntity
  8
0
  6
Continuous
 62
     7
370
    25
100
AcDbLine
 10
6551.292443804
 20
7320.2642157676
 30
0.0
 11
6550.835832885
 21
7320.2642157676
 31
0.0
  0
ARC
  5
18B
330
1F
100
AcDbEntity
  8
0
  6
Continuous
 62
     7
370
    25
100
AcDbCircle
 10
6550.835832885
 20
7318.9106045214
 30
0.0
 40
1.353611246209766
100
AcDbArc
 50
90.0
 51
117.7207121261
  0
ARC
  5
18C
330
1F
100
AcDbEntity
  8
0
  6
Continuous
 62
     7
370
    25
100
AcDbCircle
 10
6549.8442029501
 20
7315.9837351245
 30
0.0
 40
0.6676186886570576
100
AcDbArc
 50
180.0
 51
0.0
  0
LINE
  5
18D
330
1F
100
AcDbEntity
  8
0
  6
Continuous
 62
     7
370
    25
100
AcDbLine
 10
6550.5118216388
 20
7318.9247666591
 30
0.0
 11
6550.5118216388
 21
7315.9837351245
 31
0.0
  0
ARC
  5
18E
330
1F
100
AcDbEntity
  8
0
  6
Continuous
 62
     7
370
    25
100
AcDbCircle
 10
6550.7519317551
 20
7318.9247666591
 30
0.0
 40
0.2401101162877239
100
AcDbArc
 50
90.0
 51
180.0
  0
LINE
  5
18F
330
1F
100
AcDbEntity
  8
0
  6
Continuous
 62
     7
370
    25
100
AcDbLine
 10
6551.376344934
 20
7319.1648767754
 30
0.0
 11
6550.7519317551
 21
7319.1648767754
 31
0.0
  0
ARC
  5
190
330
1F
100
AcDbEntity
  8
0
  6
Continuous
 62
     7
370
    25
100
AcDbCircle
 10
6551.376344934
 20
7318.9247666591
 30
0.0
 40
0.2401101162877239
100
AcDbArc
 50
0.0
 51
90.0
  0
LINE
  5
191
330
1F
100
AcDbEntity
  8
0
  6
Continuous
 62
     7
370
    25
100
AcDbLine
 10
6551.6164550502
 20
7315.9837351245
 30
0.0
 11
6551.6164550502
 21
7318.9247666591
 31
0.0
  0
ARC
  5
192
330
1F
100
AcDbEntity
  8
0
  6
Continuous
 62
     7
370
    25
100
AcDbCircle
 10
6552.2840737389
 20
7315.9837351245
 30
0.0
 40
0.6676186886570576
100
AcDbArc
 50
180.0
 51
0.0
  0
LINE
  5
193
330
1F
100
AcDbEntity
  8
0
  6
Continuous
 62
     7
370
    25
100
AcDbLine
 10
6552.9516924276
 20
7318.4156124239
 30
0.0
 11
6552.9516924276
 21
7315.9837351245
 31
0.0
  0
ARC
  5
194
330
1F
100
AcDbEntity
  8
0
  6
Continuous
 62
     7
370
    25
100
AcDbCircle
 10
6553.1918025438
 20
7318.4156124239
 30
0.0
 40
0.2401101162868144
100
AcDbArc
 50
90.0
 51
180.0
  0
LINE
  5
195
330
1F
100
AcDbEntity
  8
0
  6
Continuous
 62
     7
370
    25
100
AcDbLine
 10
6553.9389220857
 20
7318.6557225402
 30
0.0
 11
6553.1918025438
 21
7318.6557225402
 31
0.0
  0
ARC
  5
196
330
1F
100
AcDbEntity
  8
0
  6
Continuous
 62
     7
370
    25
100
AcDbCircle
 10
6553.9389220857
 20
7318.4156124239
 30
0.0
 40
0.2401101162868144
100
AcDbArc
 50
0.0
 51
90.0
  0
LINE
  5
197
330
1F
100
AcDbEntity
  8
0
  6
Continuous
 62
     7
370
    25
100
AcDbLine
 10
6554.179032202
 20
7315.9837351245
 30
0.0
 11
6554.179032202
 21
7318.4156124239
 31
0.0
  0
ARC
  5
198
330
1F
100
AcDbEntity
  8
0
  6
Continuous
 62
     7
370
    25
100
AcDbCircle
 10
6554.8466508907
 20
7315.9837351245
 30
0.0
 40
0.6676186886570576
100
AcDbArc
 50
180.0
 51
0.0
  0
LINE
  5
199
330
1F
100
AcDbEntity
  8
0
  6
Continuous
 62
     7
370
    25
100
AcDbLine
 10
6555.5142695793
 20
7317.4992621153
 30
0.0
 11
6555.5142695793
 21
7315.9837351245
 31
0.0
  0
ARC
  5
19A
330
1F
100
AcDbEntity
  8
0
  6
Continuous
 62
     7
370
    25
100
AcDbCircle
 10
6555.7543796956
 20
7317.4992621153
 30
0.0
 40
0.2401101162877239
100
AcDbArc
 50
90.0
 51
180.0
  0
LINE
  5
19B
330
1F
100
AcDbEntity
  8
0
  6
Continuous
 62
     7
370
    25
100
AcDbLine
 10
6556.4164074202
 20
7317.7393722316
 30
0.0
 11
6555.7543796956
 21
7317.7393722316
 31
0.0
  0
ARC
  5
19C
330
1F
100
AcDbEntity
  8
0
  6
Continuous
 62
     7
370
    25
100
AcDbCircle
 10
6556.4164074202
 20
7317.4992621153
 30
0.0
 40
0.2401101162877239
100
AcDbArc
 50
0.0
 51
90.0
  0
LINE
  5
19D
330
1F
100
AcDbEntity
  8
0
  6
Continuous
 62
     7
370
    25
100
AcDbLine
 10
6556.6565175365
 20
7309.6160998344
 30
0.0
 11
6556.6565175365
 21
7317.4992621153
 31
0.0
  0
ARC
  5
19E
330
1F
100
AcDbEntity
  8
0
  6
Continuous
 62
     7
370
    25
100
AcDbCircle
 10
6553.1305169858
 20
7309.6160998344
 30
0.0
 40
3.526000550637946
100
AcDbArc
 50
270.0
 51
0.0
  0
LINE
  5
19F
330
1F
100
AcDbEntity
  8
0
  6
Continuous
 62
     7
370
    25
100
AcDbLine
 10
6550.7632925788
 20
7306.0900992838
 30
0.0
 11
6553.1305169858
 21
7306.0900992838
 31
0.0
  0
ARC
  5
1A0
330
1F
100
AcDbEntity
  8
0
  6
Continuous
 62
     7
370
    25
100
AcDbCircle
 10
6550.7632925788
 20
7311.3830296115
 30
0.0
 40
5.292930327734211
100
AcDbArc
 50
180.0
 51
270.0
  0
LINE
  5
1A1
330
1F
100
AcDbEntity
  8
0
  6
Continuous
 62
     7
370
    25
100
AcDbLine
 10
6545.4703622511
 20
7315.8291373736
 30
0.0
 11
6545.4703622511
 21
7311.3830296115
 31
0.0
  0
ARC
  5
1A2
330
1F
100
AcDbEntity
  8
0
  6
Continuous
 62
     7
370
    25
100
AcDbCircle
 10
6545.1270482078
 20
7314.3284950109
 30
0.0
 40
1.53941288587157
100
AcDbArc
 50
0.0
 51
77.1137478469
  0
LINE
  5
1A3
330
1F
100
AcDbEntity
  8
0
  6
Continuous
 62
     7
370
    25
100
AcDbLine
 10
6546.6664610937
 20
7312.3740741289
 30
0.0
 11
6546.6664610937
 21
7314.3284950109
 31
0.0
  0
ARC
  5
1A4
330
1F
100
AcDbEntity
  8
0
  6
Continuous
 62
     7
370
    25
100
AcDbCircle
 10
6547.3340797823
 20
7312.3740741289
 30
0.0
 40
0.6676186886570576
100
AcDbArc
 50
180.0
 51
0.0
  0
LINE
  5
1A5
330
1F
100
AcDbEntity
  8
0
  6
Continuous
 62
     7
370
    25
100
AcDbLine
 10
6548.001698471
 20
7323.6545753986
 30
0.0
 11
6548.001698471
 21
7312.3740741289
 31
0.0
  0
ARC
  5
1A6
330
1F
100
AcDbEntity
  8
0
  6
Continuous
 62
     7
370
    25
100
AcDbCircle
 10
6548.5891413662
 20
7323.6545753986
 30
0.0
 40
0.5874428952447488
100
AcDbArc
 50
0.0
 51
180.0
  0
LINE
  5
1A7
330
1F
100
AcDbEntity
  8
0
  6
Continuous
 62
     7
370
    25
100
AcDbLine
 10
6549.1765842615
 20
7315.9837351245
 30
0.0
 11
6549.1765842615
 21
7323.6545753986
 31
0.0
  0
CIRCLE
  5
1A8
330
1F
100
AcDbEntity
  8
0
  6
Continuous
 62
     7
370
    25
100
AcDbCircle
 10
6550.5961104968
 20
7314.9124619412
 30
0.0
 40
14.0
  0
CIRCLE
  5
1A9
330
1F
100
AcDbEntity
  8
0
  6
Continuous
 62
     7
370
    25
100
AcDbCircle
 10
7150.5961104968
 20
7314.9124619412
 30
0.0
 40
12.50000000000091
  0
LINE
  5
1AA
330
1F
100
AcDbEntity
  8
0
  6
Continuous
 62
     7
370
    25
100
AcDbLine
 10
7150.2061842615
 20
7320.1088557541
 30
0.0
 11
7150.2061842615
 21
7323.6545753986
 31
0.0
  0
ARC
  5
1AB
330
1F
100
AcDbEntity
  8
0
  6
Continuous
 62
     7
370
    25
100
AcDbCircle
 10
7148.5891413662
 20
7323.6545753986
 30
0.0
 40
1.617042895244595
100
AcDbArc
 50
0.0
 51
180.0
  0
LINE
  5
1AC
330
1F
100
AcDbEntity
  8
0
  6
Continuous
 62
     7
370
    25
100
AcDbLine
 10
7146.972098471
 20
7323.6545753986
 30
0.0
 11
7146.972098471
 21
7316.116123813
 31
0.0
  0
ARC
  5
1AD
330
1F
100
AcDbEntity
  8
0
  6
Continuous
 62
     7
370
    25
100
AcDbCircle
 10
7145.1270482078
 20
7314.3284950109
 30
0.0
 40
2.569012885871177
100
AcDbArc
 50
44.0944057146
 51
105.4941474424
  0
LINE
  5
1AE
330
1F
100
AcDbEntity
  8
0
  6
Continuous
 62
     7
370
    25
100
AcDbLine
 10
7144.4407622511
 20
7316.804144177
 30
0.0
 11
7144.4407622511
 21
7311.3830296115
 31
0.0
  0
ARC
  5
1AF
330
1F
100
AcDbEntity
  8
0
  6
Continuous
 62
     7
370
    25
100
AcDbCircle
 10
7150.7632925788
 20
7311.3830296115
 30
0.0
 40
6.322530327734057
100
AcDbArc
 50
180.0
 51
270.0
  0
LINE
  5
1B0
330
1F
100
AcDbEntity
  8
0
  6
Continuous
 62
     7
370
    25
100
AcDbLine
 10
7150.7632925788
 20
7305.0604992838
 30
0.0
 11
7153.1305169858
 21
7305.0604992838
 31
0.0
  0
ARC
  5
1B1
330
1F
100
AcDbEntity
  8
0
  6
Continuous
 62
     7
370
    25
100
AcDbCircle
 10
7153.1305169858
 20
7309.6160998344
 30
0.0
 40
4.555600550638701
100
AcDbArc
 50
270.0
 51
0.0
  0
LINE
  5
1B2
330
1F
100
AcDbEntity
  8
0
  6
Continuous
 62
     7
370
    25
100
AcDbLine
 10
7157.6861175365
 20
7309.6160998344
 30
0.0
 11
7157.6861175365
 21
7317.4528703627
 31
0.0
  0
ARC
  5
1B3
330
1F
100
AcDbEntity
  8
0
  6
Continuous
 62
     7
370
    25
100
AcDbCircle
 10
7156.3325062902
 20
7317.4528703627
 30
0.0
 40
1.353611246209766
100
AcDbArc
 50
0.0
 51
90.0
  0
LINE
  5
1B4
330
1F
100
AcDbEntity
  8
0
  6
Continuous
 62
     7
370
    25
100
AcDbLine
 10
7156.3325062902
 20
7318.8064816089
 30
0.0
 11
7155.8382808256
 21
7318.8064816089
 31
0.0
  0
ARC
  5
1B5
330
1F
100
AcDbEntity
  8
0
  6
Continuous
 62
     7
370
    25
100
AcDbCircle
 10
7155.8382808256
 20
7317.4528703627
 30
0.0
 40
1.353611246209766
100
AcDbArc
 50
90.0
 51
118.7365577358
  0
ARC
  5
1B6
330
1F
100
AcDbEntity
  8
0
  6
Continuous
 62
     7
370
    25
100
AcDbCircle
 10
7153.8550209558
 20
7318.4014502862
 30
0.0
 40
1.353611246208857
100
AcDbArc
 50
10.1404867648
 51
90.0
  0
LINE
  5
1B7
330
1F
100
AcDbEntity
  8
0
  6
Continuous
 62
     7
370
    25
100
AcDbLine
 10
7153.8550209558
 20
7319.7550615324
 30
0.0
 11
7153.2757036738
 21
7319.7550615324
 31
0.0
  0
ARC
  5
1B8
330
1F
100
AcDbEntity
  8
0
  6
Continuous
 62
     7
370
    25
100
AcDbCircle
 10
7153.2757036738
 20
7318.4014502862
 30
0.0
 40
1.353611246209766
100
AcDbArc
 50
90.0
 51
124.7440022271
  0
ARC
  5
1B9
330
1F
100
AcDbEntity
  8
0
  6
Continuous
 62
     7
370
    25
100
AcDbCircle
 10
7151.292443804
 20
7318.9106045214
 30
0.0
 40
1.353611246208857
100
AcDbArc
 50
26.4592691593
 51
90.0
  0
LINE
  5
1BA
330
1F
100
AcDbEntity
  8
0
  6
Continuous
 62
     7
370
    25
100
AcDbLine
 10
7151.292443804
 20
7320.2642157676
 30
0.0
 11
7150.835832885
 21
7320.2642157676
 31
0.0
  0
ARC
  5
1BB
330
1F
100
AcDbEntity
  8
0
  6
Continuous
 62
     7
370
    25
100
AcDbCircle
 10
7150.835832885
 20
7318.9106045214
 30
0.0
 40
1.353611246209766
100
AcDbArc
 50
90.0
 51
117.7207121261
  0
ARC
  5
1BC
330
1F
100
AcDbEntity
  8
0
  6
Continuous
 62
     7
370
    25
100
AcDbCircle
 10
7149.8442029501
 20
7315.9837351245
 30
0.0
 40
0.6676186886570576
100
AcDbArc
 50
180.0
 51
0.0
  0
LINE
  5
1BD
330
1F
100
AcDbEntity
  8
0
  6
Continuous
 62
     7
370
    25
100
AcDbLine
 10
7150.5118216388
 20
7318.9247666591
 30
0.0
 11
7150.5118216388
 21
7315.9837351245
 31
0.0
  0
ARC
  5
1BE
330
1F
100
AcDbEntity
  8
0
  6
Continuous
 62
     7
370
    25
100
AcDbCircle
 10
7150.7519317551
 20
7318.9247666591
 30
0.0
 40
0.2401101162877239
100
AcDbArc
 50
90.0
 51
180.0
  0
LINE
  5
1BF
330
1F
100
AcDbEntity
  8
0
  6
Continuous
 62
     7
370
    25
100
AcDbLine
 10
7151.376344934
 20
7319.1648767754
 30
0.0
 11
7150.7519317551
 21
7319.1648767754
 31
0.0
  0
ARC
  5
1C0
330
1F
100
AcDbEntity
  8
0
  6
Continuous
 62
     7
370
    25
100
AcDbCircle
 10
7151.376344934
 20
7318.9247666591
 30
0.0
 40
0.2401101162886334
100
AcDbArc
 50
0.0
 51
89.9999999998
  0
LINE
  5
1C1
330
1F
100
AcDbEntity
  8
0
  6
Continuous
 62
     7
370
    25
100
AcDbLine
 10
7151.6164550502
 20
7315.9837351245
 30
0.0
 11
7151.6164550502
 21
7318.9247666591
 31
0.0
  0
ARC
  5
1C2
330
1F
100
AcDbEntity
  8
0
  6
Continuous
 62
     7
370
    25
100
AcDbCircle
 10
7152.2840737389
 20
7315.9837351245
 30
0.0
 40
0.6676186886570576
100
AcDbArc
 50
180.0
 51
0.0
  0
LINE
  5
1C3
330
1F
100
AcDbEntity
  8
0
  6
Continuous
 62
     7
370
    25
100
AcDbLine
 10
7152.9516924276
 20
7318.4156124239
 30
0.0
 11
7152.9516924276
 21
7315.9837351245
 31
0.0
  0
ARC
  5
1C4
330
1F
100
AcDbEntity
  8
0
  6
Continuous
 62
     7
370
    25
100
AcDbCircle
 10
7153.1918025438
 20
7318.4156124239
 30
0.0
 40
0.2401101162877239
100
AcDbArc
 50
90.0
 51
180.0
  0
LINE
  5
1C5
330
1F
100
AcDbEntity
  8
0
  6
Continuous
 62
     7
370
    25
100
AcDbLine
 10
7153.9389220857
 20
7318.6557225402
 30
0.0
 11
7153.1918025438
 21
7318.6557225402
 31
0.0
  0
ARC
  5
1C6
330
1F
100
AcDbEntity
  8
0
  6
Continuous
 62
     7
370
    25
100
AcDbCircle
 10
7153.9389220857
 20
7318.4156124239
 30
0.0
 40
0.2401101162886334
100
AcDbArc
 50
0.0
 51
90.0
  0
LINE
  5
1C7
330
1F
100
AcDbEntity
  8
0
  6
Continuous
 62
     7
370
    25
100
AcDbLine
 10
7154.179032202
 20
7315.9837351245
 30
0.0
 11
7154.179032202
 21
7318.4156124239
 31
0.0
  0
ARC
  5
1C8
330
1F
100
AcDbEntity
  8
0
  6
Continuous
 62
     7
370
    25
100
AcDbCircle
 10
7154.8466508907
 20
7315.9837351245
 30
0.0
 40
0.6676186886570576
100
AcDbArc
 50
180.0
 51
0.0
  0
LINE
  5
1C9
330
1F
100
AcDbEntity
  8
0
  6
Continuous
 62
     7
370
    25
100
AcDbLine
 10
7155.5142695793
 20
7317.4992621153
 30
0.0
 11
7155.5142695793
 21
7315.9837351245
 31
0.0
  0
ARC
  5
1CA
330
1F
100
AcDbEntity
  8
0
  6
Continuous
 62
     7
370
    25
100
AcDbCircle
 10
7155.7543796956
 20
7317.4992621153
 30
0.0
 40
0.2401101162877239
100
AcDbArc
 50
90.0
 51
180.0
  0
LINE
  5
1CB
330
1F
100
AcDbEntity
  8
0
  6
Continuous
 62
     7
370
    25
100
AcDbLine
 10
7156.4164074202
 20
7317.7393722316
 30
0.0
 11
7155.7543796956
 21
7317.7393722316
 31
0.0
  0
ARC
  5
1CC
330
1F
100
AcDbEntity
  8
0
  6
Continuous
 62
     7
370
    25
100
AcDbCircle
 10
7156.4164074202
 20
7317.4992621153
 30
0.0
 40
0.2401101162877239
100
AcDbArc
 50
0.0
 51
90.0
  0
LINE
  5
1CD
330
1F
100
AcDbEntity
  8
0
  6
Continuous
 62
     7
370
    25
100
AcDbLine
 10
7156.6565175365
 20
7309.6160998344
 30
0.0
 11
7156.6565175365
 21
7317.4992621153
 31
0.0
  0
ARC
  5
1CE
330
1F
100
AcDbEntity
  8
0
  6
Continuous
 62
     7
370
    25
100
AcDbCircle
 10
7153.1305169858
 20
7309.6160998344
 30
0.0
 40
3.526000550638855
100
AcDbArc
 50
270.0
 51
0.0
  0
LINE
  5
1CF
330
1F
100
AcDbEntity
  8
0
  6
Continuous
 62
     7
370
    25
100
AcDbLine
 10
7150.7632925788
 20
7306.0900992838
 30
0.0
 11
7153.1305169858
 21
7306.0900992838
 31
0.0
  0
ARC
  5
1D0
330
1F
100
AcDbEntity
  8
0
  6
Continuous
 62
     7
370
    25
100
AcDbCircle
 10
7150.7632925788
 20
7311.3830296115
 30
0.0
 40
5.292930327734211
100
AcDbArc
 50
180.0
 51
270.0
  0
LINE
  5
1D1
330
1F
100
AcDbEntity
  8
0
  6
Continuous
 62
     7
370
    25
100
AcDbLine
 10
7145.4703622511
 20
7315.8291373736
 30
0.0
 11
7145.4703622511
 21
7311.3830296115
 31
0.0
  0
ARC
  5
1D2
330
1F
100
AcDbEntity
  8
0
  6
Continuous
 62
     7
370
    25
100
AcDbCircle
 10
7145.1270482078
 20
7314.3284950109
 30
0.0
 40
1.539412885870834
100
AcDbArc
 50
0.0
 51
77.1137478469
  0
LINE
  5
1D3
330
1F
100
AcDbEntity
  8
0
  6
Continuous
 62
     7
370
    25
100
AcDbLine
 10
7146.6664610937
 20
7312.3740741289
 30
0.0
 11
7146.6664610937
 21
7314.3284950109
 31
0.0
  0
ARC
  5
1D4
330
1F
100
AcDbEntity
  8
0
  6
Continuous
 62
     7
370
    25
100
AcDbCircle
 10
7147.3340797823
 20
7312.3740741289
 30
0.0
 40
0.6676186886570576
100
AcDbArc
 50
180.0
 51
0.0
  0
LINE
  5
1D5
330
1F
100
AcDbEntity
  8
0
  6
Continuous
 62
     7
370
    25
100
AcDbLine
 10
7148.001698471
 20
7323.6545753986
 30
0.0
 11
7148.001698471
 21
7312.3740741289
 31
0.0
  0
LINE
  5
1D6
330
1F
100
AcDbEntity
  8
0
  6
Continuous
 62
     7
370
    25
100
AcDbLine
 10
7149.1765842615
 20
7315.9837351245
 30
0.0
 11
7149.1765842615
 21
7323.6545753986
 31
0.0
  0
ARC
  5
1D7
330
1F
100
AcDbEntity
  8
0
  6
Continuous
 62
     7
370
    25
100
AcDbCircle
 10
7148.5891413662
 20
7323.6545753986
 30
0.0
 40
0.5874428952447488
100
AcDbArc
 50
0.0
 51
180.0
  0
CIRCLE
  5
1D8
330
1F
100
AcDbEntity
  8
0
  6
Continuous
 62
     7
370
    25
100
AcDbCircle
 10
7150.5961104968
 20
7314.9124619412
 30
0.0
 40
14.00000000000091
  0
LINE
  5
1D9
330
1F
100
AcDbEntity
  8
0
  6
Continuous
 62
     7
370
    25
100
AcDbLine
 10
5832.0961104968
 20
7300.9124619411
 30
0.0
 11
5829.0961104968
 21
7300.9124619411
 31
0.0
  0
LINE
  5
1DA
330
1F
100
AcDbEntity
  8
0
  6
Continuous
 62
     7
370
    25
100
AcDbLine
 10
6432.0961104968
 20
7300.9124619411
 30
0.0
 11
6429.0961104968
 21
7300.9124619411
 31
0.0
  0
LINE
  5
1DB
330
1F
100
AcDbEntity
  8
0
  6
Continuous
 62
     7
370
    25
100
AcDbLine
 10
7032.0961104968
 20
7300.9124619411
 30
0.0
 11
7029.0961104968
 21
7300.9124619411
 31
0.0
  0
ARC
  5
1DC
330
1F
100
AcDbEntity
  8
0
  6
Continuous
 62
     7
370
    25
100
AcDbCircle
 10
5830.7057233695
 20
7337.0544505592
 30
0.0
 40
32.33234845700679
100
AcDbArc
 50
270.3195445578
 51
277.00524986
  0
ARC
  5
1DD
330
1F
100
AcDbEntity
  8
0
  6
Continuous
 62
     7
370
    25
100
AcDbCircle
 10
5832.5050869675
 20
7322.6417813475
 30
0.0
 40
18.764404610873
100
AcDbArc
 50
277.5095473836
 51
284.9272291805
  0
LINE
  5
1DE
330
1F
100
AcDbEntity
  8
0
  6
Continuous
 62
     7
370
    25
100
AcDbLine
 10
5837.3386479221
 20
7305.4765304635
 30
0.0
 11
5837.3386479221
 21
7304.5106046372
 31
0.0
  0
ARC
  5
1DF
330
1F
100
AcDbEntity
  8
0
  6
Continuous
 62
     7
370
    25
100
AcDbCircle
 10
5835.463551135
 20
7312.8533061772
 30
0.0
 40
7.611360449440371
100
AcDbArc
 50
284.2619248086
 51
297.2228497749
  0
ARC
  5
1E0
330
1F
100
AcDbEntity
  8
0
  6
Continuous
 62
     7
370
    25
100
AcDbCircle
 10
5838.9390102642
 20
7306.2005284627
 30
0.0
 40
0.9028767270856933
100
AcDbArc
 50
304.3231205498
 51
1.5289520688
  0
LINE
  5
1E1
330
1F
100
AcDbEntity
  8
0
  6
Continuous
 62
     7
370
    25
100
AcDbLine
 10
5839.84156554
 20
7306.8283227338
 30
0.0
 11
5839.84156554
 21
7306.2246190924
 31
0.0
  0
LINE
  5
1E2
330
1F
100
AcDbEntity
  8
0
  6
Continuous
 62
     7
370
    25
100
AcDbLine
 10
5838.7533995025
 20
7307.5900240457
 30
0.0
 11
5838.7533995025
 21
7307.2783723426
 31
0.0
  0
ARC
  5
1E3
330
1F
100
AcDbEntity
  8
0
  6
Continuous
 62
     7
370
    25
100
AcDbCircle
 10
5834.8646065718
 20
7298.7738602553
 30
0.0
 40
9.351440332953635
100
AcDbArc
 50
65.4271673511
 51
77.248897428
  0
LINE
  5
1E4
330
1F
100
AcDbEntity
  8
0
  6
Continuous
 62
     7
370
    25
100
AcDbLine
 10
5836.9286209839
 20
7308.1107192936
 30
0.0
 11
5836.9286209839
 21
7307.8946760526
 31
0.0
  0
LINE
  5
1E5
330
1F
100
AcDbEntity
  8
0
  6
Continuous
 62
     7
370
    25
100
AcDbLine
 10
5833.2802639816
 20
7308.6091899401
 30
0.0
 11
5833.2802639816
 21
7308.4406439149
 31
0.0
  0
ARC
  5
1E6
330
1F
100
AcDbEntity
  8
0
  6
Continuous
 62
     7
370
    25
100
AcDbCircle
 10
5830.6092971999
 20
7273.9150895491
 30
0.0
 40
34.6287159423074
100
AcDbArc
 50
85.5762935841
 51
90.5015401573
  0
LINE
  5
1E7
330
1F
100
AcDbEntity
  8
0
  6
Continuous
 62
     7
370
    25
100
AcDbLine
 10
5830.3061776684
 20
7308.7043151875
 30
0.0
 11
5830.3061776684
 21
7308.5424788004
 31
0.0
  0
LINE
  5
1E8
330
1F
100
AcDbEntity
  8
0
  6
Continuous
 62
     7
370
    25
100
AcDbLine
 10
5826.2347877528
 20
7308.4426410404
 30
0.0
 11
5826.2347877528
 21
7308.2608407057
 31
0.0
  0
ARC
  5
1E9
330
1F
100
AcDbEntity
  8
0
  6
Continuous
 62
     7
370
    25
100
AcDbCircle
 10
5828.6871340262
 20
7289.6573765617
 30
0.0
 40
18.76440461090827
100
AcDbArc
 50
97.5095473836
 51
104.9272291805
  0
LINE
  5
1EA
330
1F
100
AcDbEntity
  8
0
  6
Continuous
 62
     7
370
    25
100
AcDbLine
 10
5823.8535730716
 20
7308.0169151216
 30
0.0
 11
5823.8535730716
 21
7307.788553272
 31
0.0
  0
LINE
  5
1EB
330
1F
100
AcDbEntity
  8
0
  6
Continuous
 62
     7
370
    25
100
AcDbLine
 10
5821.7441152376
 20
7307.2824203336
 30
0.0
 11
5821.7441152376
 21
7306.8442889964
 31
0.0
  0
ARC
  5
1EC
330
1F
100
AcDbEntity
  8
0
  6
Continuous
 62
     7
370
    25
100
AcDbCircle
 10
5822.2532107295
 20
7306.0986294465
 30
0.0
 40
0.9028767270882372
100
AcDbArc
 50
124.3231205499
 51
181.5289520686
  0
ARC
  5
1ED
330
1F
100
AcDbEntity
  8
0
  6
Continuous
 62
     7
370
    25
100
AcDbCircle
 10
5823.9478239846
 20
7309.2010634239
 30
0.0
 40
3.550936144830996
100
AcDbArc
 50
233.8550182226
 51
244.8519277992
  0
LINE
  5
1EE
330
1F
100
AcDbEntity
  8
0
  6
Continuous
 62
     7
370
    25
100
AcDbLine
 10
5822.4388214912
 20
7305.9867113929
 30
0.0
 11
5822.4388214912
 21
7305.0207855666
 31
0.0
  0
ARC
  5
1EF
330
1F
100
AcDbEntity
  8
0
  6
Continuous
 62
     7
370
    25
100
AcDbCircle
 10
5826.3276144219
 20
7313.5252976537
 30
0.0
 40
9.351440332829071
100
AcDbArc
 50
245.427167351
 51
257.2488974281
  0
ARC
  5
1F0
330
1F
100
AcDbEntity
  8
0
  6
Continuous
 62
     7
370
    25
100
AcDbCircle
 10
5829.656309935
 20
7329.1426250648
 30
0.0
 40
24.38066653495175
100
AcDbArc
 50
258.1893005351
 51
265.8971784142
  0
LINE
  5
1F1
330
1F
100
AcDbEntity
  8
0
  6
Continuous
 62
     7
370
    25
100
AcDbLine
 10
5827.9119570121
 20
7304.8244398206
 30
0.0
 11
5827.9119570121
 21
7303.8585139943
 31
0.0
  0
ARC
  5
1F2
330
1F
100
AcDbEntity
  8
0
  6
Continuous
 62
     7
370
    25
100
AcDbCircle
 10
5830.5829237938
 20
7338.3840683593
 30
0.0
 40
34.62871594149449
100
AcDbArc
 50
265.5762935841
 51
270.5015401574
  0
LWPOLYLINE
  5
1F3
330
1F
100
AcDbEntity
  8
0
  6
Continuous
 62
     7
370
    25
100
AcDbPolyline
 90
        6
 70
   128
 43
0.0
 10
5824.0477701235
 20
7305.8167143382
 10
5823.1475369071
 20
7306.1974720781
 10
5822.5728420989
 20
7306.6183522523
 10
5822.3488026195
 20
7307.0609603777
 10
5822.4852100694
 20
7307.5059523552
 10
5822.6126069901
 20
7307.6538341942
  0
LWPOLYLINE
  5
1F4
330
1F
100
AcDbEntity
  8
0
  6
Continuous
 62
     7
370
    25
100
AcDbPolyline
 90
       14
 70
   128
 43
0.0
 10
5838.7533995025
 20
7307.4347175562
 10
5838.8434183741
 20
7307.1700491841
 10
5838.7070109243
 20
7306.7250572066
 10
5838.2161182053
 20
7306.2971296617
 10
5837.3921945847
 20
7305.9049690365
 10
5836.2712494781
 20
7305.5657146321
 10
5834.9022735658
 20
7305.2941934939
 10
5833.3450976641
 20
7305.1022723986
 10
5831.667777832
 20
7304.998339219
 10
5829.943620995
 20
7304.9869363337
 10
5828.2479810802
 20
7305.0685621036
 10
5826.6549656885
 20
7305.2396490907
 10
5825.2341972366
 20
7305.4927199729
 10
5824.0477701235
 20
7305.8167143382
  0
LINE
  5
1F5
330
1F
100
AcDbEntity
  8
0
  6
Continuous
 62
     7
370
    25
100
AcDbLine
 10
5839.3388474952
 20
7307.2077583514
 30
0.0
 11
5839.6006586477
 21
7307.1987937465
 31
0.0
  0
ARC
  5
1F6
330
1F
100
AcDbEntity
  8
0
  6
Continuous
 62
     7
370
    25
100
AcDbCircle
 10
5838.3555015473
 20
7307.2594728604
 30
0.0
 40
1.011320879472614
100
AcDbArc
 50
305.6817763791
 51
346.4922228012
  0
LINE
  5
1F7
330
1F
100
AcDbEntity
  8
0
  6
Continuous
 62
     7
370
    25
100
AcDbLine
 10
5837.3386479221
 20
7305.4765304635
 30
0.0
 11
5837.0302005563
 21
7305.5807059862
 31
0.0
  0
ARC
  5
1F8
330
1F
100
AcDbEntity
  8
0
  6
Continuous
 62
     7
370
    25
100
AcDbCircle
 10
5832.398176248
 20
7322.6957599143
 30
0.0
 40
17.73078453302703
100
AcDbArc
 50
277.2930101399
 51
285.1437664243
  0
ARC
  5
1F9
330
1F
100
AcDbEntity
  8
0
  6
Continuous
 62
     7
370
    25
100
AcDbCircle
 10
5830.5843402682
 20
7337.5791219339
 30
0.0
 40
32.72847533113082
100
AcDbArc
 50
265.4332158269
 51
270.6446179145
  0
LINE
  5
1FA
330
1F
100
AcDbEntity
  8
0
  6
Continuous
 62
     7
370
    25
100
AcDbLine
 10
5827.9784646088
 20
7304.9545528249
 30
0.0
 11
5827.9119570121
 21
7304.8244398206
 31
0.0
  0
ARC
  5
1FB
330
1F
100
AcDbEntity
  8
0
  6
Continuous
 62
     7
370
    25
100
AcDbCircle
 10
5826.5636437408
 20
7314.0781521799
 30
0.0
 40
8.834111884749067
100
AcDbArc
 50
245.0796807338
 51
257.5963840453
  0
LINE
  5
1FC
330
1F
100
AcDbEntity
  8
0
  6
Continuous
 62
     7
370
    25
100
AcDbLine
 10
5822.4388214912
 20
7305.9867113929
 30
0.0
 11
5822.8413248023
 21
7306.0665434456
 31
0.0
  0
LWPOLYLINE
  5
1FD
330
1F
100
AcDbEntity
  8
0
  6
Continuous
 62
     7
370
    25
100
AcDbPolyline
 90
        3
 70
   128
 43
0.0
 10
5823.0961104968
 20
7307.1918872081
 10
5822.5728420989
 20
7307.5842780786
 10
5822.5358258706
 20
7307.6261509313
  0
LINE
  5
1FE
330
1F
100
AcDbEntity
  8
0
  6
Continuous
 62
     7
370
    25
100
AcDbLine
 10
5838.2158276756
 20
7307.2628742999
 30
0.0
 11
5838.0961104968
 21
7307.1918872081
 31
0.0
  0
LINE
  5
1FF
330
1F
100
AcDbEntity
  8
0
  6
Continuous
 62
     7
370
    25
100
AcDbLine
 10
5833.2137563848
 20
7308.3105309106
 30
0.0
 11
5833.2802639816
 21
7308.4406439149
 31
0.0
  0
ARC
  5
200
330
1F
100
AcDbEntity
  8
0
  6
Continuous
 62
     7
370
    25
100
AcDbCircle
 10
5830.6078807255
 20
7275.6859618016
 30
0.0
 40
32.728475331119
100
AcDbArc
 50
85.4332158269
 51
90.6446179145
  0
LINE
  5
201
330
1F
100
AcDbEntity
  8
0
  6
Continuous
 62
     7
370
    25
100
AcDbLine
 10
5830.2396700716
 20
7308.4123657961
 30
0.0
 11
5830.3061776684
 21
7308.5424788004
 31
0.0
  0
LWPOLYLINE
  5
202
330
1F
100
AcDbEntity
  8
0
  6
Continuous
 62
     7
370
    25
100
AcDbPolyline
 90
        7
 70
   128
 43
0.0
 10
5824.6430737938
 20
7305.9347861966
 10
5823.8015688802
 20
7306.2936084406
 10
5823.277769181
 20
7306.6908616439
 10
5823.0961669879
 20
7307.1079706884
 10
5823.2652538177
 20
7307.5254320187
 10
5823.7771233582
 20
7307.9237256069
 10
5823.8535730716
 20
7307.965605738
  0
LWPOLYLINE
  5
203
330
1F
100
AcDbEntity
  8
0
  6
Continuous
 62
     7
370
    25
100
AcDbPolyline
 90
       14
 70
   128
 43
0.0
 10
5838.0471778714
 20
7307.3368813176
 10
5838.0489417252
 20
7307.3328675857
 10
5838.0552363059
 20
7306.9131218307
 10
5837.712750454
 20
7306.5028392775
 10
5837.0374984273
 20
7306.1212042824
 10
5836.06105426
 20
7305.7860616735
 10
5834.8290753962
 20
7305.5130823467
 10
5833.3991677984
 20
7305.3150305119
 10
5831.8381923564
 20
7305.2011668529
 10
5830.2191385472
 20
7305.1768155078
 10
5828.6177115274
 20
7305.2431151184
 10
5827.1087922446
 20
7305.3969655886
 10
5825.7629360873
 20
7305.6311730414
 10
5824.6430737938
 20
7305.9347861966
  0
LINE
  5
204
330
1F
100
AcDbEntity
  8
0
  6
Continuous
 62
     7
370
    25
100
AcDbLine
 10
5830.2396700716
 20
7308.7037515253
 30
0.0
 11
5830.2396700716
 21
7308.4123657961
 31
0.0
  0
LINE
  5
205
330
1F
100
AcDbEntity
  8
0
  6
Continuous
 62
     7
370
    25
100
AcDbLine
 10
5826.2347877528
 20
7308.2608407057
 30
0.0
 11
5826.5432351186
 21
7308.156665183
 31
0.0
  0
ARC
  5
206
330
1F
100
AcDbEntity
  8
0
  6
Continuous
 62
     7
370
    25
100
AcDbCircle
 10
5828.7940447457
 20
7290.569323821
 30
0.0
 40
17.73078453322258
100
AcDbArc
 50
97.2930101399
 51
105.1437664242
  0
LINE
  5
207
330
1F
100
AcDbEntity
  8
0
  6
Continuous
 62
     7
370
    25
100
AcDbLine
 10
5823.8535730716
 20
7307.788553272
 30
0.0
 11
5824.1620204374
 21
7307.6843777493
 31
0.0
  0
LINE
  5
208
330
1F
100
AcDbEntity
  8
0
  6
Continuous
 62
     7
370
    25
100
AcDbLine
 10
5826.5432351186
 20
7308.4802415984
 30
0.0
 11
5826.5432351186
 21
7308.156665183
 31
0.0
  0
LINE
  5
209
330
1F
100
AcDbEntity
  8
0
  6
Continuous
 62
     7
370
    25
100
AcDbLine
 10
5836.9286209839
 20
7307.8946760526
 30
0.0
 11
5836.5261176728
 21
7307.8148439999
 31
0.0
  0
LINE
  5
20A
330
1F
100
AcDbEntity
  8
0
  6
Continuous
 62
     7
370
    25
100
AcDbLine
 10
5838.7533995025
 20
7307.2783723426
 30
0.0
 11
5838.3508961914
 21
7307.1985402899
 31
0.0
  0
ARC
  5
20B
330
1F
100
AcDbEntity
  8
0
  6
Continuous
 62
     7
370
    25
100
AcDbCircle
 10
5834.6285772529
 20
7299.1869315555
 30
0.0
 40
8.834111884759439
100
AcDbArc
 50
65.0796807338
 51
77.5963840453
  0
LINE
  5
20C
330
1F
100
AcDbEntity
  8
0
  6
Continuous
 62
     7
370
    25
100
AcDbLine
 10
5836.5261176728
 20
7308.1932768045
 30
0.0
 11
5836.5261176728
 21
7307.8148439999
 31
0.0
  0
LINE
  5
20D
330
1F
100
AcDbEntity
  8
0
  6
Continuous
 62
     7
370
    25
100
AcDbLine
 10
5822.2468332823
 20
7307.5143481241
 30
0.0
 11
5822.2468332823
 21
7306.8270755638
 31
0.0
  0
LINE
  5
20E
330
1F
100
AcDbEntity
  8
0
  6
Continuous
 62
     7
370
    25
100
AcDbLine
 10
5822.2468332823
 20
7306.8270755638
 30
0.0
 11
5821.7441152376
 21
7306.8442889964
 31
0.0
  0
ARC
  5
20F
330
1F
100
AcDbEntity
  8
0
  6
Continuous
 62
     7
370
    25
100
AcDbCircle
 10
5822.711546195
 20
7306.1041022833
 30
0.0
 40
0.8594465983340117
100
AcDbArc
 50
122.7321069522
 51
183.1199656664
  0
LINE
  5
210
330
1F
100
AcDbEntity
  8
0
  6
Continuous
 62
     7
370
    25
100
AcDbLine
 10
5821.8533734984
 20
7306.0573253841
 30
0.0
 11
5821.3506554537
 21
7306.0745388168
 31
0.0
  0
LINE
  5
211
330
1F
100
AcDbEntity
  8
0
  6
Continuous
 62
     7
370
    25
100
AcDbLine
 10
5821.8533734984
 20
7306.2418325251
 30
0.0
 11
5821.8533734984
 21
7306.0573253841
 31
0.0
  0
LINE
  5
212
330
1F
100
AcDbEntity
  8
0
  6
Continuous
 62
     7
370
    25
100
AcDbLine
 10
5839.3388474952
 20
7307.2077583514
 30
0.0
 11
5839.3388474952
 21
7306.2418325251
 31
0.0
  0
LINE
  5
213
330
1F
100
AcDbEntity
  8
0
  6
Continuous
 62
     7
370
    25
100
AcDbLine
 10
5839.3388474952
 20
7306.2418325251
 30
0.0
 11
5839.84156554
 21
7306.2246190924
 31
0.0
  0
ARC
  5
214
330
1F
100
AcDbEntity
  8
0
  6
Continuous
 62
     7
370
    25
100
AcDbCircle
 10
5838.4806747987
 20
7306.1950556259
 30
0.0
 40
0.8594465983380007
100
AcDbArc
 50
302.7321069524
 51
3.1199656663
  0
LINE
  5
215
330
1F
100
AcDbEntity
  8
0
  6
Continuous
 62
     7
370
    25
100
AcDbLine
 10
5838.9453877114
 20
7305.4720823455
 30
0.0
 11
5839.4481057561
 21
7305.4548689128
 31
0.0
  0
LINE
  5
216
330
1F
100
AcDbEntity
  8
0
  6
Continuous
 62
     7
370
    25
100
AcDbLine
 10
5838.9453877114
 20
7306.4380081717
 30
0.0
 11
5838.9453877114
 21
7305.4720823455
 31
0.0
  0
LINE
  5
217
330
1F
100
AcDbEntity
  8
0
  6
Continuous
 62
     7
370
    25
100
AcDbLine
 10
5822.8413248023
 20
7306.0665434456
 30
0.0
 11
5822.8413248023
 21
7305.1006176193
 31
0.0
  0
LINE
  5
218
330
1F
100
AcDbEntity
  8
0
  6
Continuous
 62
     7
370
    25
100
AcDbLine
 10
5822.4388214912
 20
7305.0207855666
 30
0.0
 11
5822.8413248023
 21
7305.1006176193
 31
0.0
  0
ARC
  5
219
330
1F
100
AcDbEntity
  8
0
  6
Continuous
 62
     7
370
    25
100
AcDbCircle
 10
5826.5636437407
 20
7313.1122263536
 30
0.0
 40
8.834111884696803
100
AcDbArc
 50
245.0796807338
 51
257.5963840454
  0
LINE
  5
21A
330
1F
100
AcDbEntity
  8
0
  6
Continuous
 62
     7
370
    25
100
AcDbLine
 10
5824.6661033209
 20
7305.4502397356
 30
0.0
 11
5824.6661033209
 21
7304.4843139093
 31
0.0
  0
LINE
  5
21B
330
1F
100
AcDbEntity
  8
0
  6
Continuous
 62
     7
370
    25
100
AcDbLine
 10
5824.2636000098
 20
7304.4044818566
 30
0.0
 11
5824.6661033209
 21
7304.4843139093
 31
0.0
  0
LINE
  5
21C
330
1F
100
AcDbEntity
  8
0
  6
Continuous
 62
     7
370
    25
100
AcDbLine
 10
5837.0302005563
 20
7305.5807059862
 30
0.0
 11
5837.0302005563
 21
7304.6147801599
 31
0.0
  0
LINE
  5
21D
330
1F
100
AcDbEntity
  8
0
  6
Continuous
 62
     7
370
    25
100
AcDbLine
 10
5837.3386479221
 20
7304.5106046372
 30
0.0
 11
5837.0302005563
 21
7304.6147801599
 31
0.0
  0
ARC
  5
21E
330
1F
100
AcDbEntity
  8
0
  6
Continuous
 62
     7
370
    25
100
AcDbCircle
 10
5832.398176248
 20
7321.7298340882
 30
0.0
 40
17.73078453322246
100
AcDbArc
 50
277.2930101399
 51
285.1437664242
  0
LINE
  5
21F
330
1F
100
AcDbEntity
  8
0
  6
Continuous
 62
     7
370
    25
100
AcDbLine
 10
5834.6489858751
 20
7305.1084185525
 30
0.0
 11
5834.6489858751
 21
7304.1424927262
 31
0.0
  0
LINE
  5
220
330
1F
100
AcDbEntity
  8
0
  6
Continuous
 62
     7
370
    25
100
AcDbLine
 10
5834.9574332409
 20
7304.0383172035
 30
0.0
 11
5834.6489858751
 21
7304.1424927262
 31
0.0
  0
LINE
  5
221
330
1F
100
AcDbEntity
  8
0
  6
Continuous
 62
     7
370
    25
100
AcDbLine
 10
5827.9784646088
 20
7304.9545528249
 30
0.0
 11
5827.9784646088
 21
7303.9886269986
 31
0.0
  0
LINE
  5
222
330
1F
100
AcDbEntity
  8
0
  6
Continuous
 62
     7
370
    25
100
AcDbLine
 10
5830.9525509221
 20
7304.8527179394
 30
0.0
 11
5830.9525509221
 21
7303.8867921131
 31
0.0
  0
ARC
  5
223
330
1F
100
AcDbEntity
  8
0
  6
Continuous
 62
     7
370
    25
100
AcDbCircle
 10
5830.5843402682
 20
7336.6131961076
 30
0.0
 40
32.72847533113255
100
AcDbArc
 50
265.4332158269
 51
270.6446179145
  0
LINE
  5
224
330
1F
100
AcDbEntity
  8
0
  6
Continuous
 62
     7
370
    25
100
AcDbLine
 10
5827.9784646088
 20
7303.9886269986
 30
0.0
 11
5827.9119570121
 21
7303.8585139943
 31
0.0
  0
LINE
  5
225
330
1F
100
AcDbEntity
  8
0
  6
Continuous
 62
     7
370
    25
100
AcDbLine
 10
5830.9525509221
 20
7303.8867921131
 30
0.0
 11
5830.8860433253
 21
7303.7566791088
 31
0.0
  0
ARC
  5
226
330
1F
100
AcDbEntity
  8
0
  6
Continuous
 62
     7
370
    25
100
AcDbCircle
 10
6430.7057233695
 20
7337.0544505594
 30
0.0
 40
32.33234845720685
100
AcDbArc
 50
270.3195445578
 51
277.00524986
  0
ARC
  5
227
330
1F
100
AcDbEntity
  8
0
  6
Continuous
 62
     7
370
    25
100
AcDbCircle
 10
6432.5050869675
 20
7322.6417813472
 30
0.0
 40
18.7644046106093
100
AcDbArc
 50
277.5095473836
 51
284.9272291806
  0
LINE
  5
228
330
1F
100
AcDbEntity
  8
0
  6
Continuous
 62
     7
370
    25
100
AcDbLine
 10
6437.3386479221
 20
7305.4765304635
 30
0.0
 11
6437.3386479221
 21
7304.5106046372
 31
0.0
  0
ARC
  5
229
330
1F
100
AcDbEntity
  8
0
  6
Continuous
 62
     7
370
    25
100
AcDbCircle
 10
6435.4635511349
 20
7312.8533061774
 30
0.0
 40
7.611360449619923
100
AcDbArc
 50
284.2619248088
 51
297.2228497748
  0
ARC
  5
22A
330
1F
100
AcDbEntity
  8
0
  6
Continuous
 62
     7
370
    25
100
AcDbCircle
 10
6438.9390102642
 20
7306.2005284627
 30
0.0
 40
0.902876727090765
100
AcDbArc
 50
304.3231205499
 51
1.5289520686
  0
LINE
  5
22B
330
1F
100
AcDbEntity
  8
0
  6
Continuous
 62
     7
370
    25
100
AcDbLine
 10
6439.84156554
 20
7306.8283227338
 30
0.0
 11
6439.84156554
 21
7306.2246190924
 31
0.0
  0
LINE
  5
22C
330
1F
100
AcDbEntity
  8
0
  6
Continuous
 62
     7
370
    25
100
AcDbLine
 10
6438.7533995025
 20
7307.5900240457
 30
0.0
 11
6438.7533995025
 21
7307.2783723426
 31
0.0
  0
ARC
  5
22D
330
1F
100
AcDbEntity
  8
0
  6
Continuous
 62
     7
370
    25
100
AcDbCircle
 10
6434.8646065718
 20
7298.7738602554
 30
0.0
 40
9.351440332873976
100
AcDbArc
 50
65.4271673511
 51
77.248897428
  0
LINE
  5
22E
330
1F
100
AcDbEntity
  8
0
  6
Continuous
 62
     7
370
    25
100
AcDbLine
 10
6436.9286209839
 20
7308.1107192936
 30
0.0
 11
6436.9286209839
 21
7307.8946760526
 31
0.0
  0
LINE
  5
22F
330
1F
100
AcDbEntity
  8
0
  6
Continuous
 62
     7
370
    25
100
AcDbLine
 10
6433.2802639816
 20
7308.6091899401
 30
0.0
 11
6433.2802639816
 21
7308.4406439149
 31
0.0
  0
ARC
  5
230
330
1F
100
AcDbEntity
  8
0
  6
Continuous
 62
     7
370
    25
100
AcDbCircle
 10
6430.6092971999
 20
7273.9150895499
 30
0.0
 40
34.62871594146819
100
AcDbArc
 50
85.5762935841
 51
90.5015401574
  0
LINE
  5
231
330
1F
100
AcDbEntity
  8
0
  6
Continuous
 62
     7
370
    25
100
AcDbLine
 10
6430.3061776683
 20
7308.7043151875
 30
0.0
 11
6430.3061776683
 21
7308.5424788004
 31
0.0
  0
LINE
  5
232
330
1F
100
AcDbEntity
  8
0
  6
Continuous
 62
     7
370
    25
100
AcDbLine
 10
6426.2347877528
 20
7308.4426410404
 30
0.0
 11
6426.2347877528
 21
7308.2608407057
 31
0.0
  0
ARC
  5
233
330
1F
100
AcDbEntity
  8
0
  6
Continuous
 62
     7
370
    25
100
AcDbCircle
 10
6428.6871340262
 20
7289.6573765617
 30
0.0
 40
18.76440461090917
100
AcDbArc
 50
97.5095473836
 51
104.9272291805
  0
LINE
  5
234
330
1F
100
AcDbEntity
  8
0
  6
Continuous
 62
     7
370
    25
100
AcDbLine
 10
6423.8535730716
 20
7308.0169151216
 30
0.0
 11
6423.8535730716
 21
7307.788553272
 31
0.0
  0
LINE
  5
235
330
1F
100
AcDbEntity
  8
0
  6
Continuous
 62
     7
370
    25
100
AcDbLine
 10
6421.7441152376
 20
7307.2824203336
 30
0.0
 11
6421.7441152376
 21
7306.8442889964
 31
0.0
  0
ARC
  5
236
330
1F
100
AcDbEntity
  8
0
  6
Continuous
 62
     7
370
    25
100
AcDbCircle
 10
6422.2532107295
 20
7306.0986294465
 30
0.0
 40
0.9028767270882372
100
AcDbArc
 50
124.3231205499
 51
181.5289520687
  0
ARC
  5
237
330
1F
100
AcDbEntity
  8
0
  6
Continuous
 62
     7
370
    25
100
AcDbCircle
 10
6423.9478239845
 20
7309.2010634238
 30
0.0
 40
3.55093614463656
100
AcDbArc
 50
233.8550182223
 51
244.8519277995
  0
LINE
  5
238
330
1F
100
AcDbEntity
  8
0
  6
Continuous
 62
     7
370
    25
100
AcDbLine
 10
6422.4388214912
 20
7305.9867113929
 30
0.0
 11
6422.4388214912
 21
7305.0207855666
 31
0.0
  0
ARC
  5
239
330
1F
100
AcDbEntity
  8
0
  6
Continuous
 62
     7
370
    25
100
AcDbCircle
 10
6426.3276144219
 20
7313.5252976538
 30
0.0
 40
9.351440332848016
100
AcDbArc
 50
245.4271673511
 51
257.2488974281
  0
ARC
  5
23A
330
1F
100
AcDbEntity
  8
0
  6
Continuous
 62
     7
370
    25
100
AcDbCircle
 10
6429.656309935
 20
7329.1426250646
 30
0.0
 40
24.38066653480033
100
AcDbArc
 50
258.1893005351
 51
265.8971784142
  0
LINE
  5
23B
330
1F
100
AcDbEntity
  8
0
  6
Continuous
 62
     7
370
    25
100
AcDbLine
 10
6427.9119570121
 20
7304.8244398206
 30
0.0
 11
6427.9119570121
 21
7303.8585139943
 31
0.0
  0
ARC
  5
23C
330
1F
100
AcDbEntity
  8
0
  6
Continuous
 62
     7
370
    25
100
AcDbCircle
 10
6430.5829237938
 20
7338.3840683591
 30
0.0
 40
34.6287159412444
100
AcDbArc
 50
265.576293584
 51
270.5015401574
  0
LWPOLYLINE
  5
23D
330
1F
100
AcDbEntity
  8
0
  6
Continuous
 62
     7
370
    25
100
AcDbPolyline
 90
        6
 70
   128
 43
0.0
 10
6424.0477701235
 20
7305.8167143382
 10
6423.1475369071
 20
7306.1974720781
 10
6422.5728420989
 20
7306.6183522523
 10
6422.3488026195
 20
7307.0609603777
 10
6422.4852100694
 20
7307.5059523552
 10
6422.6413767887
 20
7307.6816451385
  0
LWPOLYLINE
  5
23E
330
1F
100
AcDbEntity
  8
0
  6
Continuous
 62
     7
370
    25
100
AcDbPolyline
 90
        6
 70
   128
 43
0.0
 10
6438.7707515582
 20
7307.4034511196
 10
6438.8434183741
 20
7307.1700491841
 10
6438.7070109243
 20
7306.7250572066
 10
6438.2161182053
 20
7306.2971296617
 10
6437.3921945847
 20
7305.9049690365
 10
6437.0388823322
 20
7305.7818157143
  0
LINE
  5
23F
330
1F
100
AcDbEntity
  8
0
  6
Continuous
 62
     7
370
    25
100
AcDbLine
 10
6424.3700370569
 20
7305.714566527
 30
0.0
 11
6424.0477701235
 21
7305.8167143382
 31
0.0
  0
LINE
  5
240
330
1F
100
AcDbEntity
  8
0
  6
Continuous
 62
     7
370
    25
100
AcDbLine
 10
6439.3388474952
 20
7307.2077583514
 30
0.0
 11
6439.6006586477
 21
7307.1987937465
 31
0.0
  0
ARC
  5
241
330
1F
100
AcDbEntity
  8
0
  6
Continuous
 62
     7
370
    25
100
AcDbCircle
 10
6438.3555015473
 20
7307.2594728604
 30
0.0
 40
1.01132087946469
100
AcDbArc
 50
305.6817763788
 51
346.4922228013
  0
LINE
  5
242
330
1F
100
AcDbEntity
  8
0
  6
Continuous
 62
     7
370
    25
100
AcDbLine
 10
6437.3386479221
 20
7305.4765304635
 30
0.0
 11
6437.0302005563
 21
7305.5807059862
 31
0.0
  0
ARC
  5
243
330
1F
100
AcDbEntity
  8
0
  6
Continuous
 62
     7
370
    25
100
AcDbCircle
 10
6432.3981762481
 20
7322.6957599141
 30
0.0
 40
17.73078453276056
100
AcDbArc
 50
277.2930101398
 51
285.1437664244
  0
ARC
  5
244
330
1F
100
AcDbEntity
  8
0
  6
Continuous
 62
     7
370
    25
100
AcDbCircle
 10
6430.5843402682
 20
7337.5791219342
 30
0.0
 40
32.72847533142173
100
AcDbArc
 50
265.4332158269
 51
270.6446179145
  0
LINE
  5
245
330
1F
100
AcDbEntity
  8
0
  6
Continuous
 62
     7
370
    25
100
AcDbLine
 10
6427.9784646088
 20
7304.9545528249
 30
0.0
 11
6427.9119570121
 21
7304.8244398206
 31
0.0
  0
ARC
  5
246
330
1F
100
AcDbEntity
  8
0
  6
Continuous
 62
     7
370
    25
100
AcDbCircle
 10
6426.5636437407
 20
7314.0781521799
 30
0.0
 40
8.834111884660247
100
AcDbArc
 50
245.0796807338
 51
257.5963840454
  0
LINE
  5
247
330
1F
100
AcDbEntity
  8
0
  6
Continuous
 62
     7
370
    25
100
AcDbLine
 10
6422.4388214912
 20
7305.9867113929
 30
0.0
 11
6422.8413248023
 21
7306.0665434456
 31
0.0
  0
LWPOLYLINE
  5
248
330
1F
100
AcDbEntity
  8
0
  6
Continuous
 62
     7
370
    25
100
AcDbPolyline
 90
        3
 70
   128
 43
0.0
 10
6423.0961104968
 20
7307.1918872081
 10
6422.5728420989
 20
7307.5842780786
 10
6422.5599143076
 20
7307.598467694
  0
LINE
  5
249
330
1F
100
AcDbEntity
  8
0
  6
Continuous
 62
     7
370
    25
100
AcDbLine
 10
6438.2158276492
 20
7307.2628742834
 30
0.0
 11
6438.0961104968
 21
7307.1918872081
 31
0.0
  0
LINE
  5
24A
330
1F
100
AcDbEntity
  8
0
  6
Continuous
 62
     7
370
    25
100
AcDbLine
 10
6433.2137563848
 20
7308.3105309106
 30
0.0
 11
6433.2802639816
 21
7308.4406439149
 31
0.0
  0
ARC
  5
24B
330
1F
100
AcDbEntity
  8
0
  6
Continuous
 62
     7
370
    25
100
AcDbCircle
 10
6430.6078807255
 20
7275.6859618016
 30
0.0
 40
32.72847533110626
100
AcDbArc
 50
85.4332158269
 51
90.6446179145
  0
LINE
  5
24C
330
1F
100
AcDbEntity
  8
0
  6
Continuous
 62
     7
370
    25
100
AcDbLine
 10
6430.2396700716
 20
7308.4123657961
 30
0.0
 11
6430.3061776683
 21
7308.5424788004
 31
0.0
  0
LWPOLYLINE
  5
24D
330
1F
100
AcDbEntity
  8
0
  6
Continuous
 62
     7
370
    25
100
AcDbPolyline
 90
        7
 70
   128
 43
0.0
 10
6424.6430737938
 20
7305.9347861966
 10
6423.8015688802
 20
7306.2936084406
 10
6423.277769181
 20
7306.6908616439
 10
6423.0961669879
 20
7307.1079706884
 10
6423.2652538177
 20
7307.5254320187
 10
6423.7771233582
 20
7307.9237256069
 10
6423.8535730716
 20
7307.965605738
  0
LWPOLYLINE
  5
24E
330
1F
100
AcDbEntity
  8
0
  6
Continuous
 62
     7
370
    25
100
AcDbPolyline
 90
       14
 70
   128
 43
0.0
 10
6438.047177834
 20
7307.3368814018
 10
6438.0489417252
 20
7307.3328675857
 10
6438.0552363059
 20
7306.9131218307
 10
6437.712750454
 20
7306.5028392775
 10
6437.0374984273
 20
7306.1212042824
 10
6436.06105426
 20
7305.7860616735
 10
6434.8290753962
 20
7305.5130823467
 10
6433.3991677984
 20
7305.3150305119
 10
6431.8381923564
 20
7305.2011668529
 10
6430.2191385472
 20
7305.1768155078
 10
6428.6177115274
 20
7305.2431151184
 10
6427.1087922446
 20
7305.3969655886
 10
6425.7629360873
 20
7305.6311730414
 10
6424.6430737938
 20
7305.9347861966
  0
LINE
  5
24F
330
1F
100
AcDbEntity
  8
0
  6
Continuous
 62
     7
370
    25
100
AcDbLine
 10
6430.2396700716
 20
7308.7037515253
 30
0.0
 11
6430.2396700716
 21
7308.4123657961
 31
0.0
  0
LINE
  5
250
330
1F
100
AcDbEntity
  8
0
  6
Continuous
 62
     7
370
    25
100
AcDbLine
 10
6426.2347877528
 20
7308.2608407057
 30
0.0
 11
6426.5432351186
 21
7308.156665183
 31
0.0
  0
ARC
  5
251
330
1F
100
AcDbEntity
  8
0
  6
Continuous
 62
     7
370
    25
100
AcDbCircle
 10
6428.7940447457
 20
7290.5693238209
 30
0.0
 40
17.73078453325543
100
AcDbArc
 50
97.29301014
 51
105.1437664242
  0
LINE
  5
252
330
1F
100
AcDbEntity
  8
0
  6
Continuous
 62
     7
370
    25
100
AcDbLine
 10
6423.8535730716
 20
7307.788553272
 30
0.0
 11
6424.1620204374
 21
7307.6843777493
 31
0.0
  0
LINE
  5
253
330
1F
100
AcDbEntity
  8
0
  6
Continuous
 62
     7
370
    25
100
AcDbLine
 10
6426.5432351186
 20
7308.4802415984
 30
0.0
 11
6426.5432351186
 21
7308.156665183
 31
0.0
  0
LINE
  5
254
330
1F
100
AcDbEntity
  8
0
  6
Continuous
 62
     7
370
    25
100
AcDbLine
 10
6436.9286209839
 20
7307.8946760526
 30
0.0
 11
6436.5261176728
 21
7307.8148439999
 31
0.0
  0
LINE
  5
255
330
1F
100
AcDbEntity
  8
0
  6
Continuous
 62
     7
370
    25
100
AcDbLine
 10
6438.7533995025
 20
7307.2783723426
 30
0.0
 11
6438.3508961914
 21
7307.1985402899
 31
0.0
  0
ARC
  5
256
330
1F
100
AcDbEntity
  8
0
  6
Continuous
 62
     7
370
    25
100
AcDbCircle
 10
6434.6285772529
 20
7299.1869315556
 30
0.0
 40
8.834111884705969
100
AcDbArc
 50
65.0796807338
 51
77.5963840453
  0
LINE
  5
257
330
1F
100
AcDbEntity
  8
0
  6
Continuous
 62
     7
370
    25
100
AcDbLine
 10
6436.5261176728
 20
7308.1932768045
 30
0.0
 11
6436.5261176728
 21
7307.8148439999
 31
0.0
  0
LINE
  5
258
330
1F
100
AcDbEntity
  8
0
  6
Continuous
 62
     7
370
    25
100
AcDbLine
 10
6422.2468332823
 20
7307.5143481241
 30
0.0
 11
6422.2468332823
 21
7306.8270755638
 31
0.0
  0
LINE
  5
259
330
1F
100
AcDbEntity
  8
0
  6
Continuous
 62
     7
370
    25
100
AcDbLine
 10
6422.2468332823
 20
7306.8270755638
 30
0.0
 11
6421.7441152376
 21
7306.8442889964
 31
0.0
  0
ARC
  5
25A
330
1F
100
AcDbEntity
  8
0
  6
Continuous
 62
     7
370
    25
100
AcDbCircle
 10
6422.711546195
 20
7306.1041022833
 30
0.0
 40
0.8594465983340117
100
AcDbArc
 50
122.7321069522
 51
183.1199656665
  0
LINE
  5
25B
330
1F
100
AcDbEntity
  8
0
  6
Continuous
 62
     7
370
    25
100
AcDbLine
 10
6421.8533734984
 20
7306.0573253841
 30
0.0
 11
6421.3506554537
 21
7306.0745388168
 31
0.0
  0
LINE
  5
25C
330
1F
100
AcDbEntity
  8
0
  6
Continuous
 62
     7
370
    25
100
AcDbLine
 10
6421.8533734984
 20
7306.2418325251
 30
0.0
 11
6421.8533734984
 21
7306.0573253841
 31
0.0
  0
LINE
  5
25D
330
1F
100
AcDbEntity
  8
0
  6
Continuous
 62
     7
370
    25
100
AcDbLine
 10
6439.3388474952
 20
7307.2077583514
 30
0.0
 11
6439.3388474952
 21
7306.2418325251
 31
0.0
  0
LINE
  5
25E
330
1F
100
AcDbEntity
  8
0
  6
Continuous
 62
     7
370
    25
100
AcDbLine
 10
6439.3388474952
 20
7306.2418325251
 30
0.0
 11
6439.84156554
 21
7306.2246190924
 31
0.0
  0
ARC
  5
25F
330
1F
100
AcDbEntity
  8
0
  6
Continuous
 62
     7
370
    25
100
AcDbCircle
 10
6438.4806747987
 20
7306.1950556259
 30
0.0
 40
0.8594465983347768
100
AcDbArc
 50
302.7321069521
 51
3.1199656664
  0
LINE
  5
260
330
1F
100
AcDbEntity
  8
0
  6
Continuous
 62
     7
370
    25
100
AcDbLine
 10
6438.9453877114
 20
7305.4720823455
 30
0.0
 11
6439.4481057561
 21
7305.4548689128
 31
0.0
  0
LINE
  5
261
330
1F
100
AcDbEntity
  8
0
  6
Continuous
 62
     7
370
    25
100
AcDbLine
 10
6438.9453877114
 20
7306.4380081717
 30
0.0
 11
6438.9453877114
 21
7305.4720823455
 31
0.0
  0
LINE
  5
262
330
1F
100
AcDbEntity
  8
0
  6
Continuous
 62
     7
370
    25
100
AcDbLine
 10
6422.8413248023
 20
7306.0665434456
 30
0.0
 11
6422.8413248023
 21
7305.1006176193
 31
0.0
  0
LINE
  5
263
330
1F
100
AcDbEntity
  8
0
  6
Continuous
 62
     7
370
    25
100
AcDbLine
 10
6422.4388214912
 20
7305.0207855666
 30
0.0
 11
6422.8413248023
 21
7305.1006176193
 31
0.0
  0
ARC
  5
264
330
1F
100
AcDbEntity
  8
0
  6
Continuous
 62
     7
370
    25
100
AcDbCircle
 10
6426.5636437407
 20
7313.1122263535
 30
0.0
 40
8.834111884614583
100
AcDbArc
 50
245.0796807337
 51
257.5963840454
  0
LINE
  5
265
330
1F
100
AcDbEntity
  8
0
  6
Continuous
 62
     7
370
    25
100
AcDbLine
 10
6424.6661033209
 20
7305.4502397356
 30
0.0
 11
6424.6661033209
 21
7304.4843139093
 31
0.0
  0
LINE
  5
266
330
1F
100
AcDbEntity
  8
0
  6
Continuous
 62
     7
370
    25
100
AcDbLine
 10
6424.2636000098
 20
7304.4044818566
 30
0.0
 11
6424.6661033209
 21
7304.4843139093
 31
0.0
  0
LINE
  5
267
330
1F
100
AcDbEntity
  8
0
  6
Continuous
 62
     7
370
    25
100
AcDbLine
 10
6437.0302005563
 20
7305.5807059862
 30
0.0
 11
6437.0302005563
 21
7304.6147801599
 31
0.0
  0
LINE
  5
268
330
1F
100
AcDbEntity
  8
0
  6
Continuous
 62
     7
370
    25
100
AcDbLine
 10
6437.3386479221
 20
7304.5106046372
 30
0.0
 11
6437.0302005563
 21
7304.6147801599
 31
0.0
  0
ARC
  5
269
330
1F
100
AcDbEntity
  8
0
  6
Continuous
 62
     7
370
    25
100
AcDbCircle
 10
6432.3981762481
 20
7321.7298340879
 30
0.0
 40
17.73078453291653
100
AcDbArc
 50
277.2930101399
 51
285.1437664243
  0
LINE
  5
26A
330
1F
100
AcDbEntity
  8
0
  6
Continuous
 62
     7
370
    25
100
AcDbLine
 10
6434.6489858751
 20
7305.1084185525
 30
0.0
 11
6434.6489858751
 21
7304.1424927262
 31
0.0
  0
LINE
  5
26B
330
1F
100
AcDbEntity
  8
0
  6
Continuous
 62
     7
370
    25
100
AcDbLine
 10
6434.9574332409
 20
7304.0383172035
 30
0.0
 11
6434.6489858751
 21
7304.1424927262
 31
0.0
  0
LINE
  5
26C
330
1F
100
AcDbEntity
  8
0
  6
Continuous
 62
     7
370
    25
100
AcDbLine
 10
6427.9784646088
 20
7304.9545528249
 30
0.0
 11
6427.9784646088
 21
7303.9886269986
 31
0.0
  0
LINE
  5
26D
330
1F
100
AcDbEntity
  8
0
  6
Continuous
 62
     7
370
    25
100
AcDbLine
 10
6430.9525509221
 20
7304.8527179394
 30
0.0
 11
6430.9525509221
 21
7303.8867921131
 31
0.0
  0
ARC
  5
26E
330
1F
100
AcDbEntity
  8
0
  6
Continuous
 62
     7
370
    25
100
AcDbCircle
 10
6430.5843402682
 20
7336.6131961076
 30
0.0
 40
32.72847533113346
100
AcDbArc
 50
265.4332158269
 51
270.6446179145
  0
LINE
  5
26F
330
1F
100
AcDbEntity
  8
0
  6
Continuous
 62
     7
370
    25
100
AcDbLine
 10
6427.9784646088
 20
7303.9886269986
 30
0.0
 11
6427.9119570121
 21
7303.8585139943
 31
0.0
  0
LINE
  5
270
330
1F
100
AcDbEntity
  8
0
  6
Continuous
 62
     7
370
    25
100
AcDbLine
 10
6430.9525509221
 20
7303.8867921131
 30
0.0
 11
6430.8860433253
 21
7303.7566791088
 31
0.0
  0
ARC
  5
271
330
1F
100
AcDbEntity
  8
0
  6
Continuous
 62
     7
370
    25
100
AcDbCircle
 10
7030.7057233695
 20
7337.0544505593
 30
0.0
 40
32.3323484571915
100
AcDbArc
 50
270.3195445578
 51
277.00524986
  0
ARC
  5
272
330
1F
100
AcDbEntity
  8
0
  6
Continuous
 62
     7
370
    25
100
AcDbCircle
 10
7032.5050869675
 20
7322.6417813472
 30
0.0
 40
18.76440461061634
100
AcDbArc
 50
277.5095473836
 51
284.9272291806
  0
LINE
  5
273
330
1F
100
AcDbEntity
  8
0
  6
Continuous
 62
     7
370
    25
100
AcDbLine
 10
7037.3386479221
 20
7305.4765304635
 30
0.0
 11
7037.3386479221
 21
7304.5106046372
 31
0.0
  0
ARC
  5
274
330
1F
100
AcDbEntity
  8
0
  6
Continuous
 62
     7
370
    25
100
AcDbCircle
 10
7035.4635511349
 20
7312.8533061774
 30
0.0
 40
7.611360449672424
100
AcDbArc
 50
284.2619248088
 51
297.2228497747
  0
ARC
  5
275
330
1F
100
AcDbEntity
  8
0
  6
Continuous
 62
     7
370
    25
100
AcDbCircle
 10
7038.9390102642
 20
7306.2005284627
 30
0.0
 40
0.9028767270874631
100
AcDbArc
 50
304.3231205498
 51
1.5289520687
  0
LINE
  5
276
330
1F
100
AcDbEntity
  8
0
  6
Continuous
 62
     7
370
    25
100
AcDbLine
 10
7039.84156554
 20
7306.8283227338
 30
0.0
 11
7039.84156554
 21
7306.2246190924
 31
0.0
  0
LINE
  5
277
330
1F
100
AcDbEntity
  8
0
  6
Continuous
 62
     7
370
    25
100
AcDbLine
 10
7038.7533995025
 20
7307.5900240457
 30
0.0
 11
7038.7533995025
 21
7307.2783723426
 31
0.0
  0
ARC
  5
278
330
1F
100
AcDbEntity
  8
0
  6
Continuous
 62
     7
370
    25
100
AcDbCircle
 10
7034.8646065718
 20
7298.7738602555
 30
0.0
 40
9.35144033282887
100
AcDbArc
 50
65.4271673511
 51
77.2488974281
  0
LINE
  5
279
330
1F
100
AcDbEntity
  8
0
  6
Continuous
 62
     7
370
    25
100
AcDbLine
 10
7036.9286209839
 20
7308.1107192936
 30
0.0
 11
7036.9286209839
 21
7307.8946760526
 31
0.0
  0
LINE
  5
27A
330
1F
100
AcDbEntity
  8
0
  6
Continuous
 62
     7
370
    25
100
AcDbLine
 10
7033.2802639816
 20
7308.6091899401
 30
0.0
 11
7033.2802639816
 21
7308.4406439149
 31
0.0
  0
ARC
  5
27B
330
1F
100
AcDbEntity
  8
0
  6
Continuous
 62
     7
370
    25
100
AcDbCircle
 10
7030.6092971999
 20
7273.9150895498
 30
0.0
 40
34.62871594155455
100
AcDbArc
 50
85.5762935841
 51
90.5015401574
  0
LINE
  5
27C
330
1F
100
AcDbEntity
  8
0
  6
Continuous
 62
     7
370
    25
100
AcDbLine
 10
7030.3061776684
 20
7308.7043151875
 30
0.0
 11
7030.3061776683
 21
7308.5424788004
 31
0.0
  0
LINE
  5
27D
330
1F
100
AcDbEntity
  8
0
  6
Continuous
 62
     7
370
    25
100
AcDbLine
 10
7026.2347877528
 20
7308.4426410404
 30
0.0
 11
7026.2347877528
 21
7308.2608407057
 31
0.0
  0
ARC
  5
27E
330
1F
100
AcDbEntity
  8
0
  6
Continuous
 62
     7
370
    25
100
AcDbCircle
 10
7028.6871340262
 20
7289.6573765616
 30
0.0
 40
18.76440461093803
100
AcDbArc
 50
97.5095473836
 51
104.9272291805
  0
LINE
  5
27F
330
1F
100
AcDbEntity
  8
0
  6
Continuous
 62
     7
370
    25
100
AcDbLine
 10
7023.8535730716
 20
7308.0169151216
 30
0.0
 11
7023.8535730716
 21
7307.788553272
 31
0.0
  0
LINE
  5
280
330
1F
100
AcDbEntity
  8
0
  6
Continuous
 62
     7
370
    25
100
AcDbLine
 10
7021.7441152376
 20
7307.2824203336
 30
0.0
 11
7021.7441152376
 21
7306.8442889964
 31
0.0
  0
ARC
  5
281
330
1F
100
AcDbEntity
  8
0
  6
Continuous
 62
     7
370
    25
100
AcDbCircle
 10
7022.2532107295
 20
7306.0986294465
 30
0.0
 40
0.9028767270910755
100
AcDbArc
 50
124.3231205501
 51
181.5289520686
  0
ARC
  5
282
330
1F
100
AcDbEntity
  8
0
  6
Continuous
 62
     7
370
    25
100
AcDbCircle
 10
7023.9478239845
 20
7309.2010634238
 30
0.0
 40
3.550936144703551
100
AcDbArc
 50
233.8550182224
 51
244.8519277994
  0
LINE
  5
283
330
1F
100
AcDbEntity
  8
0
  6
Continuous
 62
     7
370
    25
100
AcDbLine
 10
7022.4388214912
 20
7305.9867113929
 30
0.0
 11
7022.4388214912
 21
7305.0207855666
 31
0.0
  0
ARC
  5
284
330
1F
100
AcDbEntity
  8
0
  6
Continuous
 62
     7
370
    25
100
AcDbCircle
 10
7026.3276144219
 20
7313.5252976538
 30
0.0
 40
9.351440332912066
100
AcDbArc
 50
245.4271673511
 51
257.248897428
  0
ARC
  5
285
330
1F
100
AcDbEntity
  8
0
  6
Continuous
 62
     7
370
    25
100
AcDbCircle
 10
7029.656309935
 20
7329.1426250646
 30
0.0
 40
24.38066653472075
100
AcDbArc
 50
258.1893005351
 51
265.8971784142
  0
LINE
  5
286
330
1F
100
AcDbEntity
  8
0
  6
Continuous
 62
     7
370
    25
100
AcDbLine
 10
7027.9119570121
 20
7304.8244398206
 30
0.0
 11
7027.9119570121
 21
7303.8585139943
 31
0.0
  0
ARC
  5
287
330
1F
100
AcDbEntity
  8
0
  6
Continuous
 62
     7
370
    25
100
AcDbCircle
 10
7030.5829237938
 20
7338.384068359
 30
0.0
 40
34.62871594122623
100
AcDbArc
 50
265.576293584
 51
270.5015401574
  0
LWPOLYLINE
  5
288
330
1F
100
AcDbEntity
  8
0
  6
Continuous
 62
     7
370
    25
100
AcDbPolyline
 90
        6
 70
   128
 43
0.0
 10
7024.0477701235
 20
7305.8167143382
 10
7023.1475369071
 20
7306.1974720781
 10
7022.5728420989
 20
7306.6183522523
 10
7022.3488026195
 20
7307.0609603777
 10
7022.4852100694
 20
7307.5059523552
 10
7022.6413767887
 20
7307.6816451385
  0
LWPOLYLINE
  5
289
330
1F
100
AcDbEntity
  8
0
  6
Continuous
 62
     7
370
    25
100
AcDbPolyline
 90
        6
 70
   128
 43
0.0
 10
7038.7533995025
 20
7307.4347175562
 10
7038.8434183741
 20
7307.1700491841
 10
7038.7070109243
 20
7306.7250572066
 10
7038.2161182053
 20
7306.2971296617
 10
7037.3921945847
 20
7305.9049690365
 10
7037.0388823322
 20
7305.7818157143
  0
LINE
  5
28A
330
1F
100
AcDbEntity
  8
0
  6
Continuous
 62
     7
370
    25
100
AcDbLine
 10
7024.3700370569
 20
7305.714566527
 30
0.0
 11
7024.0477701235
 21
7305.8167143382
 31
0.0
  0
LINE
  5
28B
330
1F
100
AcDbEntity
  8
0
  6
Continuous
 62
     7
370
    25
100
AcDbLine
 10
7039.3388474952
 20
7307.2077583514
 30
0.0
 11
7039.6006586477
 21
7307.1987937465
 31
0.0
  0
ARC
  5
28C
330
1F
100
AcDbEntity
  8
0
  6
Continuous
 62
     7
370
    25
100
AcDbCircle
 10
7038.3555015473
 20
7307.2594728604
 30
0.0
 40
1.011320879467555
100
AcDbArc
 50
305.6817763789
 51
346.4922228013
  0
LINE
  5
28D
330
1F
100
AcDbEntity
  8
0
  6
Continuous
 62
     7
370
    25
100
AcDbLine
 10
7037.3386479221
 20
7305.4765304635
 30
0.0
 11
7037.0302005563
 21
7305.5807059862
 31
0.0
  0
ARC
  5
28E
330
1F
100
AcDbEntity
  8
0
  6
Continuous
 62
     7
370
    25
100
AcDbCircle
 10
7032.3981762481
 20
7322.6957599141
 30
0.0
 40
17.7307845327557
100
AcDbArc
 50
277.2930101398
 51
285.1437664244
  0
ARC
  5
28F
330
1F
100
AcDbEntity
  8
0
  6
Continuous
 62
     7
370
    25
100
AcDbCircle
 10
7030.5843402682
 20
7337.5791219343
 30
0.0
 40
32.72847533145264
100
AcDbArc
 50
265.4332158269
 51
270.6446179145
  0
LINE
  5
290
330
1F
100
AcDbEntity
  8
0
  6
Continuous
 62
     7
370
    25
100
AcDbLine
 10
7027.9784646088
 20
7304.9545528249
 30
0.0
 11
7027.9119570121
 21
7304.8244398206
 31
0.0
  0
ARC
  5
291
330
1F
100
AcDbEntity
  8
0
  6
Continuous
 62
     7
370
    25
100
AcDbCircle
 10
7026.5636437407
 20
7314.0781521799
 30
0.0
 40
8.83411188466761
100
AcDbArc
 50
245.0796807338
 51
257.5963840454
  0
LINE
  5
292
330
1F
100
AcDbEntity
  8
0
  6
Continuous
 62
     7
370
    25
100
AcDbLine
 10
7022.4388214912
 20
7305.9867113929
 30
0.0
 11
7022.8413248023
 21
7306.0665434456
 31
0.0
  0
LWPOLYLINE
  5
293
330
1F
100
AcDbEntity
  8
0
  6
Continuous
 62
     7
370
    25
100
AcDbPolyline
 90
        3
 70
   128
 43
0.0
 10
7023.0961104968
 20
7307.1918872081
 10
7022.5728420989
 20
7307.5842780786
 10
7022.5599143076
 20
7307.598467694
  0
LINE
  5
294
330
1F
100
AcDbEntity
  8
0
  6
Continuous
 62
     7
370
    25
100
AcDbLine
 10
7038.2158276324
 20
7307.2628742729
 30
0.0
 11
7038.0961104968
 21
7307.1918872081
 31
0.0
  0
LINE
  5
295
330
1F
100
AcDbEntity
  8
0
  6
Continuous
 62
     7
370
    25
100
AcDbLine
 10
7033.2137563848
 20
7308.3105309106
 30
0.0
 11
7033.2802639816
 21
7308.4406439149
 31
0.0
  0
ARC
  5
296
330
1F
100
AcDbEntity
  8
0
  6
Continuous
 62
     7
370
    25
100
AcDbCircle
 10
7030.6078807255
 20
7275.6859618016
 30
0.0
 40
32.72847533113265
100
AcDbArc
 50
85.4332158269
 51
90.6446179145
  0
LINE
  5
297
330
1F
100
AcDbEntity
  8
0
  6
Continuous
 62
     7
370
    25
100
AcDbLine
 10
7030.2396700716
 20
7308.4123657961
 30
0.0
 11
7030.3061776683
 21
7308.5424788004
 31
0.0
  0
LWPOLYLINE
  5
298
330
1F
100
AcDbEntity
  8
0
  6
Continuous
 62
     7
370
    25
100
AcDbPolyline
 90
        7
 70
   128
 43
0.0
 10
7024.6430737938
 20
7305.9347861966
 10
7023.8015688802
 20
7306.2936084406
 10
7023.277769181
 20
7306.6908616439
 10
7023.0961669879
 20
7307.1079706884
 10
7023.2652538177
 20
7307.5254320187
 10
7023.7771233582
 20
7307.9237256069
 10
7023.8535730716
 20
7307.965605738
  0
LWPOLYLINE
  5
299
330
1F
100
AcDbEntity
  8
0
  6
Continuous
 62
     7
370
    25
100
AcDbPolyline
 90
       14
 70
   128
 43
0.0
 10
7038.047177828
 20
7307.3368814154
 10
7038.0489417252
 20
7307.3328675857
 10
7038.0552363059
 20
7306.9131218307
 10
7037.712750454
 20
7306.5028392775
 10
7037.0374984273
 20
7306.1212042824
 10
7036.06105426
 20
7305.7860616735
 10
7034.8290753962
 20
7305.5130823467
 10
7033.3991677984
 20
7305.3150305119
 10
7031.8381923564
 20
7305.2011668529
 10
7030.2191385472
 20
7305.1768155078
 10
7028.6177115274
 20
7305.2431151184
 10
7027.1087922446
 20
7305.3969655886
 10
7025.7629360873
 20
7305.6311730414
 10
7024.6430737938
 20
7305.9347861966
  0
LINE
  5
29A
330
1F
100
AcDbEntity
  8
0
  6
Continuous
 62
     7
370
    25
100
AcDbLine
 10
7030.2396700716
 20
7308.7037515253
 30
0.0
 11
7030.2396700716
 21
7308.4123657961
 31
0.0
  0
LINE
  5
29B
330
1F
100
AcDbEntity
  8
0
  6
Continuous
 62
     7
370
    25
100
AcDbLine
 10
7026.2347877528
 20
7308.2608407057
 30
0.0
 11
7026.5432351186
 21
7308.156665183
 31
0.0
  0
ARC
  5
29C
330
1F
100
AcDbEntity
  8
0
  6
Continuous
 62
     7
370
    25
100
AcDbCircle
 10
7028.7940447457
 20
7290.569323821
 30
0.0
 40
17.73078453322258
100
AcDbArc
 50
97.2930101399
 51
105.1437664242
  0
LINE
  5
29D
330
1F
100
AcDbEntity
  8
0
  6
Continuous
 62
     7
370
    25
100
AcDbLine
 10
7023.8535730716
 20
7307.788553272
 30
0.0
 11
7024.1620204374
 21
7307.6843777493
 31
0.0
  0
LINE
  5
29E
330
1F
100
AcDbEntity
  8
0
  6
Continuous
 62
     7
370
    25
100
AcDbLine
 10
7026.5432351186
 20
7308.4802415984
 30
0.0
 11
7026.5432351186
 21
7308.156665183
 31
0.0
  0
LINE
  5
29F
330
1F
100
AcDbEntity
  8
0
  6
Continuous
 62
     7
370
    25
100
AcDbLine
 10
7036.9286209839
 20
7307.8946760526
 30
0.0
 11
7036.5261176728
 21
7307.8148439999
 31
0.0
  0
LINE
  5
2A0
330
1F
100
AcDbEntity
  8
0
  6
Continuous
 62
     7
370
    25
100
AcDbLine
 10
7038.7533995025
 20
7307.2783723426
 30
0.0
 11
7038.3508961914
 21
7307.1985402899
 31
0.0
  0
ARC
  5
2A1
330
1F
100
AcDbEntity
  8
0
  6
Continuous
 62
     7
370
    25
100
AcDbCircle
 10
7034.6285772529
 20
7299.1869315556
 30
0.0
 40
8.834111884684473
100
AcDbArc
 50
65.0796807338
 51
77.5963840454
  0
LINE
  5
2A2
330
1F
100
AcDbEntity
  8
0
  6
Continuous
 62
     7
370
    25
100
AcDbLine
 10
7036.5261176728
 20
7308.1932768045
 30
0.0
 11
7036.5261176728
 21
7307.8148439999
 31
0.0
  0
LINE
  5
2A3
330
1F
100
AcDbEntity
  8
0
  6
Continuous
 62
     7
370
    25
100
AcDbLine
 10
7022.2468332823
 20
7307.5143481241
 30
0.0
 11
7022.2468332823
 21
7306.8270755638
 31
0.0
  0
LINE
  5
2A4
330
1F
100
AcDbEntity
  8
0
  6
Continuous
 62
     7
370
    25
100
AcDbLine
 10
7022.2468332823
 20
7306.8270755638
 30
0.0
 11
7021.7441152376
 21
7306.8442889964
 31
0.0
  0
ARC
  5
2A5
330
1F
100
AcDbEntity
  8
0
  6
Continuous
 62
     7
370
    25
100
AcDbCircle
 10
7022.711546195
 20
7306.1041022833
 30
0.0
 40
0.8594465983356194
100
AcDbArc
 50
122.7321069522
 51
183.1199656665
  0
LINE
  5
2A6
330
1F
100
AcDbEntity
  8
0
  6
Continuous
 62
     7
370
    25
100
AcDbLine
 10
7021.8533734984
 20
7306.0573253841
 30
0.0
 11
7021.3506554537
 21
7306.0745388168
 31
0.0
  0
LINE
  5
2A7
330
1F
100
AcDbEntity
  8
0
  6
Continuous
 62
     7
370
    25
100
AcDbLine
 10
7021.8533734984
 20
7306.2418325251
 30
0.0
 11
7021.8533734984
 21
7306.0573253841
 31
0.0
  0
LINE
  5
2A8
330
1F
100
AcDbEntity
  8
0
  6
Continuous
 62
     7
370
    25
100
AcDbLine
 10
7039.3388474952
 20
7307.2077583514
 30
0.0
 11
7039.3388474952
 21
7306.2418325251
 31
0.0
  0
LINE
  5
2A9
330
1F
100
AcDbEntity
  8
0
  6
Continuous
 62
     7
370
    25
100
AcDbLine
 10
7039.3388474952
 20
7306.2418325251
 30
0.0
 11
7039.84156554
 21
7306.2246190924
 31
0.0
  0
ARC
  5
2AA
330
1F
100
AcDbEntity
  8
0
  6
Continuous
 62
     7
370
    25
100
AcDbCircle
 10
7038.4806747987
 20
7306.1950556259
 30
0.0
 40
0.8594465983335199
100
AcDbArc
 50
302.7321069521
 51
3.1199656665
  0
LINE
  5
2AB
330
1F
100
AcDbEntity
  8
0
  6
Continuous
 62
     7
370
    25
100
AcDbLine
 10
7038.9453877114
 20
7305.4720823455
 30
0.0
 11
7039.4481057561
 21
7305.4548689128
 31
0.0
  0
LINE
  5
2AC
330
1F
100
AcDbEntity
  8
0
  6
Continuous
 62
     7
370
    25
100
AcDbLine
 10
7038.9453877114
 20
7306.4380081717
 30
0.0
 11
7038.9453877114
 21
7305.4720823455
 31
0.0
  0
LINE
  5
2AD
330
1F
100
AcDbEntity
  8
0
  6
Continuous
 62
     7
370
    25
100
AcDbLine
 10
7022.8413248023
 20
7306.0665434456
 30
0.0
 11
7022.8413248023
 21
7305.1006176193
 31
0.0
  0
LINE
  5
2AE
330
1F
100
AcDbEntity
  8
0
  6
Continuous
 62
     7
370
    25
100
AcDbLine
 10
7022.4388214912
 20
7305.0207855666
 30
0.0
 11
7022.8413248023
 21
7305.1006176193
 31
0.0
  0
ARC
  5
2AF
330
1F
100
AcDbEntity
  8
0
  6
Continuous
 62
     7
370
    25
100
AcDbCircle
 10
7026.5636437407
 20
7313.1122263535
 30
0.0
 40
8.834111884593446
100
AcDbArc
 50
245.0796807337
 51
257.5963840454
  0
LINE
  5
2B0
330
1F
100
AcDbEntity
  8
0
  6
Continuous
 62
     7
370
    25
100
AcDbLine
 10
7024.6661033209
 20
7305.4502397356
 30
0.0
 11
7024.6661033209
 21
7304.4843139093
 31
0.0
  0
LINE
  5
2B1
330
1F
100
AcDbEntity
  8
0
  6
Continuous
 62
     7
370
    25
100
AcDbLine
 10
7024.2636000098
 20
7304.4044818566
 30
0.0
 11
7024.6661033209
 21
7304.4843139093
 31
0.0
  0
LINE
  5
2B2
330
1F
100
AcDbEntity
  8
0
  6
Continuous
 62
     7
370
    25
100
AcDbLine
 10
7037.0302005563
 20
7305.5807059862
 30
0.0
 11
7037.0302005563
 21
7304.6147801599
 31
0.0
  0
LINE
  5
2B3
330
1F
100
AcDbEntity
  8
0
  6
Continuous
 62
     7
370
    25
100
AcDbLine
 10
7037.3386479221
 20
7304.5106046372
 30
0.0
 11
7037.0302005563
 21
7304.6147801599
 31
0.0
  0
ARC
  5
2B4
330
1F
100
AcDbEntity
  8
0
  6
Continuous
 62
     7
370
    25
100
AcDbCircle
 10
7032.3981762481
 20
7321.729834088
 30
0.0
 40
17.73078453293645
100
AcDbArc
 50
277.2930101399
 51
285.1437664243
  0
LINE
  5
2B5
330
1F
100
AcDbEntity
  8
0
  6
Continuous
 62
     7
370
    25
100
AcDbLine
 10
7034.6489858751
 20
7305.1084185525
 30
0.0
 11
7034.6489858751
 21
7304.1424927262
 31
0.0
  0
LINE
  5
2B6
330
1F
100
AcDbEntity
  8
0
  6
Continuous
 62
     7
370
    25
100
AcDbLine
 10
7034.9574332409
 20
7304.0383172035
 30
0.0
 11
7034.6489858751
 21
7304.1424927262
 31
0.0
  0
LINE
  5
2B7
330
1F
100
AcDbEntity
  8
0
  6
Continuous
 62
     7
370
    25
100
AcDbLine
 10
7027.9784646088
 20
7304.9545528249
 30
0.0
 11
7027.9784646088
 21
7303.9886269986
 31
0.0
  0
LINE
  5
2B8
330
1F
100
AcDbEntity
  8
0
  6
Continuous
 62
     7
370
    25
100
AcDbLine
 10
7030.9525509221
 20
7304.8527179394
 30
0.0
 11
7030.9525509221
 21
7303.8867921131
 31
0.0
  0
ARC
  5
2B9
330
1F
100
AcDbEntity
  8
0
  6
Continuous
 62
     7
370
    25
100
AcDbCircle
 10
7030.5843402682
 20
7336.6131961077
 30
0.0
 40
32.72847533115355
100
AcDbArc
 50
265.4332158269
 51
270.6446179145
  0
LINE
  5
2BA
330
1F
100
AcDbEntity
  8
0
  6
Continuous
 62
     7
370
    25
100
AcDbLine
 10
7027.9784646088
 20
7303.9886269986
 30
0.0
 11
7027.9119570121
 21
7303.8585139943
 31
0.0
  0
LINE
  5
2BB
330
1F
100
AcDbEntity
  8
0
  6
Continuous
 62
     7
370
    25
100
AcDbLine
 10
7030.9525509221
 20
7303.8867921131
 30
0.0
 11
7030.8860433253
 21
7303.7566791088
 31
0.0
  0
CIRCLE
  5
2BC
330
1F
100
AcDbEntity
  8
0
  6
Continuous
 62
     7
370
    25
100
AcDbCircle
 10
6430.5961104968
 20
7314.9124619412
 30
0.0
 40
29.5000000000006
  0
CIRCLE
  5
2BD
330
1F
100
AcDbEntity
  8
0
  6
Continuous
 62
     7
370
    25
100
AcDbCircle
 10
6430.5961104968
 20
7314.9124619412
 30
0.0
 40
29.99999999999991
  0
CIRCLE
  5
2BE
330
1F
100
AcDbEntity
  8
0
  6
Continuous
 62
     7
370
    25
100
AcDbCircle
 10
7030.5961104968
 20
7314.9124619412
 30
0.0
 40
29.5000000000006
  0
CIRCLE
  5
2BF
330
1F
100
AcDbEntity
  8
0
  6
Continuous
 62
     7
370
    25
100
AcDbCircle
 10
7030.5961104968
 20
7314.9124619412
 30
0.0
 40
29.99999999999991
  0
CIRCLE
  5
2C0
330
1F
100
AcDbEntity
  8
0
  6
Continuous
 62
     7
370
    25
100
AcDbCircle
 10
5830.5961104968
 20
7314.9124619412
 30
0.0
 40
29.5000000000006
  0
CIRCLE
  5
2C1
330
1F
100
AcDbEntity
  8
0
  6
Continuous
 62
     7
370
    25
100
AcDbCircle
 10
5830.5961104968
 20
7314.9124619412
 30
0.0
 40
29.99999999999991
  0
ARC
  5
2C2
330
1F
100
AcDbEntity
  8
0
  6
Continuous
 62
     7
370
    25
100
AcDbCircle
 10
6430.5961104968
 20
7314.9124619412
 30
0.0
 40
13.99999999999974
100
AcDbArc
 50
339.5575579255
 51
200.4424420745
  0
LINE
  5
2C3
330
1F
100
AcDbEntity
  8
0
  6
Continuous
 62
     7
370
    25
100
AcDbLine
 10
6443.7144398643
 20
7310.0227344838
 30
0.0
 11
6442.7467963075
 21
7310.2906836762
 31
0.0
  0
ARC
  5
2C4
330
1F
100
AcDbEntity
  8
0
  6
Continuous
 62
     7
370
    25
100
AcDbCircle
 10
6430.5961104968
 20
7314.9124619412
 30
0.0
 40
13.00000000000028
100
AcDbArc
 50
339.1745965348
 51
200.8254034652
  0
LINE
  5
2C5
330
1F
100
AcDbEntity
  8
0
  6
Continuous
 62
     7
370
    25
100
AcDbLine
 10
6418.4454246861
 20
7310.2906836762
 30
0.0
 11
6417.4777811294
 21
7310.0227344838
 31
0.0
  0
LINE
  5
2C6
330
1F
100
AcDbEntity
  8
0
  6
Continuous
 62
     7
370
    25
100
AcDbLine
 10
6418.4454246861
 20
7310.2906836762
 30
0.0
 11
6442.7467963075
 21
7310.2906836762
 31
0.0
  0
ARC
  5
2C7
330
1F
100
AcDbEntity
  8
0
  6
Continuous
 62
     7
370
    25
100
AcDbCircle
 10
6430.5961104968
 20
7314.9124619412
 30
0.0
 40
13.99999999999974
100
AcDbArc
 50
200.4424420745
 51
339.5575579255
  0
LWPOLYLINE
  5
2C8
330
1F
100
AcDbEntity
  8
0
  6
Continuous
 62
     7
370
    25
100
AcDbPolyline
 90
       34
 70
   128
 43
0.0
 10
6430.5961104968
 20
7308.705417025
 10
6432.4649665349
 20
7308.6592297015
 10
6434.2662772465
 20
7308.5223370611
 10
6435.9349385692
 20
7308.2996867607
 10
6437.4106407352
 20
7307.999325962
 10
6438.6400480233
 20
7307.6321104871
 10
6439.578726451
 20
7307.2113124598
 10
6440.192749734
 20
7306.7521406174
 10
6440.4599254713
 20
7306.2711906265
 10
6440.3705972354
 20
7305.785845273
 10
6439.9279935816
 20
7305.3136462024
 10
6439.1481113592
 20
7304.8716599194
 10
6438.0591375436
 20
7304.47586096
 10
6436.7004304858
 20
7304.1405545297
 10
6435.1210973989
 20
7303.8778594766
 10
6433.3782194956
 20
7303.6972702844
 10
6431.5347889245
 20
7303.6053139169
 10
6429.6574320692
 20
7303.6053139169
 10
6427.814001498
 20
7303.6972702844
 10
6426.0711235948
 20
7303.8778594766
 10
6424.4917905079
 20
7304.1405545297
 10
6423.1330834501
 20
7304.47586096
 10
6422.0441096345
 20
7304.8716599194
 10
6421.264227412
 20
7305.3136462024
 10
6420.8216237583
 20
7305.785845273
 10
6420.7322955224
 20
7306.2711906265
 10
6420.9994712596
 20
7306.7521406174
 10
6421.6134945427
 20
7307.2113124598
 10
6422.5521729703
 20
7307.6321104871
 10
6423.7815802584
 20
7307.999325962
 10
6425.2572824245
 20
7308.2996867607
 10
6426.9259437472
 20
7308.5223370611
 10
6428.7272544588
 20
7308.6592297015
 10
6430.5961104968
 20
7308.705417025
  0
LWPOLYLINE
  5
2C9
330
1F
100
AcDbEntity
  8
0
  6
Continuous
 62
     7
370
    25
100
AcDbPolyline
 90
        3
 70
   128
 43
0.0
 10
6439.8461104968
 20
7307.0274530013
 10
6439.9711104968
 20
7306.6325418677
 10
6439.8461104968
 20
7306.2376307342
  0
LWPOLYLINE
  5
2CA
330
1F
100
AcDbEntity
  8
0
  6
Continuous
 62
     7
370
    25
100
AcDbPolyline
 90
        3
 70
   128
 43
0.0
 10
6438.9453877114
 20
7305.5289830149
 10
6438.3911381122
 20
7305.284490394
 10
6437.3386479221
 20
7304.946661796
  0
ARC
  5
2CB
330
1F
100
AcDbEntity
  8
0
  6
Continuous
 62
     7
370
    25
100
AcDbCircle
 10
6430.7264446797
 20
7336.7201227692
 30
0.0
 40
32.51304127785311
100
AcDbArc
 50
270.3984566601
 51
276.9293382744
  0
ARC
  5
2CC
330
1F
100
AcDbEntity
  8
0
  6
Continuous
 62
     7
370
    25
100
AcDbCircle
 10
6429.7252628875
 20
7329.5661811936
 30
0.0
 40
25.32349552651545
100
AcDbArc
 50
258.4758326321
 51
265.8937831657
  0
LWPOLYLINE
  5
2CD
330
1F
100
AcDbEntity
  8
0
  6
Continuous
 62
     7
370
    25
100
AcDbPolyline
 90
        3
 70
   128
 43
0.0
 10
6422.4388214912
 20
7305.4366617248
 10
6421.9347398795
 20
7305.7039878627
 10
6421.4763240339
 20
7306.0702358329
  0
LWPOLYLINE
  5
2CE
330
1F
100
AcDbEntity
  8
0
  6
Continuous
 62
     7
370
    25
100
AcDbPolyline
 90
        3
 70
   128
 43
0.0
 10
6421.3461104968
 20
7306.2376307342
 10
6421.2211104968
 20
7306.6325418677
 10
6421.3461104968
 20
7307.0274530013
  0
LINE
  5
2CF
330
1F
100
AcDbEntity
  8
0
  6
Continuous
 62
     7
370
    25
100
AcDbLine
 10
7018.4454246861
 20
7310.2906836762
 30
0.0
 11
7042.7467963075
 21
7310.2906836762
 31
0.0
  0
LINE
  5
2D0
330
1F
100
AcDbEntity
  8
0
  6
Continuous
 62
     7
370
    25
100
AcDbLine
 10
7043.7144398643
 20
7310.0227344838
 30
0.0
 11
7042.7467963075
 21
7310.2906836762
 31
0.0
  0
ARC
  5
2D1
330
1F
100
AcDbEntity
  8
0
  6
Continuous
 62
     7
370
    25
100
AcDbCircle
 10
7030.5961104968
 20
7314.9124619412
 30
0.0
 40
13.99999999999974
100
AcDbArc
 50
200.4424420745
 51
339.5575579255
  0
LINE
  5
2D2
330
1F
100
AcDbEntity
  8
0
  6
Continuous
 62
     7
370
    25
100
AcDbLine
 10
7018.4454246861
 20
7310.2906836762
 30
0.0
 11
7017.4777811294
 21
7310.0227344838
 31
0.0
  0
LWPOLYLINE
  5
2D3
330
1F
100
AcDbEntity
  8
0
  6
Continuous
 62
     7
370
    25
100
AcDbPolyline
 90
       34
 70
   128
 43
0.0
 10
7030.5961104968
 20
7308.705417025
 10
7032.4649665349
 20
7308.6592297015
 10
7034.2662772465
 20
7308.5223370611
 10
7035.9349385692
 20
7308.2996867607
 10
7037.4106407352
 20
7307.999325962
 10
7038.6400480233
 20
7307.6321104871
 10
7039.578726451
 20
7307.2113124598
 10
7040.192749734
 20
7306.7521406174
 10
7040.4599254713
 20
7306.2711906265
 10
7040.3705972354
 20
7305.785845273
 10
7039.9279935816
 20
7305.3136462024
 10
7039.1481113592
 20
7304.8716599194
 10
7038.0591375436
 20
7304.47586096
 10
7036.7004304858
 20
7304.1405545297
 10
7035.1210973989
 20
7303.8778594766
 10
7033.3782194956
 20
7303.6972702844
 10
7031.5347889245
 20
7303.6053139169
 10
7029.6574320692
 20
7303.6053139169
 10
7027.814001498
 20
7303.6972702844
 10
7026.0711235948
 20
7303.8778594766
 10
7024.4917905079
 20
7304.1405545297
 10
7023.1330834501
 20
7304.47586096
 10
7022.0441096345
 20
7304.8716599194
 10
7021.264227412
 20
7305.3136462024
 10
7020.8216237583
 20
7305.785845273
 10
7020.7322955224
 20
7306.2711906265
 10
7020.9994712596
 20
7306.7521406174
 10
7021.6134945427
 20
7307.2113124598
 10
7022.5521729703
 20
7307.6321104871
 10
7023.7815802585
 20
7307.999325962
 10
7025.2572824245
 20
7308.2996867607
 10
7026.9259437472
 20
7308.5223370611
 10
7028.7272544588
 20
7308.6592297015
 10
7030.5961104968
 20
7308.705417025
  0
ARC
  5
2D4
330
1F
100
AcDbEntity
  8
0
  6
Continuous
 62
     7
370
    25
100
AcDbCircle
 10
7030.5961104968
 20
7314.9124619412
 30
0.0
 40
13.00000000000112
100
AcDbArc
 50
339.1745965348
 51
200.8254034652
  0
ARC
  5
2D5
330
1F
100
AcDbEntity
  8
0
  6
Continuous
 62
     7
370
    25
100
AcDbCircle
 10
7030.5961104968
 20
7314.9124619412
 30
0.0
 40
13.99999999999974
100
AcDbArc
 50
339.5575579255
 51
200.4424420745
  0
LWPOLYLINE
  5
2D6
330
1F
100
AcDbEntity
  8
0
  6
Continuous
 62
     7
370
    25
100
AcDbPolyline
 90
        3
 70
   128
 43
0.0
 10
7039.8461104968
 20
7307.0274530013
 10
7039.9711104968
 20
7306.6325418677
 10
7039.8461104968
 20
7306.2376307342
  0
LWPOLYLINE
  5
2D7
330
1F
100
AcDbEntity
  8
0
  6
Continuous
 62
     7
370
    25
100
AcDbPolyline
 90
        3
 70
   128
 43
0.0
 10
7038.9453877114
 20
7305.5289830149
 10
7038.3911381122
 20
7305.284490394
 10
7037.3386479221
 20
7304.946661796
  0
ARC
  5
2D8
330
1F
100
AcDbEntity
  8
0
  6
Continuous
 62
     7
370
    25
100
AcDbCircle
 10
7030.7264446797
 20
7336.7201227691
 30
0.0
 40
32.51304127777134
100
AcDbArc
 50
270.3984566601
 51
276.9293382744
  0
ARC
  5
2D9
330
1F
100
AcDbEntity
  8
0
  6
Continuous
 62
     7
370
    25
100
AcDbCircle
 10
7029.7252628875
 20
7329.5661811936
 30
0.0
 40
25.32349552649536
100
AcDbArc
 50
258.4758326321
 51
265.8937831657
  0
LWPOLYLINE
  5
2DA
330
1F
100
AcDbEntity
  8
0
  6
Continuous
 62
     7
370
    25
100
AcDbPolyline
 90
        3
 70
   128
 43
0.0
 10
7022.4388214912
 20
7305.4366617248
 10
7021.9347398795
 20
7305.7039878627
 10
7021.4763240339
 20
7306.0702358329
  0
LWPOLYLINE
  5
2DB
330
1F
100
AcDbEntity
  8
0
  6
Continuous
 62
     7
370
    25
100
AcDbPolyline
 90
        3
 70
   128
 43
0.0
 10
7021.3461104968
 20
7306.2376307342
 10
7021.2211104968
 20
7306.6325418677
 10
7021.3461104968
 20
7307.0274530013
  0
ARC
  5
2DC
330
1F
100
AcDbEntity
  8
0
  6
Continuous
 62
     7
370
    25
100
AcDbCircle
 10
5830.5961104968
 20
7314.9124619412
 30
0.0
 40
13.0000000000008
100
AcDbArc
 50
339.1745965348
 51
200.8254034652
  0
LINE
  5
2DD
330
1F
100
AcDbEntity
  8
0
  6
Continuous
 62
     7
370
    25
100
AcDbLine
 10
5818.4454246861
 20
7310.2906836762
 30
0.0
 11
5842.7467963075
 21
7310.2906836762
 31
0.0
  0
LINE
  5
2DE
330
1F
100
AcDbEntity
  8
0
  6
Continuous
 62
     7
370
    25
100
AcDbLine
 10
5843.7144398643
 20
7310.0227344838
 30
0.0
 11
5842.7467963075
 21
7310.2906836762
 31
0.0
  0
ARC
  5
2DF
330
1F
100
AcDbEntity
  8
0
  6
Continuous
 62
     7
370
    25
100
AcDbCircle
 10
5830.5961104968
 20
7314.9124619412
 30
0.0
 40
13.99999999999974
100
AcDbArc
 50
200.4424420745
 51
339.5575579255
  0
LINE
  5
2E0
330
1F
100
AcDbEntity
  8
0
  6
Continuous
 62
     7
370
    25
100
AcDbLine
 10
5818.4454246861
 20
7310.2906836762
 30
0.0
 11
5817.4777811294
 21
7310.0227344838
 31
0.0
  0
LWPOLYLINE
  5
2E1
330
1F
100
AcDbEntity
  8
0
  6
Continuous
 62
     7
370
    25
100
AcDbPolyline
 90
       34
 70
   128
 43
0.0
 10
5830.5961104968
 20
7308.705417025
 10
5832.4649665349
 20
7308.6592297015
 10
5834.2662772465
 20
7308.5223370611
 10
5835.9349385692
 20
7308.2996867607
 10
5837.4106407352
 20
7307.999325962
 10
5838.6400480233
 20
7307.6321104871
 10
5839.578726451
 20
7307.2113124598
 10
5840.192749734
 20
7306.7521406174
 10
5840.4599254713
 20
7306.2711906265
 10
5840.3705972354
 20
7305.785845273
 10
5839.9279935816
 20
7305.3136462024
 10
5839.1481113592
 20
7304.8716599194
 10
5838.0591375436
 20
7304.47586096
 10
5836.7004304858
 20
7304.1405545297
 10
5835.1210973989
 20
7303.8778594766
 10
5833.3782194956
 20
7303.6972702844
 10
5831.5347889245
 20
7303.6053139169
 10
5829.6574320692
 20
7303.6053139169
 10
5827.814001498
 20
7303.6972702844
 10
5826.0711235948
 20
7303.8778594766
 10
5824.4917905079
 20
7304.1405545297
 10
5823.1330834501
 20
7304.47586096
 10
5822.0441096345
 20
7304.8716599194
 10
5821.264227412
 20
7305.3136462024
 10
5820.8216237583
 20
7305.785845273
 10
5820.7322955224
 20
7306.2711906265
 10
5820.9994712596
 20
7306.7521406174
 10
5821.6134945427
 20
7307.2113124598
 10
5822.5521729703
 20
7307.6321104871
 10
5823.7815802585
 20
7307.999325962
 10
5825.2572824245
 20
7308.2996867607
 10
5826.9259437472
 20
7308.5223370611
 10
5828.7272544588
 20
7308.6592297015
 10
5830.5961104968
 20
7308.705417025
  0
ARC
  5
2E2
330
1F
100
AcDbEntity
  8
0
  6
Continuous
 62
     7
370
    25
100
AcDbCircle
 10
5830.5961104968
 20
7314.9124619412
 30
0.0
 40
13.99999999999974
100
AcDbArc
 50
339.5575579255
 51
200.4424420745
  0
LWPOLYLINE
  5
2E3
330
1F
100
AcDbEntity
  8
0
  6
Continuous
 62
     7
370
    25
100
AcDbPolyline
 90
        3
 70
   128
 43
0.0
 10
5839.8254831867
 20
7307.0585571316
 10
5839.9711104968
 20
7306.6325418677
 10
5839.8461104968
 20
7306.2376307342
  0
LWPOLYLINE
  5
2E4
330
1F
100
AcDbEntity
  8
0
  6
Continuous
 62
     7
370
    25
100
AcDbPolyline
 90
        3
 70
   128
 43
0.0
 10
5838.9453877114
 20
7305.5289830149
 10
5838.3911381122
 20
7305.284490394
 10
5837.3386479221
 20
7304.946661796
  0
ARC
  5
2E5
330
1F
100
AcDbEntity
  8
0
  6
Continuous
 62
     7
370
    25
100
AcDbCircle
 10
5830.7264446797
 20
7336.7201227688
 30
0.0
 40
32.51304127749012
100
AcDbArc
 50
270.3984566601
 51
276.9293382745
  0
ARC
  5
2E6
330
1F
100
AcDbEntity
  8
0
  6
Continuous
 62
     7
370
    25
100
AcDbCircle
 10
5829.7252628874
 20
7329.5661811934
 30
0.0
 40
25.32349552627488
100
AcDbArc
 50
258.4758326321
 51
265.8937831658
  0
LWPOLYLINE
  5
2E7
330
1F
100
AcDbEntity
  8
0
  6
Continuous
 62
     7
370
    25
100
AcDbPolyline
 90
        3
 70
   128
 43
0.0
 10
5822.4388214912
 20
7305.4366617248
 10
5821.9347398795
 20
7305.7039878627
 10
5821.4763240339
 20
7306.0702358329
  0
LWPOLYLINE
  5
2E8
330
1F
100
AcDbEntity
  8
0
  6
Continuous
 62
     7
370
    25
100
AcDbPolyline
 90
        3
 70
   128
 43
0.0
 10
5821.3461104968
 20
7306.2376307342
 10
5821.2211104968
 20
7306.6325418677
 10
5821.3667377878
 20
7307.0585571038
  0
LINE
  5
2E9
330
1F
100
AcDbEntity
  8
0
  6
Continuous
 62
     8
370
    25
100
AcDbLine
 10
7340.5961104968
 20
6174.9124619412
 30
0.0
 11
7340.5961104968
 21
6754.9124619412
 31
0.0
  0
LINE
  5
2EA
330
1F
100
AcDbEntity
  8
0
  6
Continuous
 62
     8
370
    25
100
AcDbLine
 10
7376.5961104968
 20
6174.9124619412
 30
0.0
 11
7376.5961104968
 21
6754.9124619412
 31
0.0
  0
LINE
  5
2EB
330
1F
100
AcDbEntity
  8
0
  6
Continuous
 62
     8
370
    25
100
AcDbLine
 10
5520.5961104968
 20
6174.9124619412
 30
0.0
 11
5520.5961104968
 21
6754.9124619412
 31
0.0
  0
LINE
  5
2EC
330
1F
100
AcDbEntity
  8
0
  6
Continuous
 62
     8
370
    25
100
AcDbLine
 10
5484.5961104968
 20
6174.9124619412
 30
0.0
 11
5484.5961104968
 21
6754.9124619412
 31
0.0
  0
LINE
  5
2ED
330
1F
100
AcDbEntity
  8
0
  6
Continuous
 62
     8
370
    25
100
AcDbLine
 10
5605.9898962167
 20
6576.3083575412
 30
0.0
 11
5660.202324777
 21
6576.3083575412
 31
0.0
  0
LINE
  5
2EE
330
1F
100
AcDbEntity
  8
0
  6
Continuous
 62
     8
370
    25
100
AcDbLine
 10
5660.405552252
 20
6700.9616755012
 30
0.0
 11
5605.7866687417
 21
6700.9616755012
 31
0.0
  0
LINE
  5
2EF
330
1F
100
AcDbEntity
  8
0
  6
Continuous
 62
     8
370
    25
100
AcDbLine
 10
5610.0961104968
 20
6717.1140334026
 30
0.0
 11
5656.0961104968
 21
6717.1140334026
 31
0.0
  0
LINE
  5
2F0
330
1F
100
AcDbEntity
  8
0
  6
Continuous
 62
     7
370
    25
100
AcDbLine
 10
7615.9317468997
 20
6166.9124619412
 30
0.0
 11
7615.9317468997
 21
6162.9124619412
 31
0.0
  0
LINE
  5
2F1
330
1F
100
AcDbEntity
  8
0
  6
Continuous
 62
     7
370
    25
100
AcDbLine
 10
7625.9317468997
 20
6162.9124619412
 30
0.0
 11
7625.9317468997
 21
6166.9124619412
 31
0.0
  0
LINE
  5
2F2
330
1F
100
AcDbEntity
  8
0
  6
Continuous
 62
     7
370
    25
100
AcDbLine
 10
8048.0238352088
 20
6166.9124619412
 30
0.0
 11
8048.0238352088
 21
6162.9124619412
 31
0.0
  0
LINE
  5
2F3
330
1F
100
AcDbEntity
  8
0
  6
Continuous
 62
     7
370
    25
100
AcDbLine
 10
8058.0238352088
 20
6162.9124619412
 30
0.0
 11
8058.0238352088
 21
6166.9124619412
 31
0.0
  0
LINE
  5
2F4
330
1F
100
AcDbEntity
  8
0
  6
Continuous
 62
     7
370
    25
100
AcDbLine
 10
7600.9317468997
 20
6721.6140334026
 30
0.0
 11
7594.9238352088
 21
6721.6140334026
 31
0.0
  0
LINE
  5
2F5
330
1F
100
AcDbEntity
  8
0
  6
Continuous
 62
     7
370
    25
100
AcDbLine
 10
7594.9238352088
 20
6641.6140334026
 30
0.0
 11
7600.9317468997
 21
6641.6140334026
 31
0.0
  0
LINE
  5
2F6
330
1F
100
AcDbEntity
  8
0
  6
Continuous
 62
     7
370
    25
100
AcDbLine
 10
7594.9238352088
 20
6701.6140334026
 30
0.0
 11
7584.9238352088
 21
6701.6140334026
 31
0.0
  0
LINE
  5
2F7
330
1F
100
AcDbEntity
  8
0
  6
Continuous
 62
     7
370
    25
100
AcDbLine
 10
7584.9238352088
 20
6661.6140334026
 30
0.0
 11
7594.9238352088
 21
6661.6140334026
 31
0.0
  0
LINE
  5
2F8
330
1F
100
AcDbEntity
  8
0
  6
Continuous
 62
     7
370
    25
100
AcDbLine
 10
7777.4238352088
 20
6701.6140334026
 30
0.0
 11
7640.9317468997
 21
6701.6140334026
 31
0.0
  0
LINE
  5
2F9
330
1F
100
AcDbEntity
  8
0
  6
Continuous
 62
     7
370
    25
100
AcDbLine
 10
7640.9317468997
 20
6661.6140334026
 30
0.0
 11
7777.4238352088
 21
6661.6140334026
 31
0.0
  0
LINE
  5
2FA
330
1F
100
AcDbEntity
  8
0
  6
Continuous
 62
     7
370
    25
100
AcDbLine
 10
7821.4238352088
 20
6754.9124619412
 30
0.0
 11
7821.4238352088
 21
6720.1140334026
 31
0.0
  0
LINE
  5
2FB
330
1F
100
AcDbEntity
  8
0
  6
Continuous
 62
     7
370
    25
100
AcDbLine
 10
7821.4238352088
 20
6706.1140334026
 30
0.0
 11
7821.4238352088
 21
6703.6140334026
 31
0.0
  0
LINE
  5
2FC
330
1F
100
AcDbEntity
  8
0
  6
Continuous
 62
     7
370
    25
100
AcDbLine
 10
7853.4238352088
 20
6703.6140334026
 30
0.0
 11
7853.4238352088
 21
6706.1140334026
 31
0.0
  0
LINE
  5
2FD
330
1F
100
AcDbEntity
  8
0
  6
Continuous
 62
     7
370
    25
100
AcDbLine
 10
7853.4238352088
 20
6720.1140334026
 30
0.0
 11
7853.4238352088
 21
6754.9124619412
 31
0.0
  0
LINE
  5
2FE
330
1F
100
AcDbEntity
  8
0
  6
Continuous
 62
     7
370
    25
100
AcDbLine
 10
7871.4238352088
 20
6643.6140334026
 30
0.0
 11
7864.733276964
 21
6700.9616755012
 31
0.0
  0
LINE
  5
2FF
330
1F
100
AcDbEntity
  8
0
  6
Continuous
 62
     7
370
    25
100
AcDbLine
 10
7805.2949368439
 20
6659.6520474176
 30
0.0
 11
7803.4238352088
 21
6643.6140334026
 31
0.0
  0
LINE
  5
300
330
1F
100
AcDbEntity
  8
0
  6
Continuous
 62
     7
370
    25
100
AcDbLine
 10
7803.4238352088
 20
6643.6140334026
 30
0.0
 11
7810.3176209287
 21
6576.3083575412
 31
0.0
  0
LINE
  5
301
330
1F
100
AcDbEntity
  8
0
  6
Continuous
 62
     7
370
    25
100
AcDbLine
 10
7864.530049489
 20
6576.3083575412
 30
0.0
 11
7871.4238352088
 21
6643.6140334026
 31
0.0
  0
LINE
  5
302
330
1F
100
AcDbEntity
  8
0
  6
Continuous
 62
     7
370
    25
100
AcDbLine
 10
7793.4238352088
 20
6709.1140334026
 30
0.0
 11
7789.4238352088
 21
6707.6140334026
 31
0.0
  0
LINE
  5
303
330
1F
100
AcDbEntity
  8
0
  6
Continuous
 62
     7
370
    25
100
AcDbLine
 10
7789.4238352088
 20
6655.6140334026
 30
0.0
 11
7793.4238352088
 21
6654.1140334026
 31
0.0
  0
ARC
  5
304
330
1F
100
AcDbEntity
  8
0
  6
Continuous
 62
     7
370
    25
100
AcDbCircle
 10
7861.7534875467
 20
6700.6140334026
 30
0.0
 40
3.000000000000807
100
AcDbArc
 50
6.654425046
 51
90.0
  0
ARC
  5
305
330
1F
100
AcDbEntity
  8
0
  6
Continuous
 62
     7
370
    25
100
AcDbCircle
 10
7813.3020073426
 20
6576.6140334026
 30
0.0
 40
3.000000000000909
100
AcDbArc
 50
185.8481280262
 51
270.0
  0
ARC
  5
306
330
1F
100
AcDbEntity
  8
0
  6
Continuous
 62
     7
370
    25
100
AcDbCircle
 10
7861.545663075
 20
6576.6140334026
 30
0.0
 40
3.000000000000909
100
AcDbArc
 50
270.0
 51
354.1518719738
  0
ARC
  5
307
330
1F
100
AcDbEntity
  8
0
  6
Continuous
 62
     7
370
    25
100
AcDbCircle
 10
7780.4238352088
 20
6704.6140334026
 30
0.0
 40
3.0
100
AcDbArc
 50
90.0
 51
180.0
  0
ARC
  5
308
330
1F
100
AcDbEntity
  8
0
  6
Continuous
 62
     7
370
    25
100
AcDbCircle
 10
7780.4238352088
 20
6658.6140334026
 30
0.0
 40
3.0
100
AcDbArc
 50
180.0
 51
270.0
  0
LINE
  5
309
330
1F
100
AcDbEntity
  8
0
  6
Continuous
 62
     7
370
    25
100
AcDbLine
 10
7789.4238352088
 20
6707.6140334026
 30
0.0
 11
7780.4238352088
 21
6707.6140334026
 31
0.0
  0
LINE
  5
30A
330
1F
100
AcDbEntity
  8
0
  6
Continuous
 62
     7
370
    25
100
AcDbLine
 10
7780.4238352088
 20
6655.6140334026
 30
0.0
 11
7789.4238352088
 21
6655.6140334026
 31
0.0
  0
LINE
  5
30B
330
1F
100
AcDbEntity
  8
0
  6
Continuous
 62
     7
370
    25
100
AcDbLine
 10
7862.4238352088
 20
6706.1140334026
 30
0.0
 11
7860.4238352088
 21
6710.1140334026
 31
0.0
  0
LINE
  5
30C
330
1F
100
AcDbEntity
  8
0
  6
Continuous
 62
     7
370
    25
100
AcDbLine
 10
7814.4238352088
 20
6710.1140334026
 30
0.0
 11
7812.4238352088
 21
6706.1140334026
 31
0.0
  0
ARC
  5
30D
330
1F
100
AcDbEntity
  8
0
  6
Continuous
 62
     7
370
    25
100
AcDbCircle
 10
7817.4238352088
 20
6717.1140334026
 30
0.0
 40
3.0
100
AcDbArc
 50
90.0
 51
180.0
  0
ARC
  5
30E
330
1F
100
AcDbEntity
  8
0
  6
Continuous
 62
     7
370
    25
100
AcDbCircle
 10
7857.4238352088
 20
6717.1140334026
 30
0.0
 40
3.0
100
AcDbArc
 50
0.0
 51
90.0
  0
LINE
  5
30F
330
1F
100
AcDbEntity
  8
0
  6
Continuous
 62
     7
370
    25
100
AcDbLine
 10
7814.4238352088
 20
6717.1140334026
 30
0.0
 11
7814.4238352088
 21
6710.1140334026
 31
0.0
  0
LINE
  5
310
330
1F
100
AcDbEntity
  8
0
  6
Continuous
 62
     7
370
    25
100
AcDbLine
 10
7860.4238352088
 20
6710.1140334026
 30
0.0
 11
7860.4238352088
 21
6717.1140334026
 31
0.0
  0
LINE
  5
311
330
1F
100
AcDbEntity
  8
0
  6
Continuous
 62
     7
370
    25
100
AcDbLine
 10
7793.4238352088
 20
6659.6140334026
 30
0.0
 11
7805.3186803707
 21
6659.6140334026
 31
0.0
  0
LINE
  5
312
330
1F
100
AcDbEntity
  8
0
  6
Continuous
 62
     7
370
    25
100
AcDbLine
 10
7810.4238352088
 20
6703.6140334026
 30
0.0
 11
7793.4238352088
 21
6703.6140334026
 31
0.0
  0
ARC
  5
313
330
1F
100
AcDbEntity
  8
0
  6
Continuous
 62
     7
370
    25
100
AcDbCircle
 10
7612.5773941343
 20
7385.3781613344
 30
0.0
 40
37.00000000000038
100
AcDbArc
 50
59.0753555839
 51
96.9246444161
  0
LINE
  5
314
330
1F
100
AcDbEntity
  8
0
  6
Continuous
 62
     7
370
    25
100
AcDbLine
 10
7647.4238352088
 20
7344.9124619412
 30
0.0
 11
7644.9238352088
 21
7344.9124619412
 31
0.0
  0
LINE
  5
315
330
1F
100
AcDbEntity
  8
0
  6
Continuous
 62
     7
370
    25
100
AcDbLine
 10
7644.9238352088
 20
7284.9124619412
 30
0.0
 11
7647.4238352088
 21
7284.9124619412
 31
0.0
  0
LINE
  5
316
330
1F
100
AcDbEntity
  8
0
  6
Continuous
 62
     7
370
    25
100
AcDbLine
 10
7647.4238352088
 20
7284.9124619412
 30
0.0
 11
7647.9238352088
 21
7285.4124619412
 31
0.0
  0
LINE
  5
317
330
1F
100
AcDbEntity
  8
0
  6
Continuous
 62
     7
370
    25
100
AcDbLine
 10
7647.9238352088
 20
7344.4124619412
 30
0.0
 11
7647.4238352088
 21
7344.9124619412
 31
0.0
  0
LINE
  5
318
330
1F
100
AcDbEntity
  8
0
  6
Continuous
 62
     7
370
    25
100
AcDbLine
 10
7656.5738352088
 20
7300.9124619412
 30
0.0
 11
7778.9238352088
 21
7300.9124619412
 31
0.0
  0
LINE
  5
319
330
1F
100
AcDbEntity
  8
0
  6
Continuous
 62
     7
370
    25
100
AcDbLine
 10
7647.9238352088
 20
7300.9124619412
 30
0.0
 11
7653.2945246436
 21
7300.9124619412
 31
0.0
  0
LINE
  5
31A
330
1F
100
AcDbEntity
  8
0
  6
Continuous
 62
     7
370
    25
100
AcDbLine
 10
7812.9238352088
 20
7328.9124619412
 30
0.0
 11
7647.9238352088
 21
7328.9124619412
 31
0.0
  0
LINE
  5
31B
330
1F
100
AcDbEntity
  8
0
  6
Continuous
 62
     7
370
    25
100
AcDbLine
 10
7813.9238352088
 20
7327.9124619412
 30
0.0
 11
7812.9238352088
 21
7328.9124619412
 31
0.0
  0
LINE
  5
31C
330
1F
100
AcDbEntity
  8
0
  6
Continuous
 62
     7
370
    25
100
AcDbLine
 10
7602.9317468997
 20
6174.9124619412
 30
0.0
 11
7600.4317468997
 21
6174.9124619412
 31
0.0
  0
LINE
  5
31D
330
1F
100
AcDbEntity
  8
0
  6
Continuous
 62
     7
370
    25
100
AcDbLine
 10
7602.9317468997
 20
6172.9124619412
 30
0.0
 11
7602.9317468997
 21
6174.9124619412
 31
0.0
  0
LINE
  5
31E
330
1F
100
AcDbEntity
  8
0
  6
Continuous
 62
     7
370
    25
100
AcDbLine
 10
7600.4317468997
 20
6172.9124619412
 30
0.0
 11
7602.9317468997
 21
6172.9124619412
 31
0.0
  0
LINE
  5
31F
330
1F
100
AcDbEntity
  8
0
  6
Continuous
 62
     7
370
    25
100
AcDbLine
 10
7600.4317468997
 20
6172.9124619412
 30
0.0
 11
7600.4317468997
 21
6174.9124619412
 31
0.0
  0
LINE
  5
320
330
1F
100
AcDbEntity
  8
0
  6
Continuous
 62
     7
370
    25
100
AcDbLine
 10
7638.9317468997
 20
6174.9124619412
 30
0.0
 11
7602.9317468997
 21
6174.9124619412
 31
0.0
  0
LINE
  5
321
330
1F
100
AcDbEntity
  8
0
  6
Continuous
 62
     7
370
    25
100
AcDbLine
 10
7638.9317468997
 20
6172.9124619412
 30
0.0
 11
7638.9317468997
 21
6174.9124619412
 31
0.0
  0
LINE
  5
322
330
1F
100
AcDbEntity
  8
0
  6
Continuous
 62
     7
370
    25
100
AcDbLine
 10
7602.9317468997
 20
6172.9124619412
 30
0.0
 11
7638.9317468997
 21
6172.9124619412
 31
0.0
  0
ARC
  5
323
330
1F
100
AcDbEntity
  8
0
  6
Continuous
 62
     7
370
    25
100
AcDbCircle
 10
7606.4317468997
 20
6172.9124619412
 30
0.0
 40
6.000000000000909
100
AcDbArc
 50
180.0
 51
270.0
  0
ELLIPSE
  5
324
330
1F
100
AcDbEntity
  8
0
  6
Continuous
 62
     7
370
    25
100
AcDbEllipse
 10
7606.4317468997
 20
6172.9124619412
 30
0.0
 11
0.0
 21
5.999999999999091
 31
0.0
210
0.0
220
0.0
230
1.0
 40
0.5833333333
 41
1.570796326794897
 42
3.141592653589793
  0
ELLIPSE
  5
325
330
1F
100
AcDbEntity
  8
0
  6
Continuous
 62
     7
370
    25
100
AcDbEllipse
 10
7635.4317468997
 20
6172.9124619412
 30
0.0
 11
0.0
 21
5.999999999999091
 31
0.0
210
0.0
220
0.0
230
1.0
 40
0.5833333333
 41
3.141592653589793
 42
4.712388980384698
  0
LINE
  5
326
330
1F
100
AcDbEntity
  8
0
  6
Continuous
 62
     7
370
    25
100
AcDbLine
 10
7635.4317468997
 20
6166.9124619412
 30
0.0
 11
7606.4317468997
 21
6166.9124619412
 31
0.0
  0
ARC
  5
327
330
1F
100
AcDbEntity
  8
0
  6
Continuous
 62
     7
370
    25
100
AcDbCircle
 10
7635.4317468997
 20
6172.9124619412
 30
0.0
 40
6.000000000000909
100
AcDbArc
 50
270.0
 51
0.0
  0
LINE
  5
328
330
1F
100
AcDbEntity
  8
0
  6
Continuous
 62
     7
370
    25
100
AcDbLine
 10
7638.9317468997
 20
6172.9124619412
 30
0.0
 11
7641.4317468997
 21
6172.9124619412
 31
0.0
  0
LINE
  5
329
330
1F
100
AcDbEntity
  8
0
  6
Continuous
 62
     7
370
    25
100
AcDbLine
 10
7641.4317468997
 20
6172.9124619412
 30
0.0
 11
7641.4317468997
 21
6174.9124619412
 31
0.0
  0
LINE
  5
32A
330
1F
100
AcDbEntity
  8
0
  6
Continuous
 62
     7
370
    25
100
AcDbLine
 10
7641.4317468997
 20
6174.9124619412
 30
0.0
 11
7638.9317468997
 21
6174.9124619412
 31
0.0
  0
LINE
  5
32B
330
1F
100
AcDbEntity
  8
0
  6
Continuous
 62
     7
370
    25
100
AcDbLine
 10
7620.9317468997
 20
6154.9124619412
 30
0.0
 11
7620.9317468997
 21
6162.9124619412
 31
0.0
  0
LINE
  5
32C
330
1F
100
AcDbEntity
  8
0
  6
Continuous
 62
     7
370
    25
100
AcDbLine
 10
7620.9317468997
 20
6154.9124619412
 30
0.0
 11
7605.9317468997
 21
6154.9124619412
 31
0.0
  0
LINE
  5
32D
330
1F
100
AcDbEntity
  8
0
  6
Continuous
 62
     7
370
    25
100
AcDbLine
 10
7605.9317468997
 20
6154.9124619412
 30
0.0
 11
7605.9317468997
 21
6162.9124619412
 31
0.0
  0
LINE
  5
32E
330
1F
100
AcDbEntity
  8
0
  6
Continuous
 62
     7
370
    25
100
AcDbLine
 10
7620.9317468997
 20
6162.9124619412
 30
0.0
 11
7605.9317468997
 21
6162.9124619412
 31
0.0
  0
LINE
  5
32F
330
1F
100
AcDbEntity
  8
0
  6
Continuous
 62
     7
370
    25
100
AcDbLine
 10
7635.9317468997
 20
6154.9124619412
 30
0.0
 11
7635.9317468997
 21
6162.9124619412
 31
0.0
  0
LINE
  5
330
330
1F
100
AcDbEntity
  8
0
  6
Continuous
 62
     7
370
    25
100
AcDbLine
 10
7635.9317468997
 20
6162.9124619412
 30
0.0
 11
7620.9317468997
 21
6162.9124619412
 31
0.0
  0
LINE
  5
331
330
1F
100
AcDbEntity
  8
0
  6
Continuous
 62
     7
370
    25
100
AcDbLine
 10
7635.9317468997
 20
6154.9124619412
 30
0.0
 11
7620.9317468997
 21
6154.9124619412
 31
0.0
  0
LINE
  5
332
330
1F
100
AcDbEntity
  8
0
  6
Continuous
 62
     7
370
    25
100
AcDbLine
 10
8071.0238352088
 20
6174.9124619412
 30
0.0
 11
8035.0238352088
 21
6174.9124619412
 31
0.0
  0
LINE
  5
333
330
1F
100
AcDbEntity
  8
0
  6
Continuous
 62
     7
370
    25
100
AcDbLine
 10
8071.0238352088
 20
6172.9124619412
 30
0.0
 11
8071.0238352088
 21
6174.9124619412
 31
0.0
  0
LINE
  5
334
330
1F
100
AcDbEntity
  8
0
  6
Continuous
 62
     7
370
    25
100
AcDbLine
 10
8035.0238352088
 20
6172.9124619412
 30
0.0
 11
8071.0238352088
 21
6172.9124619412
 31
0.0
  0
LINE
  5
335
330
1F
100
AcDbEntity
  8
0
  6
Continuous
 62
     7
370
    25
100
AcDbLine
 10
8035.0238352088
 20
6172.9124619412
 30
0.0
 11
8035.0238352088
 21
6174.9124619412
 31
0.0
  0
LINE
  5
336
330
1F
100
AcDbEntity
  8
0
  6
Continuous
 62
     7
370
    25
100
AcDbLine
 10
8035.0238352088
 20
6174.9124619412
 30
0.0
 11
8032.5238352088
 21
6174.9124619412
 31
0.0
  0
LINE
  5
337
330
1F
100
AcDbEntity
  8
0
  6
Continuous
 62
     7
370
    25
100
AcDbLine
 10
8032.5238352088
 20
6172.9124619412
 30
0.0
 11
8035.0238352088
 21
6172.9124619412
 31
0.0
  0
LINE
  5
338
330
1F
100
AcDbEntity
  8
0
  6
Continuous
 62
     7
370
    25
100
AcDbLine
 10
8032.5238352088
 20
6172.9124619412
 30
0.0
 11
8032.5238352088
 21
6174.9124619412
 31
0.0
  0
ARC
  5
339
330
1F
100
AcDbEntity
  8
0
  6
Continuous
 62
     7
370
    25
100
AcDbCircle
 10
8038.5238352088
 20
6172.9124619412
 30
0.0
 40
6.000000000000909
100
AcDbArc
 50
180.0
 51
270.0
  0
ELLIPSE
  5
33A
330
1F
100
AcDbEntity
  8
0
  6
Continuous
 62
     7
370
    25
100
AcDbEllipse
 10
8038.5238352088
 20
6172.9124619412
 30
0.0
 11
0.0
 21
5.999999999999091
 31
0.0
210
0.0
220
0.0
230
1.0
 40
0.5833333333
 41
1.570796326794897
 42
3.141592653589793
  0
ELLIPSE
  5
33B
330
1F
100
AcDbEntity
  8
0
  6
Continuous
 62
     7
370
    25
100
AcDbEllipse
 10
8067.5238352088
 20
6172.9124619412
 30
0.0
 11
0.0
 21
5.999999999999091
 31
0.0
210
0.0
220
0.0
230
1.0
 40
0.5833333333
 41
3.141592653589793
 42
4.712388980384698
  0
LINE
  5
33C
330
1F
100
AcDbEntity
  8
0
  6
Continuous
 62
     7
370
    25
100
AcDbLine
 10
8067.5238352088
 20
6166.9124619412
 30
0.0
 11
8038.5238352088
 21
6166.9124619412
 31
0.0
  0
ARC
  5
33D
330
1F
100
AcDbEntity
  8
0
  6
Continuous
 62
     7
370
    25
100
AcDbCircle
 10
8067.5238352088
 20
6172.9124619412
 30
0.0
 40
6.000000000000909
100
AcDbArc
 50
270.0
 51
0.0
  0
LINE
  5
33E
330
1F
100
AcDbEntity
  8
0
  6
Continuous
 62
     7
370
    25
100
AcDbLine
 10
8071.0238352088
 20
6172.9124619412
 30
0.0
 11
8073.5238352088
 21
6172.9124619412
 31
0.0
  0
LINE
  5
33F
330
1F
100
AcDbEntity
  8
0
  6
Continuous
 62
     7
370
    25
100
AcDbLine
 10
8073.5238352088
 20
6172.9124619412
 30
0.0
 11
8073.5238352088
 21
6174.9124619412
 31
0.0
  0
LINE
  5
340
330
1F
100
AcDbEntity
  8
0
  6
Continuous
 62
     7
370
    25
100
AcDbLine
 10
8073.5238352088
 20
6174.9124619412
 30
0.0
 11
8071.0238352088
 21
6174.9124619412
 31
0.0
  0
LINE
  5
341
330
1F
100
AcDbEntity
  8
0
  6
Continuous
 62
     7
370
    25
100
AcDbLine
 10
8068.0238352088
 20
6154.9124619412
 30
0.0
 11
8068.0238352088
 21
6162.9124619412
 31
0.0
  0
LINE
  5
342
330
1F
100
AcDbEntity
  8
0
  6
Continuous
 62
     7
370
    25
100
AcDbLine
 10
8068.0238352088
 20
6154.9124619412
 30
0.0
 11
8053.0238352088
 21
6154.9124619412
 31
0.0
  0
LINE
  5
343
330
1F
100
AcDbEntity
  8
0
  6
Continuous
 62
     7
370
    25
100
AcDbLine
 10
8053.0238352088
 20
6154.9124619412
 30
0.0
 11
8053.0238352088
 21
6162.9124619412
 31
0.0
  0
LINE
  5
344
330
1F
100
AcDbEntity
  8
0
  6
Continuous
 62
     7
370
    25
100
AcDbLine
 10
8068.0238352088
 20
6162.9124619412
 30
0.0
 11
8053.0238352088
 21
6162.9124619412
 31
0.0
  0
LINE
  5
345
330
1F
100
AcDbEntity
  8
0
  6
Continuous
 62
     7
370
    25
100
AcDbLine
 10
8053.0238352088
 20
6154.9124619412
 30
0.0
 11
8038.0238352088
 21
6154.9124619412
 31
0.0
  0
LINE
  5
346
330
1F
100
AcDbEntity
  8
0
  6
Continuous
 62
     7
370
    25
100
AcDbLine
 10
8038.0238352088
 20
6154.9124619412
 30
0.0
 11
8038.0238352088
 21
6162.9124619412
 31
0.0
  0
LINE
  5
347
330
1F
100
AcDbEntity
  8
0
  6
Continuous
 62
     7
370
    25
100
AcDbLine
 10
8053.0238352088
 20
6162.9124619412
 30
0.0
 11
8038.0238352088
 21
6162.9124619412
 31
0.0
  0
LINE
  5
348
330
1F
100
AcDbEntity
  8
0
  6
Continuous
 62
     7
370
    25
100
AcDbLine
 10
8033.0238352088
 20
6174.9124619412
 30
0.0
 11
8033.0238352088
 21
6754.9124619412
 31
0.0
  0
LINE
  5
349
330
1F
100
AcDbEntity
  8
0
  6
Continuous
 62
     7
370
    25
100
AcDbLine
 10
8073.0238352088
 20
6174.9124619412
 30
0.0
 11
8073.0238352088
 21
6754.9124619412
 31
0.0
  0
LINE
  5
34A
330
1F
100
AcDbEntity
  8
0
  6
Continuous
 62
     7
370
    25
100
AcDbLine
 10
7600.9317468997
 20
6174.9124619412
 30
0.0
 11
7600.9317468997
 21
6754.9124619412
 31
0.0
  0
LINE
  5
34B
330
1F
100
AcDbEntity
  8
0
  6
Continuous
 62
     7
370
    25
100
AcDbLine
 10
7640.9317468997
 20
6174.9124619412
 30
0.0
 11
7640.9317468997
 21
6754.9124619412
 31
0.0
  0
LINE
  5
34C
330
1F
100
AcDbEntity
  8
0
  6
Continuous
 62
     7
370
    25
100
AcDbLine
 10
8033.0238352088
 20
6309.9124619412
 30
0.0
 11
7640.9317468996
 21
6309.9124619412
 31
0.0
  0
LINE
  5
34D
330
1F
100
AcDbEntity
  8
0
  6
Continuous
 62
     7
370
    25
100
AcDbLine
 10
8033.0238352088
 20
6311.9124619412
 30
0.0
 11
7640.9317468997
 21
6311.9124619412
 31
0.0
  0
LINE
  5
34E
330
1F
100
AcDbEntity
  8
0
  6
Continuous
 62
     7
370
    25
100
AcDbLine
 10
8033.023835209
 20
6347.9124619412
 30
0.0
 11
7640.9317468996
 21
6347.9124619412
 31
0.0
  0
LINE
  5
34F
330
1F
100
AcDbEntity
  8
0
  6
Continuous
 62
     7
370
    25
100
AcDbLine
 10
8033.0238352088
 20
6349.9124619412
 30
0.0
 11
7640.9317468996
 21
6349.9124619412
 31
0.0
  0
LINE
  5
350
330
1F
100
AcDbEntity
  8
0
  6
Continuous
 62
     7
370
    25
100
AcDbLine
 10
7594.9238352088
 20
7401.5124619412
 30
0.0
 11
7594.9238352088
 21
7422.1956881968
 31
0.0
  0
ARC
  5
351
330
1F
100
AcDbEntity
  8
0
  6
Continuous
 62
     7
370
    25
100
AcDbCircle
 10
7597.1238352088
 20
7422.1956881968
 30
0.0
 40
2.200000000000452
100
AcDbArc
 50
78.0
 51
180.0
  0
LINE
  5
352
330
1F
100
AcDbEntity
  8
0
  6
Continuous
 62
     7
370
    25
100
AcDbLine
 10
7597.5812409286
 20
7424.3476129184
 30
0.0
 11
7643.1812409286
 21
7414.6550337062
 31
0.0
  0
ARC
  5
353
330
1F
100
AcDbEntity
  8
0
  6
Continuous
 62
     7
370
    25
100
AcDbCircle
 10
7642.7238352088
 20
7412.5031089846
 30
0.0
 40
2.200000000000728
100
AcDbArc
 50
0.0
 51
78.0
  0
LINE
  5
354
330
1F
100
AcDbEntity
  8
0
  6
Continuous
 62
     7
370
    25
100
AcDbLine
 10
7644.9238352088
 20
7412.5031089846
 30
0.0
 11
7644.9238352088
 21
7004.9124619412
 31
0.0
  0
LINE
  5
355
330
1F
100
AcDbEntity
  8
0
  6
Continuous
 62
     7
370
    25
100
AcDbLine
 10
7644.9238352088
 20
7004.9124619412
 30
0.0
 11
8072.7238352088
 21
7004.9124619412
 31
0.0
  0
ARC
  5
356
330
1F
100
AcDbEntity
  8
0
  6
Continuous
 62
     7
370
    25
100
AcDbCircle
 10
8072.7238352088
 20
7002.7124619412
 30
0.0
 40
2.200000000000728
100
AcDbArc
 50
0.0
 51
90.0
  0
LINE
  5
357
330
1F
100
AcDbEntity
  8
0
  6
Continuous
 62
     7
370
    25
100
AcDbLine
 10
8074.9238352088
 20
7002.7124619412
 30
0.0
 11
8074.9238352088
 21
6979.9124619412
 31
0.0
  0
LINE
  5
358
330
1F
100
AcDbEntity
  8
0
  6
Continuous
 62
     7
370
    25
100
AcDbLine
 10
8074.9238352088
 20
6979.9124619412
 30
0.0
 11
8071.9238352088
 21
6979.9124619412
 31
0.0
  0
LINE
  5
359
330
1F
100
AcDbEntity
  8
0
  6
Continuous
 62
     7
370
    25
100
AcDbLine
 10
8071.9238352088
 20
6979.9124619412
 30
0.0
 11
8071.9238352088
 21
6979.9024619412
 31
0.0
  0
LINE
  5
35A
330
1F
100
AcDbEntity
  8
0
  6
Continuous
 62
     7
370
    25
100
AcDbLine
 10
8071.9238352088
 20
6754.9124619412
 30
0.0
 11
8071.9238352088
 21
6979.9024619412
 31
0.0
  0
LINE
  5
35B
330
1F
100
AcDbEntity
  8
0
  6
Continuous
 62
     7
370
    25
100
AcDbLine
 10
8071.9238352088
 20
6754.9124619412
 30
0.0
 11
7598.0238352088
 21
6754.9124619412
 31
0.0
  0
LINE
  5
35C
330
1F
100
AcDbEntity
  8
0
  6
Continuous
 62
     7
370
    25
100
AcDbLine
 10
7598.0238352088
 20
7399.5124619412
 30
0.0
 11
7598.0238352088
 21
6754.9124619412
 31
0.0
  0
LINE
  5
35D
330
1F
100
AcDbEntity
  8
0
  6
Continuous
 62
     7
370
    25
100
AcDbLine
 10
7599.0238352088
 20
7399.5124619412
 30
0.0
 11
7599.0238352088
 21
7401.5124619412
 31
0.0
  0
LINE
  5
35E
330
1F
100
AcDbEntity
  8
0
  6
Continuous
 62
     7
370
    25
100
AcDbLine
 10
7599.0238352088
 20
7401.5124619412
 30
0.0
 11
7594.9238352088
 21
7401.5124619412
 31
0.0
  0
LINE
  5
35F
330
1F
100
AcDbEntity
  8
0
  6
Continuous
 62
     7
370
    25
100
AcDbLine
 10
7598.0238352088
 20
7399.5124619412
 30
0.0
 11
7599.0238352088
 21
7399.5124619412
 31
0.0
  0
LINE
  5
360
330
1F
100
AcDbEntity
  8
0
  6
Continuous
 62
     7
370
    25
100
AcDbLine
 10
7594.9238352088
 20
6754.9124619412
 30
0.0
 11
7594.9238352088
 21
7399.5124619412
 31
0.0
  0
LINE
  5
361
330
1F
100
AcDbEntity
  8
0
  6
Continuous
 62
     7
370
    25
100
AcDbLine
 10
7598.0238352088
 20
6754.9124619412
 30
0.0
 11
7594.9238352088
 21
6754.9124619412
 31
0.0
  0
LINE
  5
362
330
1F
100
AcDbEntity
  8
0
  6
Continuous
 62
     7
370
    25
100
AcDbLine
 10
7594.9238352088
 20
7399.5124619412
 30
0.0
 11
7598.0238352088
 21
7399.5124619412
 31
0.0
  0
LINE
  5
363
330
1F
100
AcDbEntity
  8
0
  6
Continuous
 62
     7
370
    25
100
AcDbLine
 10
8075.0238352088
 20
6754.9124619412
 30
0.0
 11
8075.0238352088
 21
6979.9024619412
 31
0.0
  0
LINE
  5
364
330
1F
100
AcDbEntity
  8
0
  6
Continuous
 62
     7
370
    25
100
AcDbLine
 10
8075.0238352088
 20
6754.9124619412
 30
0.0
 11
8071.9238352088
 21
6754.9124619412
 31
0.0
  0
LINE
  5
365
330
1F
100
AcDbEntity
  8
0
  6
Continuous
 62
     7
370
    25
100
AcDbLine
 10
8071.9238352088
 20
6979.9024619412
 30
0.0
 11
8075.0238352088
 21
6979.9024619412
 31
0.0
  0
LINE
  5
366
330
1F
100
AcDbEntity
  8
0
  6
Continuous
 62
     7
370
    25
100
AcDbLine
 10
7596.1238352088
 20
7401.5124619412
 30
0.0
 11
7596.1238352088
 21
7399.9124619412
 31
0.0
  0
LINE
  5
367
330
1F
100
AcDbEntity
  8
0
  6
Continuous
 62
     7
370
    25
100
AcDbLine
 10
7594.9238352088
 20
7399.9124619412
 30
0.0
 11
7596.1238352088
 21
7399.9124619412
 31
0.0
  0
LINE
  5
368
330
1F
100
AcDbEntity
  8
0
  6
Continuous
 62
     7
370
    25
100
AcDbLine
 10
7594.9238352088
 20
7401.5124619412
 30
0.0
 11
7594.9238352088
 21
7399.9124619412
 31
0.0
  0
LINE
  5
369
330
1F
100
AcDbEntity
  8
0
  6
Continuous
 62
     7
370
    25
100
AcDbLine
 10
7594.9238352088
 20
6721.6140334026
 30
0.0
 11
7594.9238352088
 21
6641.6140334026
 31
0.0
  0
LINE
  5
36A
330
1F
100
AcDbEntity
  8
0
  6
Continuous
 62
     7
370
    25
100
AcDbLine
 10
7584.9238352088
 20
6701.6140334026
 30
0.0
 11
7584.9238352088
 21
6661.6140334026
 31
0.0
  0
LWPOLYLINE
  5
36B
330
1F
100
AcDbEntity
  8
0
  6
Continuous
 62
     7
370
    25
100
AcDbPolyline
 90
       20
 70
   128
 43
0.0
 10
7812.2020814285
 20
6700.9616755012
 10
7813.2074794562
 20
6699.3416167042
 10
7814.4818280085
 20
6697.0961032989
 10
7815.7924200557
 20
6694.4122524616
 10
7816.8050718689
 20
6691.803733725
 10
7817.589207621
 20
6688.8593737948
 10
7817.9166213457
 20
6686.4505235316
 10
7817.9368640052
 20
6683.8876480764
 10
7817.6285852811
 20
6681.3808064624
 10
7817.0070510517
 20
6678.8624367306
 10
7815.8089264364
 20
6675.6596175985
 10
7814.3040470118
 20
6672.6082946278
 10
7812.1884298609
 20
6669.0513433659
 10
7810.0175810892
 20
6665.8429625664
 10
7808.4067231737
 20
6663.6321329435
 10
7806.9983591356
 20
6661.7811530861
 10
7806.1315989461
 20
6660.6719728529
 10
7805.5387929941
 20
6659.9245895588
 10
7805.2967841139
 20
6659.6218737673
 10
7805.3187134559
 20
6659.6492734795
  0
LINE
  5
36C
330
1F
100
AcDbEntity
  8
0
  6
Continuous
 62
     7
370
    25
100
AcDbLine
 10
7803.4238352088
 20
6643.6140334026
 30
0.0
 11
7871.4238352088
 21
6643.6140334026
 31
0.0
  0
LINE
  5
36D
330
1F
100
AcDbEntity
  8
0
  6
Continuous
 62
     7
370
    25
100
AcDbLine
 10
7793.4238352088
 20
6709.1140334026
 30
0.0
 11
7793.4238352088
 21
6654.1140334026
 31
0.0
  0
LINE
  5
36E
330
1F
100
AcDbEntity
  8
0
  6
Continuous
 62
     7
370
    25
100
AcDbLine
 10
7789.4238352088
 20
6707.6140334026
 30
0.0
 11
7789.4238352088
 21
6655.6140334026
 31
0.0
  0
ARC
  5
36F
330
1F
100
AcDbEntity
  8
0
  6
Continuous
 62
     7
370
    25
100
AcDbCircle
 10
7815.0550900925
 20
6700.7553585594
 30
0.0
 40
2.860458899833072
100
AcDbArc
 50
92.0237024967
 51
175.863823239
  0
LINE
  5
370
330
1F
100
AcDbEntity
  8
0
  6
Continuous
 62
     7
370
    25
100
AcDbLine
 10
7814.9540789125
 20
6703.6140334026
 30
0.0
 11
7861.7534875467
 21
6703.6140334026
 31
0.0
  0
LINE
  5
371
330
1F
100
AcDbEntity
  8
0
  6
Continuous
 62
     7
370
    25
100
AcDbLine
 10
7813.3020073426
 20
6573.6140334026
 30
0.0
 11
7861.5456630608
 21
6573.6140334026
 31
0.0
  0
LINE
  5
372
330
1F
100
AcDbEntity
  8
0
  6
Continuous
 62
     7
370
    25
100
AcDbLine
 10
7777.4238352088
 20
6704.6140334026
 30
0.0
 11
7777.4238352088
 21
6658.6140334026
 31
0.0
  0
LINE
  5
373
330
1F
100
AcDbEntity
  8
0
  6
Continuous
 62
     7
370
    25
100
AcDbLine
 10
7814.4238352088
 20
6710.1140334026
 30
0.0
 11
7860.4238352088
 21
6710.1140334026
 31
0.0
  0
LINE
  5
374
330
1F
100
AcDbEntity
  8
0
  6
Continuous
 62
     7
370
    25
100
AcDbLine
 10
7812.4238352088
 20
6706.1140334026
 30
0.0
 11
7862.4238352088
 21
6706.1140334026
 31
0.0
  0
LINE
  5
375
330
1F
100
AcDbEntity
  8
0
  6
Continuous
 62
     7
370
    25
100
AcDbLine
 10
7817.4238352088
 20
6720.1140334026
 30
0.0
 11
7857.423835035
 21
6720.1140334026
 31
0.0
  0
ARC
  5
376
330
1F
100
AcDbEntity
  8
0
  6
Continuous
 62
     7
370
    25
100
AcDbCircle
 10
7742.6344852707
 20
6656.243074821
 30
0.0
 40
82.70068731255515
100
AcDbArc
 50
32.7332300189
 51
34.9457141136
  0
LINE
  5
377
330
1F
100
AcDbEntity
  8
0
  6
Continuous
 62
     7
370
    25
100
AcDbLine
 10
7810.4238352088
 20
6703.6140334026
 30
0.0
 11
7814.9540789125
 21
6703.6140334026
 31
0.0
  0
LINE
  5
378
330
1F
100
AcDbEntity
  8
0
  6
Continuous
 62
     7
370
    25
100
AcDbLine
 10
7653.8696671379
 20
7300.9124619411
 30
0.0
 11
7653.4238352088
 21
7300.9124619411
 31
0.0
  0
LINE
  5
379
330
1F
100
AcDbEntity
  8
0
  6
Continuous
 62
     7
370
    25
100
AcDbLine
 10
7656.4238352088
 20
7300.9124619411
 30
0.0
 11
7653.8696671379
 21
7300.9124619411
 31
0.0
  0
LINE
  5
37A
330
1F
100
AcDbEntity
  8
0
  6
Continuous
 62
     7
370
    25
100
AcDbLine
 10
7647.4238352088
 20
7284.9124619412
 30
0.0
 11
7647.4238352088
 21
7344.9124619412
 31
0.0
  0
LINE
  5
37B
330
1F
100
AcDbEntity
  8
0
  6
Continuous
 62
     7
370
    25
100
AcDbLine
 10
7647.9238352088
 20
7344.4124619412
 30
0.0
 11
7647.9238352088
 21
7285.4124619412
 31
0.0
  0
LINE
  5
37C
330
1F
100
AcDbEntity
  8
0
  6
Continuous
 62
     7
370
    25
100
AcDbLine
 10
7647.4238352088
 20
7326.4844182979
 30
0.0
 11
7647.4238352088
 21
7344.9124619412
 31
0.0
  0
LINE
  5
37D
330
1F
100
AcDbEntity
  8
0
  6
Continuous
 62
     7
370
    25
100
AcDbLine
 10
7647.4238352088
 20
7284.9124619412
 30
0.0
 11
7647.4238352088
 21
7326.4844182979
 31
0.0
  0
LINE
  5
37E
330
1F
100
AcDbEntity
  8
0
  6
Continuous
 62
     7
370
    25
100
AcDbLine
 10
7647.9238352088
 20
7326.2915523586
 30
0.0
 11
7647.9238352088
 21
7285.4124619412
 31
0.0
  0
LINE
  5
37F
330
1F
100
AcDbEntity
  8
0
  6
Continuous
 62
     7
370
    25
100
AcDbLine
 10
7647.9238352088
 20
7344.4124619412
 30
0.0
 11
7647.9238352088
 21
7326.2915523586
 31
0.0
  0
LINE
  5
380
330
1F
100
AcDbEntity
  8
0
  6
Continuous
 62
     7
370
    25
100
AcDbLine
 10
7812.9238352088
 20
7310.0227344838
 30
0.0
 11
7812.9238352088
 21
7328.9124619412
 31
0.0
  0
LINE
  5
381
330
1F
100
AcDbEntity
  8
0
  6
Continuous
 62
     7
370
    25
100
AcDbLine
 10
7778.9238352088
 20
7300.9124619412
 30
0.0
 11
7812.9238352088
 21
7310.0227344838
 31
0.0
  0
ARC
  5
382
330
1F
100
AcDbEntity
  8
0
  6
Continuous
 62
     7
370
    25
100
AcDbCircle
 10
7654.9239037583
 20
7286.9645007148
 30
0.0
 40
14.04520901098968
100
AcDbArc
 50
83.253721142
 51
96.661860791
  0
LINE
  5
383
330
1F
100
AcDbEntity
  8
0
  6
Continuous
 62
     7
370
    25
100
AcDbLine
 10
7813.9238352088
 20
7327.9124619412
 30
0.0
 11
7813.9238352088
 21
7310.2906836762
 31
0.0
  0
LINE
  5
384
330
1F
100
AcDbEntity
  8
0
  6
Continuous
 62
     7
370
    25
100
AcDbLine
 10
7813.9238352088
 20
7310.2906836762
 30
0.0
 11
7812.9238352088
 21
7310.0227344838
 31
0.0
  0
LINE
  5
385
330
1F
100
AcDbEntity
  8
0
  6
Continuous
 62
     8
370
    25
100
AcDbLine
 10
8035.0238352088
 20
6174.9124619412
 30
0.0
 11
8035.0238352088
 21
6754.9124619412
 31
0.0
  0
LINE
  5
386
330
1F
100
AcDbEntity
  8
0
  6
Continuous
 62
     8
370
    25
100
AcDbLine
 10
8071.0238352088
 20
6174.9124619412
 30
0.0
 11
8071.0238352088
 21
6754.9124619412
 31
0.0
  0
LINE
  5
387
330
1F
100
AcDbEntity
  8
0
  6
Continuous
 62
     8
370
    25
100
AcDbLine
 10
7602.9317468997
 20
6174.9124619412
 30
0.0
 11
7602.9317468997
 21
6754.9124619412
 31
0.0
  0
LINE
  5
388
330
1F
100
AcDbEntity
  8
0
  6
Continuous
 62
     8
370
    25
100
AcDbLine
 10
7638.9317468997
 20
6174.9124619412
 30
0.0
 11
7638.9317468997
 21
6754.9124619412
 31
0.0
  0
LINE
  5
389
330
1F
100
AcDbEntity
  8
0
  6
Continuous
 62
     8
370
    25
100
AcDbLine
 10
7864.733276964
 20
6700.9616755012
 30
0.0
 11
7812.2020814285
 21
6700.9616755012
 31
0.0
  0
LINE
  5
38A
330
1F
100
AcDbEntity
  8
0
  6
Continuous
 62
     8
370
    25
100
AcDbLine
 10
7810.3176209287
 20
6576.3083575412
 30
0.0
 11
7864.530049489
 21
6576.3083575412
 31
0.0
  0
LINE
  5
38B
330
1F
100
AcDbEntity
  8
0
  6
Continuous
 62
     8
370
    25
100
AcDbLine
 10
7780.4238352088
 20
6707.6140334026
 30
0.0
 11
7780.4238352088
 21
6655.6140334026
 31
0.0
  0
LINE
  5
38C
330
1F
100
AcDbEntity
  8
0
  6
Continuous
 62
     8
370
    25
100
AcDbLine
 10
7814.4238352088
 20
6717.1140334026
 30
0.0
 11
7860.4238352088
 21
6717.1140334026
 31
0.0
  0
LINE
  5
38D
330
1F
100
AcDbEntity
  8
0
  6
Continuous
 62
     7
370
    25
100
AcDbLine
 10
5653.0961104968
 20
5935.4784369654
 30
0.0
 11
5653.0961104968
 21
5945.4784369654
 31
0.0
  0
LINE
  5
38E
330
1F
100
AcDbEntity
  8
0
  6
Continuous
 62
     7
370
    25
100
AcDbLine
 10
5613.0961104968
 20
5945.4784369654
 30
0.0
 11
5613.0961104968
 21
5935.4784369654
 31
0.0
  0
LINE
  5
38F
330
1F
100
AcDbEntity
  8
0
  6
Continuous
 62
     7
370
    25
100
AcDbLine
 10
5936.5961104968
 20
5885.4784369654
 30
0.0
 11
5936.5961104968
 21
5884.9784369654
 31
0.0
  0
LINE
  5
390
330
1F
100
AcDbEntity
  8
0
  6
Continuous
 62
     7
370
    25
100
AcDbLine
 10
5964.5961104968
 20
5884.9784369654
 30
0.0
 11
5964.5961104968
 21
5885.4784369654
 31
0.0
  0
LINE
  5
391
330
1F
100
AcDbEntity
  8
0
  6
Continuous
 62
     7
370
    25
100
AcDbLine
 10
5936.5961104968
 20
5884.9784369654
 30
0.0
 11
5938.0961104968
 21
5883.4784369654
 31
0.0
  0
LINE
  5
392
330
1F
100
AcDbEntity
  8
0
  6
Continuous
 62
     7
370
    25
100
AcDbLine
 10
5963.0961104968
 20
5883.4784369654
 30
0.0
 11
5964.5961104968
 21
5884.9784369654
 31
0.0
  0
LINE
  5
393
330
1F
100
AcDbEntity
  8
0
  6
Continuous
 62
     7
370
    25
100
AcDbLine
 10
6536.5961104968
 20
5885.4784369654
 30
0.0
 11
6536.5961104968
 21
5884.9784369654
 31
0.0
  0
LINE
  5
394
330
1F
100
AcDbEntity
  8
0
  6
Continuous
 62
     7
370
    25
100
AcDbLine
 10
6564.5961104968
 20
5884.9784369654
 30
0.0
 11
6564.5961104968
 21
5885.4784369654
 31
0.0
  0
LINE
  5
395
330
1F
100
AcDbEntity
  8
0
  6
Continuous
 62
     7
370
    25
100
AcDbLine
 10
6536.5961104968
 20
5884.9784369654
 30
0.0
 11
6538.0961104968
 21
5883.4784369654
 31
0.0
  0
LINE
  5
396
330
1F
100
AcDbEntity
  8
0
  6
Continuous
 62
     7
370
    25
100
AcDbLine
 10
6563.0961104968
 20
5883.4784369654
 30
0.0
 11
6564.5961104968
 21
5884.9784369654
 31
0.0
  0
LINE
  5
397
330
1F
100
AcDbEntity
  8
0
  6
Continuous
 62
     7
370
    25
100
AcDbLine
 10
7136.5961104968
 20
5885.4784369654
 30
0.0
 11
7136.5961104968
 21
5884.9784369654
 31
0.0
  0
LINE
  5
398
330
1F
100
AcDbEntity
  8
0
  6
Continuous
 62
     7
370
    25
100
AcDbLine
 10
7164.5961104968
 20
5884.9784369654
 30
0.0
 11
7164.5961104968
 21
5885.4784369654
 31
0.0
  0
LINE
  5
399
330
1F
100
AcDbEntity
  8
0
  6
Continuous
 62
     7
370
    25
100
AcDbLine
 10
7136.5961104968
 20
5884.9784369654
 30
0.0
 11
7138.0961104968
 21
5883.4784369654
 31
0.0
  0
LINE
  5
39A
330
1F
100
AcDbEntity
  8
0
  6
Continuous
 62
     7
370
    25
100
AcDbLine
 10
7163.0961104968
 20
5883.4784369654
 30
0.0
 11
7164.5961104968
 21
5884.9784369654
 31
0.0
  0
LINE
  5
39B
330
1F
100
AcDbEntity
  8
0
  6
Continuous
 62
     7
370
    25
100
AcDbLine
 10
6460.5961104968
 20
5882.9784369654
 30
0.0
 11
6460.5961104968
 21
5885.4784369654
 31
0.0
  0
LINE
  5
39C
330
1F
100
AcDbEntity
  8
0
  6
Continuous
 62
     7
370
    25
100
AcDbLine
 10
6400.5961104968
 20
5885.4784369654
 30
0.0
 11
6400.5961104968
 21
5882.9784369654
 31
0.0
  0
LINE
  5
39D
330
1F
100
AcDbEntity
  8
0
  6
Continuous
 62
     7
370
    25
100
AcDbLine
 10
6400.5961104968
 20
5882.9784369654
 30
0.0
 11
6401.0961104968
 21
5882.4784369654
 31
0.0
  0
LINE
  5
39E
330
1F
100
AcDbEntity
  8
0
  6
Continuous
 62
     7
370
    25
100
AcDbLine
 10
6460.0961104968
 20
5882.4784369654
 30
0.0
 11
6460.5961104968
 21
5882.9784369654
 31
0.0
  0
LINE
  5
39F
330
1F
100
AcDbEntity
  8
0
  6
Continuous
 62
     7
370
    25
100
AcDbLine
 10
7060.5961104968
 20
5882.9784369654
 30
0.0
 11
7060.5961104968
 21
5885.4784369654
 31
0.0
  0
LINE
  5
3A0
330
1F
100
AcDbEntity
  8
0
  6
Continuous
 62
     7
370
    25
100
AcDbLine
 10
7000.5961104968
 20
5885.4784369654
 30
0.0
 11
7000.5961104968
 21
5882.9784369654
 31
0.0
  0
LINE
  5
3A1
330
1F
100
AcDbEntity
  8
0
  6
Continuous
 62
     7
370
    25
100
AcDbLine
 10
7000.5961104968
 20
5882.9784369654
 30
0.0
 11
7001.0961104968
 21
5882.4784369654
 31
0.0
  0
LINE
  5
3A2
330
1F
100
AcDbEntity
  8
0
  6
Continuous
 62
     7
370
    25
100
AcDbLine
 10
7060.0961104968
 20
5882.4784369654
 30
0.0
 11
7060.5961104968
 21
5882.9784369654
 31
0.0
  0
LINE
  5
3A3
330
1F
100
AcDbEntity
  8
0
  6
Continuous
 62
     7
370
    25
100
AcDbLine
 10
5860.5961104968
 20
5882.9784369654
 30
0.0
 11
5860.5961104968
 21
5885.4784369654
 31
0.0
  0
LINE
  5
3A4
330
1F
100
AcDbEntity
  8
0
  6
Continuous
 62
     7
370
    25
100
AcDbLine
 10
5800.5961104968
 20
5885.4784369654
 30
0.0
 11
5800.5961104968
 21
5882.9784369654
 31
0.0
  0
LINE
  5
3A5
330
1F
100
AcDbEntity
  8
0
  6
Continuous
 62
     7
370
    25
100
AcDbLine
 10
5800.5961104968
 20
5882.9784369654
 30
0.0
 11
5801.0961104968
 21
5882.4784369654
 31
0.0
  0
LINE
  5
3A6
330
1F
100
AcDbEntity
  8
0
  6
Continuous
 62
     7
370
    25
100
AcDbLine
 10
5860.0961104968
 20
5882.4784369654
 30
0.0
 11
5860.5961104968
 21
5882.9784369654
 31
0.0
  0
LINE
  5
3A7
330
1F
100
AcDbEntity
  8
0
  6
Continuous
 62
     7
370
    25
100
AcDbLine
 10
6416.5961104968
 20
5882.4784369654
 30
0.0
 11
6416.5961104968
 21
5717.4784369654
 31
0.0
  0
LINE
  5
3A8
330
1F
100
AcDbEntity
  8
0
  6
Continuous
 62
     7
370
    25
100
AcDbLine
 10
6444.5961104968
 20
5717.4784369654
 30
0.0
 11
6444.5961104968
 21
5882.4784369654
 31
0.0
  0
LINE
  5
3A9
330
1F
100
AcDbEntity
  8
0
  6
Continuous
 62
     7
370
    25
100
AcDbLine
 10
6416.5961104968
 20
5717.4784369654
 30
0.0
 11
6417.5961104968
 21
5716.4784369654
 31
0.0
  0
LINE
  5
3AA
330
1F
100
AcDbEntity
  8
0
  6
Continuous
 62
     7
370
    25
100
AcDbLine
 10
6443.5961104968
 20
5716.4784369654
 30
0.0
 11
6444.5961104968
 21
5717.4784369654
 31
0.0
  0
LINE
  5
3AB
330
1F
100
AcDbEntity
  8
0
  6
Continuous
 62
     7
370
    25
100
AcDbLine
 10
7016.5961104968
 20
5882.4784369654
 30
0.0
 11
7016.5961104968
 21
5717.4784369654
 31
0.0
  0
LINE
  5
3AC
330
1F
100
AcDbEntity
  8
0
  6
Continuous
 62
     7
370
    25
100
AcDbLine
 10
7044.5961104968
 20
5717.4784369654
 30
0.0
 11
7044.5961104968
 21
5882.4784369654
 31
0.0
  0
LINE
  5
3AD
330
1F
100
AcDbEntity
  8
0
  6
Continuous
 62
     7
370
    25
100
AcDbLine
 10
7016.5961104968
 20
5717.4784369654
 30
0.0
 11
7017.5961104968
 21
5716.4784369654
 31
0.0
  0
LINE
  5
3AE
330
1F
100
AcDbEntity
  8
0
  6
Continuous
 62
     7
370
    25
100
AcDbLine
 10
7043.5961104968
 20
5716.4784369654
 30
0.0
 11
7044.5961104968
 21
5717.4784369654
 31
0.0
  0
LINE
  5
3AF
330
1F
100
AcDbEntity
  8
0
  6
Continuous
 62
     7
370
    25
100
AcDbLine
 10
5816.5961104968
 20
5882.4784369654
 30
0.0
 11
5816.5961104968
 21
5717.4784369654
 31
0.0
  0
LINE
  5
3B0
330
1F
100
AcDbEntity
  8
0
  6
Continuous
 62
     7
370
    25
100
AcDbLine
 10
5844.5961104968
 20
5717.4784369654
 30
0.0
 11
5844.5961104968
 21
5882.4784369654
 31
0.0
  0
LINE
  5
3B1
330
1F
100
AcDbEntity
  8
0
  6
Continuous
 62
     7
370
    25
100
AcDbLine
 10
5816.5961104968
 20
5717.4784369654
 30
0.0
 11
5817.5961104968
 21
5716.4784369654
 31
0.0
  0
LINE
  5
3B2
330
1F
100
AcDbEntity
  8
0
  6
Continuous
 62
     7
370
    25
100
AcDbLine
 10
5843.5961104968
 20
5716.4784369654
 30
0.0
 11
5844.5961104968
 21
5717.4784369654
 31
0.0
  0
LINE
  5
3B3
330
1F
100
AcDbEntity
  8
0
  6
Continuous
 62
     7
370
    25
100
AcDbLine
 10
7333.9461104968
 20
5455.3784369654
 30
0.0
 11
5527.2461104968
 21
5455.3784369654
 31
0.0
  0
LINE
  5
3B4
330
1F
100
AcDbEntity
  8
0
  6
Continuous
 62
     7
370
    25
100
AcDbLine
 10
7333.9461104968
 20
5455.3784369654
 30
0.0
 11
7333.9461104968
 21
5455.4784369654
 31
0.0
  0
LINE
  5
3B5
330
1F
100
AcDbEntity
  8
0
  6
Continuous
 62
     7
370
    25
100
AcDbLine
 10
5527.2461104968
 20
5455.3784369654
 30
0.0
 11
5527.2461104968
 21
5455.4784369654
 31
0.0
  0
LWPOLYLINE
  5
3B6
330
1F
100
AcDbEntity
  8
0
  6
Continuous
 62
     7
370
    25
100
AcDbPolyline
 90
        3
 70
   128
 43
0.0
 10
5526.6804250719
 20
5455.4784369654
 10
5526.9242114655
 20
5455.4101412527
 10
5527.2461104968
 20
5455.3784369654
  0
LWPOLYLINE
  5
3B7
330
1F
100
AcDbEntity
  8
0
  6
Continuous
 62
     7
370
    25
100
AcDbPolyline
 90
        3
 70
   128
 43
0.0
 10
7333.9461104968
 20
5455.3784369654
 10
7334.2680095282
 20
5455.4101412527
 10
7334.5117959217
 20
5455.4784369654
  0
LINE
  5
3B8
330
1F
100
AcDbEntity
  8
0
  6
Continuous
 62
     7
370
    25
100
AcDbLine
 10
7380.5961104968
 20
5935.4784369654
 30
0.0
 11
7378.5961104968
 21
5935.4784369654
 31
0.0
  0
LINE
  5
3B9
330
1F
100
AcDbEntity
  8
0
  6
Continuous
 62
     7
370
    25
100
AcDbLine
 10
7380.5961104968
 20
5932.8210312456
 30
0.0
 11
7378.5961104968
 21
5932.8210312456
 31
0.0
  0
LINE
  5
3BA
330
1F
100
AcDbEntity
  8
0
  6
Continuous
 62
     7
370
    25
100
AcDbLine
 10
7378.5961104968
 20
5935.4784369654
 30
0.0
 11
7378.5961104968
 21
5932.8210312456
 31
0.0
  0
LINE
  5
3BB
330
1F
100
AcDbEntity
  8
0
  6
Continuous
 62
     7
370
    25
100
AcDbLine
 10
7380.5961104968
 20
5935.4784369654
 30
0.0
 11
7380.5961104968
 21
5932.8210312456
 31
0.0
  0
LINE
  5
3BC
330
1F
100
AcDbEntity
  8
0
  6
Continuous
 62
     7
370
    25
100
AcDbLine
 10
7380.5961104968
 20
5887.2210312456
 30
0.0
 11
7378.5961104968
 21
5887.2210312456
 31
0.0
  0
LINE
  5
3BD
330
1F
100
AcDbEntity
  8
0
  6
Continuous
 62
     7
370
    25
100
AcDbLine
 10
7378.5961104968
 20
5932.8210312456
 30
0.0
 11
7378.5961104968
 21
5887.2210312456
 31
0.0
  0
LINE
  5
3BE
330
1F
100
AcDbEntity
  8
0
  6
Continuous
 62
     7
370
    25
100
AcDbLine
 10
7380.5961104968
 20
5932.8210312456
 30
0.0
 11
7380.5961104968
 21
5887.2210312456
 31
0.0
  0
LINE
  5
3BF
330
1F
100
AcDbEntity
  8
0
  6
Continuous
 62
     7
370
    25
100
AcDbLine
 10
7380.5961104968
 20
5885.4784369654
 30
0.0
 11
7378.5961104968
 21
5885.4784369654
 31
0.0
  0
LINE
  5
3C0
330
1F
100
AcDbEntity
  8
0
  6
Continuous
 62
     7
370
    25
100
AcDbLine
 10
7378.5961104968
 20
5887.2210312456
 30
0.0
 11
7378.5961104968
 21
5885.4784369654
 31
0.0
  0
LINE
  5
3C1
330
1F
100
AcDbEntity
  8
0
  6
Continuous
 62
     7
370
    25
100
AcDbLine
 10
7380.5961104968
 20
5887.2210312456
 30
0.0
 11
7380.5961104968
 21
5885.4784369654
 31
0.0
  0
LINE
  5
3C2
330
1F
100
AcDbEntity
  8
0
  6
Continuous
 62
     7
370
    25
100
AcDbLine
 10
7380.5961104968
 20
5457.6784369654
 30
0.0
 11
7378.5961104968
 21
5457.6784369654
 31
0.0
  0
LINE
  5
3C3
330
1F
100
AcDbEntity
  8
0
  6
Continuous
 62
     7
370
    25
100
AcDbLine
 10
7378.5961104968
 20
5885.4784369654
 30
0.0
 11
7378.5961104968
 21
5457.6784369654
 31
0.0
  0
LINE
  5
3C4
330
1F
100
AcDbEntity
  8
0
  6
Continuous
 62
     7
370
    25
100
AcDbLine
 10
7380.5961104968
 20
5885.4784369654
 30
0.0
 11
7380.5961104968
 21
5457.6784369654
 31
0.0
  0
LINE
  5
3C5
330
1F
100
AcDbEntity
  8
0
  6
Continuous
 62
     7
370
    25
100
AcDbLine
 10
7380.5961104968
 20
5455.4784369654
 30
0.0
 11
7378.5961104968
 21
5455.4784369654
 31
0.0
  0
LINE
  5
3C6
330
1F
100
AcDbEntity
  8
0
  6
Continuous
 62
     7
370
    25
100
AcDbLine
 10
7378.5961104968
 20
5457.6784369654
 30
0.0
 11
7378.5961104968
 21
5455.4784369654
 31
0.0
  0
LINE
  5
3C7
330
1F
100
AcDbEntity
  8
0
  6
Continuous
 62
     7
370
    25
100
AcDbLine
 10
7380.5961104968
 20
5457.6784369654
 30
0.0
 11
7380.5961104968
 21
5455.4784369654
 31
0.0
  0
LWPOLYLINE
  5
3C8
330
1F
100
AcDbEntity
  8
0
  6
Continuous
 62
     7
370
    25
100
AcDbPolyline
 90
        3
 70
   128
 43
0.0
 10
7378.2771354644
 20
5455.4784369654
 10
7378.1008904951
 20
5455.4380025961
 10
7377.4961104968
 20
5455.3784369654
  0
LINE
  5
3C9
330
1F
100
AcDbEntity
  8
0
  6
Continuous
 62
     7
370
    25
100
AcDbLine
 10
7377.4961104968
 20
5455.3784369654
 30
0.0
 11
7338.6961104968
 21
5455.3784369654
 31
0.0
  0
LWPOLYLINE
  5
3CA
330
1F
100
AcDbEntity
  8
0
  6
Continuous
 62
     7
370
    25
100
AcDbPolyline
 90
        3
 70
   128
 43
0.0
 10
7337.9150855293
 20
5455.4784369654
 10
7338.0913304986
 20
5455.4380025961
 10
7338.6961104968
 20
5455.3784369654
  0
LINE
  5
3CB
330
1F
100
AcDbEntity
  8
0
  6
Continuous
 62
     7
370
    25
100
AcDbLine
 10
5480.5961104968
 20
5932.8210312456
 30
0.0
 11
5482.5961104968
 21
5932.8210312456
 31
0.0
  0
LINE
  5
3CC
330
1F
100
AcDbEntity
  8
0
  6
Continuous
 62
     7
370
    25
100
AcDbLine
 10
5480.5961104968
 20
5935.4784369654
 30
0.0
 11
5482.5961104968
 21
5935.4784369654
 31
0.0
  0
LINE
  5
3CD
330
1F
100
AcDbEntity
  8
0
  6
Continuous
 62
     7
370
    25
100
AcDbLine
 10
5480.5961104968
 20
5935.4784369654
 30
0.0
 11
5480.5961104968
 21
5932.8210312456
 31
0.0
  0
LINE
  5
3CE
330
1F
100
AcDbEntity
  8
0
  6
Continuous
 62
     7
370
    25
100
AcDbLine
 10
5482.5961104968
 20
5935.4784369654
 30
0.0
 11
5482.5961104968
 21
5932.8210312456
 31
0.0
  0
LINE
  5
3CF
330
1F
100
AcDbEntity
  8
0
  6
Continuous
 62
     7
370
    25
100
AcDbLine
 10
5480.5961104968
 20
5887.2210312456
 30
0.0
 11
5482.5961104968
 21
5887.2210312456
 31
0.0
  0
LINE
  5
3D0
330
1F
100
AcDbEntity
  8
0
  6
Continuous
 62
     7
370
    25
100
AcDbLine
 10
5480.5961104968
 20
5932.8210312456
 30
0.0
 11
5480.5961104968
 21
5887.2210312456
 31
0.0
  0
LINE
  5
3D1
330
1F
100
AcDbEntity
  8
0
  6
Continuous
 62
     7
370
    25
100
AcDbLine
 10
5482.5961104968
 20
5932.8210312456
 30
0.0
 11
5482.5961104968
 21
5887.2210312456
 31
0.0
  0
LINE
  5
3D2
330
1F
100
AcDbEntity
  8
0
  6
Continuous
 62
     7
370
    25
100
AcDbLine
 10
5480.5961104968
 20
5885.4784369654
 30
0.0
 11
5482.5961104968
 21
5885.4784369654
 31
0.0
  0
LINE
  5
3D3
330
1F
100
AcDbEntity
  8
0
  6
Continuous
 62
     7
370
    25
100
AcDbLine
 10
5480.5961104968
 20
5887.2210312456
 30
0.0
 11
5480.5961104968
 21
5885.4784369654
 31
0.0
  0
LINE
  5
3D4
330
1F
100
AcDbEntity
  8
0
  6
Continuous
 62
     7
370
    25
100
AcDbLine
 10
5482.5961104968
 20
5887.2210312456
 30
0.0
 11
5482.5961104968
 21
5885.4784369654
 31
0.0
  0
LINE
  5
3D5
330
1F
100
AcDbEntity
  8
0
  6
Continuous
 62
     7
370
    25
100
AcDbLine
 10
5480.5961104968
 20
5457.6784369654
 30
0.0
 11
5482.5961104968
 21
5457.6784369654
 31
0.0
  0
LINE
  5
3D6
330
1F
100
AcDbEntity
  8
0
  6
Continuous
 62
     7
370
    25
100
AcDbLine
 10
5480.5961104968
 20
5885.4784369654
 30
0.0
 11
5480.5961104968
 21
5457.6784369654
 31
0.0
  0
LINE
  5
3D7
330
1F
100
AcDbEntity
  8
0
  6
Continuous
 62
     7
370
    25
100
AcDbLine
 10
5482.5961104968
 20
5885.4784369654
 30
0.0
 11
5482.5961104968
 21
5457.6784369654
 31
0.0
  0
LINE
  5
3D8
330
1F
100
AcDbEntity
  8
0
  6
Continuous
 62
     7
370
    25
100
AcDbLine
 10
5480.5961104968
 20
5455.4784369654
 30
0.0
 11
5482.5961104968
 21
5455.4784369654
 31
0.0
  0
LINE
  5
3D9
330
1F
100
AcDbEntity
  8
0
  6
Continuous
 62
     7
370
    25
100
AcDbLine
 10
5480.5961104968
 20
5457.6784369654
 30
0.0
 11
5480.5961104968
 21
5455.4784369654
 31
0.0
  0
LINE
  5
3DA
330
1F
100
AcDbEntity
  8
0
  6
Continuous
 62
     7
370
    25
100
AcDbLine
 10
5482.5961104968
 20
5457.6784369654
 30
0.0
 11
5482.5961104968
 21
5455.4784369654
 31
0.0
  0
LWPOLYLINE
  5
3DB
330
1F
100
AcDbEntity
  8
0
  6
Continuous
 62
     7
370
    25
100
AcDbPolyline
 90
        3
 70
   128
 43
0.0
 10
5482.9150855292
 20
5455.4784369654
 10
5483.0913304986
 20
5455.4380025961
 10
5483.6961104968
 20
5455.3784369654
  0
LINE
  5
3DC
330
1F
100
AcDbEntity
  8
0
  6
Continuous
 62
     7
370
    25
100
AcDbLine
 10
5483.6961104968
 20
5455.3784369654
 30
0.0
 11
5522.4961104968
 21
5455.3784369654
 31
0.0
  0
LWPOLYLINE
  5
3DD
330
1F
100
AcDbEntity
  8
0
  6
Continuous
 62
     7
370
    25
100
AcDbPolyline
 90
        3
 70
   128
 43
0.0
 10
5523.2771354644
 20
5455.4784369654
 10
5523.1008904951
 20
5455.4380025961
 10
5522.4961104968
 20
5455.3784369654
  0
LINE
  5
3DE
330
1F
100
AcDbEntity
  8
0
  6
Continuous
 62
     7
370
    25
100
AcDbLine
 10
7378.5961104968
 20
5935.4784369654
 30
0.0
 11
5482.5961104968
 21
5935.4784369654
 31
0.0
  0
LINE
  5
3DF
330
1F
100
AcDbEntity
  8
0
  6
Continuous
 62
     7
370
    25
100
AcDbLine
 10
5482.5961104968
 20
5932.8210312456
 30
0.0
 11
7378.5961104968
 21
5932.8210312456
 31
0.0
  0
LINE
  5
3E0
330
1F
100
AcDbEntity
  8
0
  6
Continuous
 62
     7
370
    25
100
AcDbLine
 10
7378.5961104968
 20
5887.2210312456
 30
0.0
 11
5482.5961104968
 21
5887.2210312456
 31
0.0
  0
LINE
  5
3E1
330
1F
100
AcDbEntity
  8
0
  6
Continuous
 62
     7
370
    25
100
AcDbLine
 10
5482.5961104968
 20
5885.4784369654
 30
0.0
 11
7378.5961104968
 21
5885.4784369654
 31
0.0
  0
LINE
  5
3E2
330
1F
100
AcDbEntity
  8
0
  6
Continuous
 62
     7
370
    25
100
AcDbLine
 10
7378.5961104968
 20
5500.4784369654
 30
0.0
 11
5482.5961104968
 21
5500.4784369654
 31
0.0
  0
LINE
  5
3E3
330
1F
100
AcDbEntity
  8
0
  6
Continuous
 62
     7
370
    25
100
AcDbLine
 10
5482.5961104968
 20
5498.2784369654
 30
0.0
 11
7378.5961104968
 21
5498.2784369654
 31
0.0
  0
LINE
  5
3E4
330
1F
100
AcDbEntity
  8
0
  6
Continuous
 62
     7
370
    25
100
AcDbLine
 10
7378.5961104968
 20
5457.6784369654
 30
0.0
 11
5482.5961104968
 21
5457.6784369654
 31
0.0
  0
LINE
  5
3E5
330
1F
100
AcDbEntity
  8
0
  6
Continuous
 62
     7
370
    25
100
AcDbLine
 10
5482.5961104968
 20
5457.6784369654
 30
0.0
 11
5482.5961104968
 21
5498.2784369654
 31
0.0
  0
LINE
  5
3E6
330
1F
100
AcDbEntity
  8
0
  6
Continuous
 62
     7
370
    25
100
AcDbLine
 10
7378.5961104968
 20
5457.6784369654
 30
0.0
 11
7378.5961104968
 21
5498.2784369654
 31
0.0
  0
LINE
  5
3E7
330
1F
100
AcDbEntity
  8
0
  6
Continuous
 62
     7
370
    25
100
AcDbLine
 10
5482.5961104968
 20
5455.4784369654
 30
0.0
 11
7378.5961104968
 21
5455.4784369654
 31
0.0
  0
LINE
  5
3E8
330
1F
100
AcDbEntity
  8
0
  6
Continuous
 62
     7
370
    25
100
AcDbLine
 10
7378.5961104968
 20
5500.8208260303
 30
0.0
 11
5482.5961104968
 21
5500.8208260303
 31
0.0
  0
LINE
  5
3E9
330
1F
100
AcDbEntity
  8
0
  6
Continuous
 62
     7
370
    25
100
AcDbLine
 10
5482.5961104968
 20
5626.1958840841
 30
0.0
 11
7378.5961104968
 21
5626.1958840841
 31
0.0
  0
LINE
  5
3EA
330
1F
100
AcDbEntity
  8
0
  6
Continuous
 62
     7
370
    25
100
AcDbLine
 10
7378.5961104968
 20
5626.8534950192
 30
0.0
 11
5482.5961104968
 21
5626.8534950192
 31
0.0
  0
ARC
  5
3EB
330
1F
100
AcDbEntity
  8
0
  6
Continuous
 62
     7
370
    25
100
AcDbCircle
 10
5633.0961104968
 20
5692.9784369654
 30
0.0
 40
5.250000000000107
100
AcDbArc
 50
63.3084380696
 51
226.8820166661
  0
LINE
  5
3EC
330
1F
100
AcDbEntity
  8
0
  6
Continuous
 62
     7
370
    25
100
AcDbLine
 10
5635.4543444784
 20
5697.668984107
 30
0.0
 11
5629.5077201937
 21
5689.1462111066
 31
0.0
  0
ARC
  5
3ED
330
1F
100
AcDbEntity
  8
0
  6
Continuous
 62
     7
370
    25
100
AcDbCircle
 10
5633.0961104968
 20
5692.9784369654
 30
0.0
 40
5.250000000000711
100
AcDbArc
 50
243.3084380696
 51
46.8820166661
  0
LINE
  5
3EE
330
1F
100
AcDbEntity
  8
0
  6
Continuous
 62
     7
370
    25
100
AcDbLine
 10
5630.7378765152
 20
5688.2878898237
 30
0.0
 11
5636.6845007999
 21
5696.8106628241
 31
0.0
  0
ARC
  5
3EF
330
1F
100
AcDbEntity
  8
0
  6
Continuous
 62
     7
370
    25
100
AcDbCircle
 10
5633.0961104968
 20
5692.9784369654
 30
0.0
 40
5.250000000000711
100
AcDbArc
 50
46.8820166661
 51
63.3084380696
  0
ARC
  5
3F0
330
1F
100
AcDbEntity
  8
0
  6
Continuous
 62
     7
370
    25
100
AcDbCircle
 10
5633.0961104968
 20
5692.9784369654
 30
0.0
 40
5.249999999999697
100
AcDbArc
 50
226.8820166661
 51
243.3084380696
  0
CIRCLE
  5
3F1
330
1F
100
AcDbEntity
  8
0
  6
Continuous
 62
     7
370
    25
100
AcDbCircle
 10
5633.0961104968
 20
5692.9784369654
 30
0.0
 40
35.0
  0
CIRCLE
  5
3F2
330
1F
100
AcDbEntity
  8
0
  6
Continuous
 62
     7
370
    25
100
AcDbCircle
 10
5633.0961104968
 20
5692.9784369654
 30
0.0
 40
35.16921944985916
  0
CIRCLE
  5
3F3
330
1F
100
AcDbEntity
  8
0
  6
Continuous
 62
     7
370
    25
100
AcDbCircle
 10
5633.0961104968
 20
5692.9784369654
 30
0.0
 40
24.96512544439429
  0
CIRCLE
  5
3F4
330
1F
100
AcDbEntity
  8
0
  6
Continuous
 62
     7
370
    25
100
AcDbCircle
 10
5633.0961104968
 20
5692.9784369654
 30
0.0
 40
22.0
  0
CIRCLE
  5
3F5
330
1F
100
AcDbEntity
  8
0
  6
Continuous
 62
     7
370
    25
100
AcDbCircle
 10
5633.0961104968
 20
5692.9784369654
 30
0.0
 40
20.5
  0
CIRCLE
  5
3F6
330
1F
100
AcDbEntity
  8
0
  6
Continuous
 62
     7
370
    25
100
AcDbCircle
 10
5633.0961104968
 20
5692.9784369654
 30
0.0
 40
19.48700763430406
  0
CIRCLE
  5
3F7
330
1F
100
AcDbEntity
  8
0
  6
Continuous
 62
     7
370
    25
100
AcDbCircle
 10
5633.0961104968
 20
5692.9784369654
 30
0.0
 40
5.699999999999818
  0
CIRCLE
  5
3F8
330
1F
100
AcDbEntity
  8
0
  6
Continuous
 62
     7
370
    25
100
AcDbCircle
 10
5633.0961104968
 20
5706.9784369654
 30
0.0
 40
4.999999999999091
  0
CIRCLE
  5
3F9
330
1F
100
AcDbEntity
  8
0
  6
Continuous
 62
     7
370
    25
100
AcDbCircle
 10
5645.2204661498
 20
5699.9784369654
 30
0.0
 40
5.0
  0
CIRCLE
  5
3FA
330
1F
100
AcDbEntity
  8
0
  6
Continuous
 62
     7
370
    25
100
AcDbCircle
 10
5645.2204661498
 20
5685.9784369654
 30
0.0
 40
5.0
  0
CIRCLE
  5
3FB
330
1F
100
AcDbEntity
  8
0
  6
Continuous
 62
     7
370
    25
100
AcDbCircle
 10
5633.0961104968
 20
5678.9784369654
 30
0.0
 40
5.0
  0
CIRCLE
  5
3FC
330
1F
100
AcDbEntity
  8
0
  6
Continuous
 62
     7
370
    25
100
AcDbCircle
 10
5620.9717548439
 20
5685.9784369654
 30
0.0
 40
5.0
  0
CIRCLE
  5
3FD
330
1F
100
AcDbEntity
  8
0
  6
Continuous
 62
     7
370
    25
100
AcDbCircle
 10
5620.9717548439
 20
5699.9784369654
 30
0.0
 40
5.0
  0
LINE
  5
3FE
330
1F
100
AcDbEntity
  8
0
  6
Continuous
 62
     7
370
    25
100
AcDbLine
 10
5650.8193696476
 20
5945.4784369654
 30
0.0
 11
5613.0961104968
 21
5945.4784369654
 31
0.0
  0
LINE
  5
3FF
330
1F
100
AcDbEntity
  8
0
  6
Continuous
 62
     7
370
    25
100
AcDbLine
 10
5653.0961104968
 20
5945.4784369654
 30
0.0
 11
5650.8193696476
 21
5945.4784369654
 31
0.0
  0
LINE
  5
400
330
1F
100
AcDbEntity
  8
0
  6
Continuous
 62
     7
370
    25
100
AcDbLine
 10
5645.8447956007
 20
5681.7920914782
 30
0.0
 11
5640.3670289224
 21
5687.1801636728
 31
0.0
  0
LINE
  5
401
330
1F
100
AcDbEntity
  8
0
  6
Continuous
 62
     7
370
    25
100
AcDbLine
 10
5645.0474107561
 20
5680.9814326797
 30
0.0
 11
5645.8447956007
 21
5681.7920914782
 31
0.0
  0
LINE
  5
402
330
1F
100
AcDbEntity
  8
0
  6
Continuous
 62
     7
370
    25
100
AcDbLine
 10
5640.4936001076
 20
5684.3484868377
 30
0.0
 11
5643.6687707551
 21
5681.2253073225
 31
0.0
  0
LINE
  5
403
330
1F
100
AcDbEntity
  8
0
  6
Continuous
 62
     7
370
    25
100
AcDbLine
 10
5617.0341085776
 20
5687.5309245441
 30
0.0
 11
5624.4391993146
 21
5689.5807735463
 31
0.0
  0
LINE
  5
404
330
1F
100
AcDbEntity
  8
0
  6
Continuous
 62
     7
370
    25
100
AcDbLine
 10
5616.7307498865
 20
5688.6268094754
 30
0.0
 11
5617.0341085776
 21
5687.5309245441
 31
0.0
  0
LINE
  5
405
330
1F
100
AcDbEntity
  8
0
  6
Continuous
 62
     7
370
    25
100
AcDbLine
 10
5621.9236096476
 20
5690.8869981021
 30
0.0
 11
5617.631271523
 21
5689.6988094175
 31
0.0
  0
LINE
  5
406
330
1F
100
AcDbEntity
  8
0
  6
Continuous
 62
     7
370
    25
100
AcDbLine
 10
5636.8711217354
 20
5703.6998259563
 30
0.0
 11
5637.9882892124
 21
5708.0111941561
 31
0.0
  0
LINE
  5
407
330
1F
100
AcDbEntity
  8
0
  6
Continuous
 62
     7
370
    25
100
AcDbLine
 10
5637.5101708479
 20
5709.327068741
 30
0.0
 11
5636.4094273122
 21
5709.6122948737
 31
0.0
  0
LINE
  5
408
330
1F
100
AcDbEntity
  8
0
  6
Continuous
 62
     7
370
    25
100
AcDbLine
 10
5636.4094273122
 20
5709.6122948737
 30
0.0
 11
5634.4821032535
 21
5702.174373677
 31
0.0
  0
ARC
  5
409
330
1F
100
AcDbEntity
  8
0
  6
Continuous
 62
     7
370
    25
100
AcDbCircle
 10
5633.0961104968
 20
5692.9784369654
 30
0.0
 40
14.5000000000005
100
AcDbArc
 50
319.2889033627
 51
350.1091416014
  0
ARC
  5
40A
330
1F
100
AcDbEntity
  8
0
  6
Continuous
 62
     7
370
    25
100
AcDbCircle
 10
5633.0961104968
 20
5692.9784369654
 30
0.0
 40
14.5000000000006
100
AcDbArc
 50
9.8908583975
 51
50.1091416024
  0
LINE
  5
40B
330
1F
100
AcDbEntity
  8
0
  6
Continuous
 62
     7
370
    25
100
AcDbLine
 10
5638.0813485874
 20
5706.5945083951
 30
0.0
 11
5637.6593323959
 21
5706.7416853428
 31
0.0
  0
ARC
  5
40C
330
1F
100
AcDbEntity
  8
0
  6
Continuous
 62
     7
370
    25
100
AcDbCircle
 10
5633.0961104968
 20
5692.9784369654
 30
0.0
 40
14.49999999999974
100
AcDbArc
 50
79.2889033626
 51
110.1091415894
  0
ARC
  5
40D
330
1F
100
AcDbEntity
  8
0
  6
Continuous
 62
     7
370
    25
100
AcDbCircle
 10
5633.0961104968
 20
5692.9784369654
 30
0.0
 40
14.49999999999974
100
AcDbArc
 50
129.8908583962
 51
170.1091416038
  0
LINE
  5
40E
330
1F
100
AcDbEntity
  8
0
  6
Continuous
 62
     7
370
    25
100
AcDbLine
 10
5618.811627693
 20
5690.4877440844
 30
0.0
 11
5618.8951768138
 21
5690.0486788643
 31
0.0
  0
ARC
  5
40F
330
1F
100
AcDbEntity
  8
0
  6
Continuous
 62
     7
370
    25
100
AcDbCircle
 10
5633.0961104968
 20
5692.9784369654
 30
0.0
 40
14.49999999999975
100
AcDbArc
 50
199.2889033627
 51
230.1091416041
  0
ARC
  5
410
330
1F
100
AcDbEntity
  8
0
  6
Continuous
 62
     7
370
    25
100
AcDbCircle
 10
5633.0961104968
 20
5692.9784369654
 30
0.0
 40
14.4999999999998
100
AcDbArc
 50
249.8908583922
 51
290.1091416077
  0
LINE
  5
411
330
1F
100
AcDbEntity
  8
0
  6
Continuous
 62
     7
370
    25
100
AcDbLine
 10
5642.3953552072
 20
5681.8530584182
 30
0.0
 11
5642.7338222808
 21
5682.144946689
 31
0.0
  0
LWPOLYLINE
  5
412
330
1F
100
AcDbEntity
  8
0
  6
Continuous
 62
     7
370
    25
100
AcDbPolyline
 90
       37
 70
   128
 43
0.0
 10
5602.5961104968
 20
5898.8101976524
 10
5604.6798886288
 20
5898.9885207717
 10
5606.7003522167
 20
5899.5180718718
 10
5608.5961104968
 20
5900.3827608106
 10
5610.3095618131
 20
5901.5563144521
 10
5611.7886438143
 20
5903.0030749629
 10
5612.9884153422
 20
5904.6790832568
 10
5613.8724219463
 20
5906.5334146701
 10
5614.413803533
 20
5908.509726281
 10
5614.5961104968
 20
5910.5479688612
 10
5614.413803533
 20
5912.5862114415
 10
5613.8724219463
 20
5914.5625230524
 10
5612.9884153422
 20
5916.4168544656
 10
5611.7886438143
 20
5918.0928627596
 10
5610.3095618131
 20
5919.5396232703
 10
5608.5961104968
 20
5920.7131769119
 10
5606.7003522167
 20
5921.5778658506
 10
5604.6798886288
 20
5922.1074169507
 10
5602.5961104968
 20
5922.28574007
 10
5600.5123323648
 20
5922.1074169507
 10
5598.4918687769
 20
5921.5778658506
 10
5596.5961104968
 20
5920.7131769119
 10
5594.8826591806
 20
5919.5396232703
 10
5593.4035771794
 20
5918.0928627596
 10
5592.2038056514
 20
5916.4168544656
 10
5591.3197990474
 20
5914.5625230524
 10
5590.7784174607
 20
5912.5862114415
 10
5590.5961104968
 20
5910.5479688612
 10
5590.7784174607
 20
5908.509726281
 10
5591.3197990474
 20
5906.5334146701
 10
5592.2038056514
 20
5904.6790832568
 10
5593.4035771794
 20
5903.0030749629
 10
5594.8826591806
 20
5901.5563144521
 10
5596.5961104968
 20
5900.3827608106
 10
5598.4918687769
 20
5899.5180718718
 10
5600.5123323648
 20
5898.9885207717
 10
5602.5961104968
 20
5898.8101976524
  0
LINE
  5
413
330
1F
100
AcDbEntity
  8
0
  6
Continuous
 62
     7
370
    25
100
AcDbLine
 10
5936.5961104968
 20
5884.9784369654
 30
0.0
 11
5964.5961104968
 21
5884.9784369654
 31
0.0
  0
LINE
  5
414
330
1F
100
AcDbEntity
  8
0
  6
Continuous
 62
     7
370
    25
100
AcDbLine
 10
5963.0961104968
 20
5883.4784369654
 30
0.0
 11
5938.0961104968
 21
5883.4784369654
 31
0.0
  0
LINE
  5
415
330
1F
100
AcDbEntity
  8
0
  6
Continuous
 62
     7
370
    25
100
AcDbLine
 10
6536.5961104968
 20
5884.9784369654
 30
0.0
 11
6564.5961104968
 21
5884.9784369654
 31
0.0
  0
LINE
  5
416
330
1F
100
AcDbEntity
  8
0
  6
Continuous
 62
     7
370
    25
100
AcDbLine
 10
6563.0961104968
 20
5883.4784369654
 30
0.0
 11
6538.0961104968
 21
5883.4784369654
 31
0.0
  0
LINE
  5
417
330
1F
100
AcDbEntity
  8
0
  6
Continuous
 62
     7
370
    25
100
AcDbLine
 10
7136.5961104968
 20
5884.9784369654
 30
0.0
 11
7164.5961104968
 21
5884.9784369654
 31
0.0
  0
LINE
  5
418
330
1F
100
AcDbEntity
  8
0
  6
Continuous
 62
     7
370
    25
100
AcDbLine
 10
7163.0961104968
 20
5883.4784369654
 30
0.0
 11
7138.0961104968
 21
5883.4784369654
 31
0.0
  0
LINE
  5
419
330
1F
100
AcDbEntity
  8
0
  6
Continuous
 62
     7
370
    25
100
AcDbLine
 10
6400.5961104968
 20
5882.9784369654
 30
0.0
 11
6460.5961104968
 21
5882.9784369654
 31
0.0
  0
LINE
  5
41A
330
1F
100
AcDbEntity
  8
0
  6
Continuous
 62
     7
370
    25
100
AcDbLine
 10
6460.0961104968
 20
5882.4784369654
 30
0.0
 11
6401.0961104968
 21
5882.4784369654
 31
0.0
  0
LINE
  5
41B
330
1F
100
AcDbEntity
  8
0
  6
Continuous
 62
     7
370
    25
100
AcDbLine
 10
7000.5961104968
 20
5882.9784369654
 30
0.0
 11
7060.5961104968
 21
5882.9784369654
 31
0.0
  0
LINE
  5
41C
330
1F
100
AcDbEntity
  8
0
  6
Continuous
 62
     7
370
    25
100
AcDbLine
 10
7060.0961104968
 20
5882.4784369654
 30
0.0
 11
7001.0961104968
 21
5882.4784369654
 31
0.0
  0
LINE
  5
41D
330
1F
100
AcDbEntity
  8
0
  6
Continuous
 62
     7
370
    25
100
AcDbLine
 10
5800.5961104968
 20
5882.9784369654
 30
0.0
 11
5860.5961104968
 21
5882.9784369654
 31
0.0
  0
LINE
  5
41E
330
1F
100
AcDbEntity
  8
0
  6
Continuous
 62
     7
370
    25
100
AcDbLine
 10
5860.0961104968
 20
5882.4784369654
 30
0.0
 11
5801.0961104968
 21
5882.4784369654
 31
0.0
  0
LINE
  5
41F
330
1F
100
AcDbEntity
  8
0
  6
Continuous
 62
     7
370
    25
100
AcDbLine
 10
5802.9177827641
 20
5882.9784369654
 30
0.0
 11
5860.5961104968
 21
5882.9784369654
 31
0.0
  0
LINE
  5
420
330
1F
100
AcDbEntity
  8
0
  6
Continuous
 62
     7
370
    25
100
AcDbLine
 10
5800.5961104968
 20
5882.9784369654
 30
0.0
 11
5802.9177827641
 21
5882.9784369654
 31
0.0
  0
LINE
  5
421
330
1F
100
AcDbEntity
  8
0
  6
Continuous
 62
     7
370
    25
100
AcDbLine
 10
5803.3790882264
 20
5882.4784369654
 30
0.0
 11
5801.0961104968
 21
5882.4784369654
 31
0.0
  0
LINE
  5
422
330
1F
100
AcDbEntity
  8
0
  6
Continuous
 62
     7
370
    25
100
AcDbLine
 10
5860.0961104968
 20
5882.4784369654
 30
0.0
 11
5803.3790882264
 21
5882.4784369654
 31
0.0
  0
LINE
  5
423
330
1F
100
AcDbEntity
  8
0
  6
Continuous
 62
     7
370
    25
100
AcDbLine
 10
7002.9177827641
 20
5882.9784369654
 30
0.0
 11
7060.5961104968
 21
5882.9784369654
 31
0.0
  0
LINE
  5
424
330
1F
100
AcDbEntity
  8
0
  6
Continuous
 62
     7
370
    25
100
AcDbLine
 10
7000.5961104968
 20
5882.9784369654
 30
0.0
 11
7002.9177827641
 21
5882.9784369654
 31
0.0
  0
LINE
  5
425
330
1F
100
AcDbEntity
  8
0
  6
Continuous
 62
     7
370
    25
100
AcDbLine
 10
7003.3790882264
 20
5882.4784369654
 30
0.0
 11
7001.0961104968
 21
5882.4784369654
 31
0.0
  0
LINE
  5
426
330
1F
100
AcDbEntity
  8
0
  6
Continuous
 62
     7
370
    25
100
AcDbLine
 10
7060.0961104968
 20
5882.4784369654
 30
0.0
 11
7003.3790882264
 21
5882.4784369654
 31
0.0
  0
LINE
  5
427
330
1F
100
AcDbEntity
  8
0
  6
Continuous
 62
     7
370
    25
100
AcDbLine
 10
6403.3790882264
 20
5882.4784369654
 30
0.0
 11
6401.0961104968
 21
5882.4784369654
 31
0.0
  0
LINE
  5
428
330
1F
100
AcDbEntity
  8
0
  6
Continuous
 62
     7
370
    25
100
AcDbLine
 10
6460.0961104968
 20
5882.4784369654
 30
0.0
 11
6403.3790882264
 21
5882.4784369654
 31
0.0
  0
LINE
  5
429
330
1F
100
AcDbEntity
  8
0
  6
Continuous
 62
     7
370
    25
100
AcDbLine
 10
6402.9177827641
 20
5882.9784369654
 30
0.0
 11
6460.5961104968
 21
5882.9784369654
 31
0.0
  0
LINE
  5
42A
330
1F
100
AcDbEntity
  8
0
  6
Continuous
 62
     7
370
    25
100
AcDbLine
 10
6400.5961104968
 20
5882.9784369654
 30
0.0
 11
6402.9177827641
 21
5882.9784369654
 31
0.0
  0
LINE
  5
42B
330
1F
100
AcDbEntity
  8
0
  6
Continuous
 62
     7
370
    25
100
AcDbLine
 10
6416.5961104968
 20
5717.4784369654
 30
0.0
 11
6444.5961104968
 21
5717.4784369654
 31
0.0
  0
LINE
  5
42C
330
1F
100
AcDbEntity
  8
0
  6
Continuous
 62
     7
370
    25
100
AcDbLine
 10
6443.5961104968
 20
5716.4784369654
 30
0.0
 11
6417.5961104968
 21
5716.4784369654
 31
0.0
  0
LINE
  5
42D
330
1F
100
AcDbEntity
  8
0
  6
Continuous
 62
     7
370
    25
100
AcDbLine
 10
7016.5961104968
 20
5717.4784369654
 30
0.0
 11
7044.5961104968
 21
5717.4784369654
 31
0.0
  0
LINE
  5
42E
330
1F
100
AcDbEntity
  8
0
  6
Continuous
 62
     7
370
    25
100
AcDbLine
 10
7043.5961104968
 20
5716.4784369654
 30
0.0
 11
7017.5961104968
 21
5716.4784369654
 31
0.0
  0
LINE
  5
42F
330
1F
100
AcDbEntity
  8
0
  6
Continuous
 62
     7
370
    25
100
AcDbLine
 10
5816.5961104968
 20
5717.4784369654
 30
0.0
 11
5844.5961104968
 21
5717.4784369654
 31
0.0
  0
LINE
  5
430
330
1F
100
AcDbEntity
  8
0
  6
Continuous
 62
     7
370
    25
100
AcDbLine
 10
5843.5961104968
 20
5716.4784369654
 30
0.0
 11
5817.5961104968
 21
5716.4784369654
 31
0.0
  0
LINE
  5
431
330
1F
100
AcDbEntity
  8
0
  6
Continuous
 62
     8
370
    25
100
AcDbLine
 10
7377.4961104968
 20
5455.4784369654
 30
0.0
 11
7377.4961104968
 21
5455.3784369654
 31
0.0
  0
LINE
  5
432
330
1F
100
AcDbEntity
  8
0
  6
Continuous
 62
     8
370
    25
100
AcDbLine
 10
7338.6961104968
 20
5455.4784369654
 30
0.0
 11
7338.6961104968
 21
5455.3784369654
 31
0.0
  0
LINE
  5
433
330
1F
100
AcDbEntity
  8
0
  6
Continuous
 62
     8
370
    25
100
AcDbLine
 10
5483.6961104968
 20
5455.4784369654
 30
0.0
 11
5483.6961104968
 21
5455.3784369654
 31
0.0
  0
LINE
  5
434
330
1F
100
AcDbEntity
  8
0
  6
Continuous
 62
     8
370
    25
100
AcDbLine
 10
5522.4961104968
 20
5455.4784369654
 30
0.0
 11
5522.4961104968
 21
5455.3784369654
 31
0.0
  0
LINE
  5
435
330
1F
100
AcDbEntity
  8
0
  6
Continuous
 62
     8
370
    25
100
AcDbLine
 10
5482.5961104968
 20
5885.1360479004
 30
0.0
 11
5800.5961104968
 21
5885.1360479004
 31
0.0
  0
LINE
  5
436
330
1F
100
AcDbEntity
  8
0
  6
Continuous
 62
     8
370
    25
100
AcDbLine
 10
5860.5961104968
 20
5885.1360479004
 30
0.0
 11
5936.5961104968
 21
5885.1360479004
 31
0.0
  0
LINE
  5
437
330
1F
100
AcDbEntity
  8
0
  6
Continuous
 62
     8
370
    25
100
AcDbLine
 10
5964.5961104968
 20
5885.1360479004
 30
0.0
 11
6400.5961104968
 21
5885.1360479004
 31
0.0
  0
LINE
  5
438
330
1F
100
AcDbEntity
  8
0
  6
Continuous
 62
     8
370
    25
100
AcDbLine
 10
6460.5961104968
 20
5885.1360479004
 30
0.0
 11
6536.5961104968
 21
5885.1360479004
 31
0.0
  0
LINE
  5
439
330
1F
100
AcDbEntity
  8
0
  6
Continuous
 62
     8
370
    25
100
AcDbLine
 10
6564.5961104968
 20
5885.1360479004
 30
0.0
 11
7000.5961104968
 21
5885.1360479004
 31
0.0
  0
LINE
  5
43A
330
1F
100
AcDbEntity
  8
0
  6
Continuous
 62
     8
370
    25
100
AcDbLine
 10
7060.5961104968
 20
5885.1360479004
 30
0.0
 11
7136.5961104968
 21
5885.1360479004
 31
0.0
  0
LINE
  5
43B
330
1F
100
AcDbEntity
  8
0
  6
Continuous
 62
     8
370
    25
100
AcDbLine
 10
7164.5961104968
 20
5885.1360479004
 30
0.0
 11
7378.5961104968
 21
5885.1360479004
 31
0.0
  0
LINE
  5
43C
330
1F
100
AcDbEntity
  8
0
  6
Continuous
 62
     8
370
    25
100
AcDbLine
 10
7378.5961104968
 20
5759.7609898466
 30
0.0
 11
7044.5961104968
 21
5759.7609898466
 31
0.0
  0
LINE
  5
43D
330
1F
100
AcDbEntity
  8
0
  6
Continuous
 62
     8
370
    25
100
AcDbLine
 10
7016.5961104968
 20
5759.7609898466
 30
0.0
 11
6444.5961104968
 21
5759.7609898466
 31
0.0
  0
LINE
  5
43E
330
1F
100
AcDbEntity
  8
0
  6
Continuous
 62
     8
370
    25
100
AcDbLine
 10
6416.5961104968
 20
5759.7609898466
 30
0.0
 11
5844.5961104968
 21
5759.7609898466
 31
0.0
  0
LINE
  5
43F
330
1F
100
AcDbEntity
  8
0
  6
Continuous
 62
     8
370
    25
100
AcDbLine
 10
5816.5961104968
 20
5759.7609898466
 30
0.0
 11
5482.5961104968
 21
5759.7609898466
 31
0.0
  0
LINE
  5
440
330
1F
100
AcDbEntity
  8
0
  6
Continuous
 62
     8
370
    25
100
AcDbLine
 10
5482.5961104968
 20
5759.1033789115
 30
0.0
 11
5816.5961104968
 21
5759.1033789115
 31
0.0
  0
LINE
  5
441
330
1F
100
AcDbEntity
  8
0
  6
Continuous
 62
     8
370
    25
100
AcDbLine
 10
5844.5961104968
 20
5759.1033789115
 30
0.0
 11
6416.5961104968
 21
5759.1033789115
 31
0.0
  0
LINE
  5
442
330
1F
100
AcDbEntity
  8
0
  6
Continuous
 62
     8
370
    25
100
AcDbLine
 10
6444.5961104968
 20
5759.1033789115
 30
0.0
 11
7016.5961104968
 21
5759.1033789115
 31
0.0
  0
LINE
  5
443
330
1F
100
AcDbEntity
  8
0
  6
Continuous
 62
     8
370
    25
100
AcDbLine
 10
7044.5961104968
 20
5759.1033789115
 30
0.0
 11
7378.5961104968
 21
5759.1033789115
 31
0.0
  0
ENDSEC
  0
SECTION
  2
OBJECTS
  0
DICTIONARY
  5
C
330
0
100
AcDbDictionary
281
     1
  3
ACAD_GROUP
350
D
  3
ACAD_LAYOUT
350
1A
  3
ACAD_MLINESTYLE
350
17
  3
ACAD_PLOTSETTINGS
350
19
  3
ACAD_PLOTSTYLENAME
350
E
  3
ACAD_SCALELIST
350
47
  3
DWGPROPS
350
444
  0
DICTIONARY
  5
D
102
{ACAD_REACTORS
330
C
102
}
330
C
100
AcDbDictionary
281
     1
  0
DICTIONARY
  5
1A
102
{ACAD_REACTORS
330
C
102
}
330
C
100
AcDbDictionary
281
     1
  3
Layout1
350
1E
  3
Layout2
350
26
  3
Model
350
22
  0
DICTIONARY
  5
17
102
{ACAD_REACTORS
330
C
102
}
330
C
100
AcDbDictionary
281
     1
  3
Standard
350
18
  0
DICTIONARY
  5
19
102
{ACAD_REACTORS
330
C
102
}
330
C
100
AcDbDictionary
281
     1
  0
ACDBDICTIONARYWDFLT
  5
E
102
{ACAD_REACTORS
330
C
102
}
330
C
100
AcDbDictionary
281
     1
  3
Normal
350
F
100
AcDbDictionaryWithDefault
340
F
  0
DICTIONARY
  5
47
102
{ACAD_REACTORS
330
C
102
}
330
C
100
AcDbDictionary
281
     1
  3
A0
350
48
  3
A1
350
49
  3
A2
350
4A
  3
A3
350
4B
  3
A4
350
4C
  3
A5
350
4D
  3
A6
350
4E
  3
A7
350
4F
  3
A8
350
50
  3
A9
350
51
  3
B0
350
52
  3
B1
350
53
  3
B2
350
54
  3
B3
350
55
  3
B4
350
56
  3
B5
350
57
  3
B6
350
58
  3
B7
350
59
  3
B8
350
5A
  3
B9
350
5B
  3
C0
350
5C
  3
C1
350
5D
  3
C2
350
5E
  3
C3
350
5F
  3
C4
350
60
  3
C5
350
61
  3
C6
350
62
  3
C7
350
63
  3
C8
350
64
  3
C9
350
65
  3
D0
350
66
  3
D1
350
67
  3
D2
350
68
  0
XRECORD
  5
444
102
{ACAD_REACTORS
330
C
102
}
330
C
100
AcDbXrecord
280
     1
  1
DWGPROPS COOKIE
  2

  3

  4

  6

  7

  8
radek.stransky
  9

300
=
301
=
302
=
303
=
304
=
305
=
306
=
307
=
308
=
309
=
 40
0.0
 41
2459837.449183704
 42
2459837.449184224
  1

 90
        0
  0
LAYOUT
  5
1E
102
{ACAD_REACTORS
330
1A
102
}
330
1A
100
AcDbPlotSettings
  1

  2
none_device
  4

  6

 40
0.0
 41
0.0
 42
0.0
 43
0.0
 44
0.0
 45
0.0
 46
0.0
 47
0.0
 48
0.0
 49
0.0
140
0.0
141
0.0
142
1.0
143
1.0
 70
   688
 72
     1
 73
     0
 74
     5
  7

 75
    16
147
1.0
148
0.0
149
0.0
100
AcDbLayout
  1
Layout1
 70
     1
 71
     1
 10
0.0
 20
0.0
 11
420.0
 21
297.0
 12
0.0
 22
0.0
 32
0.0
 14
1.0000000000E+20
 24
1.0000000000E+20
 34
1.0000000000E+20
 15
-1.0000000000E+20
 25
-1.0000000000E+20
 35
-1.0000000000E+20
146
0.0
 13
0.0
 23
0.0
 33
0.0
 16
1.0
 26
0.0
 36
0.0
 17
0.0
 27
1.0
 37
0.0
 76
     0
330
1B
  0
LAYOUT
  5
26
102
{ACAD_REACTORS
330
1A
102
}
330
1A
100
AcDbPlotSettings
  1

  2
none_device
  4

  6

 40
0.0
 41
0.0
 42
0.0
 43
0.0
 44
0.0
 45
0.0
 46
0.0
 47
0.0
 48
0.0
 49
0.0
140
0.0
141
0.0
142
1.0
143
1.0
 70
   688
 72
     1
 73
     0
 74
     5
  7

 75
    16
147
1.0
148
0.0
149
0.0
100
AcDbLayout
  1
Layout2
 70
     1
 71
     2
 10
0.0
 20
0.0
 11
0.0
 21
0.0
 12
0.0
 22
0.0
 32
0.0
 14
0.0
 24
0.0
 34
0.0
 15
0.0
 25
0.0
 35
0.0
146
0.0
 13
0.0
 23
0.0
 33
0.0
 16
1.0
 26
0.0
 36
0.0
 17
0.0
 27
1.0
 37
0.0
 76
     0
330
23
  0
LAYOUT
  5
22
102
{ACAD_REACTORS
330
1A
102
}
330
1A
100
AcDbPlotSettings
  1

  2
none_device
  4
Letter_(8.50_x_11.00_Inches)
  6

 40
6.35
 41
6.35
 42
6.35000508
 43
6.35000508
 44
215.9
 45
279.4
 46
0.0
 47
0.0
 48
0.0
 49
0.0
140
0.0
141
0.0
142
1.0
143
1.0
 70
  1712
 72
     1
 73
     0
 74
     0
  7

 75
     0
147
1.0
148
0.0
149
0.0
100
AcDbLayout
  1
Model
 70
     1
 71
     0
 10
0.0
 20
0.0
 11
20000.0
 21
10000.0
 12
0.0
 22
0.0
 32
0.0
 14
0.0
 24
0.0
 34
0.0
 15
20000.0
 25
10000.0
 35
0.0
146
0.0
 13
0.0
 23
0.0
 33
0.0
 16
1.0
 26
0.0
 36
0.0
 17
0.0
 27
1.0
 37
0.0
 76
     0
330
1F
331
29
  0
MLINESTYLE
  5
18
102
{ACAD_REACTORS
330
17
102
}
330
17
100
AcDbMlineStyle
  2
Standard
 70
     0
  3

 62
   256
 51
90.0
 52
90.0
 71
     2
 49
0.5
 62
   256
  6
BYLAYER
 49
-0.5
 62
   256
  6
BYLAYER
  0
ACDBPLACEHOLDER
  5
F
102
{ACAD_REACTORS
330
E
102
}
330
E
  0
SCALE
  5
48
102
{ACAD_REACTORS
330
47
102
}
330
47
100
AcDbScale
 70
     0
300
1:1
140
1.0
141
1.0
290
     1
  0
SCALE
  5
49
102
{ACAD_REACTORS
330
47
102
}
330
47
100
AcDbScale
 70
     0
300
1:2
140
1.0
141
2.0
290
     0
  0
SCALE
  5
4A
102
{ACAD_REACTORS
330
47
102
}
330
47
100
AcDbScale
 70
     0
300
1:4
140
1.0
141
4.0
290
     0
  0
SCALE
  5
4B
102
{ACAD_REACTORS
330
47
102
}
330
47
100
AcDbScale
 70
     0
300
1:5
140
1.0
141
5.0
290
     0
  0
SCALE
  5
4C
102
{ACAD_REACTORS
330
47
102
}
330
47
100
AcDbScale
 70
     0
300
1:8
140
1.0
141
8.0
290
     0
  0
SCALE
  5
4D
102
{ACAD_REACTORS
330
47
102
}
330
47
100
AcDbScale
 70
     0
300
1:10
140
1.0
141
10.0
290
     0
  0
SCALE
  5
4E
102
{ACAD_REACTORS
330
47
102
}
330
47
100
AcDbScale
 70
     0
300
1:16
140
1.0
141
16.0
290
     0
  0
SCALE
  5
4F
102
{ACAD_REACTORS
330
47
102
}
330
47
100
AcDbScale
 70
     0
300
1:20
140
1.0
141
20.0
290
     0
  0
SCALE
  5
50
102
{ACAD_REACTORS
330
47
102
}
330
47
100
AcDbScale
 70
     0
300
1:30
140
1.0
141
30.0
290
     0
  0
SCALE
  5
51
102
{ACAD_REACTORS
330
47
102
}
330
47
100
AcDbScale
 70
     0
300
1:40
140
1.0
141
40.0
290
     0
  0
SCALE
  5
52
102
{ACAD_REACTORS
330
47
102
}
330
47
100
AcDbScale
 70
     0
300
1:50
140
1.0
141
50.0
290
     0
  0
SCALE
  5
53
102
{ACAD_REACTORS
330
47
102
}
330
47
100
AcDbScale
 70
     0
300
1:100
140
1.0
141
100.0
290
     0
  0
SCALE
  5
54
102
{ACAD_REACTORS
330
47
102
}
330
47
100
AcDbScale
 70
     0
300
2:1
140
2.0
141
1.0
290
     0
  0
SCALE
  5
55
102
{ACAD_REACTORS
330
47
102
}
330
47
100
AcDbScale
 70
     0
300
4:1
140
4.0
141
1.0
290
     0
  0
SCALE
  5
56
102
{ACAD_REACTORS
330
47
102
}
330
47
100
AcDbScale
 70
     0
300
8:1
140
8.0
141
1.0
290
     0
  0
SCALE
  5
57
102
{ACAD_REACTORS
330
47
102
}
330
47
100
AcDbScale
 70
     0
300
10:1
140
10.0
141
1.0
290
     0
  0
SCALE
  5
58
102
{ACAD_REACTORS
330
47
102
}
330
47
100
AcDbScale
 70
     0
300
100:1
140
100.0
141
1.0
290
     0
  0
SCALE
  5
59
102
{ACAD_REACTORS
330
47
102
}
330
47
100
AcDbScale
 70
     0
300
1/128" = 1'-0"
140
0.0078125
141
12.0
290
     0
  0
SCALE
  5
5A
102
{ACAD_REACTORS
330
47
102
}
330
47
100
AcDbScale
 70
     0
300
1/64" = 1'-0"
140
0.015625
141
12.0
290
     0
  0
SCALE
  5
5B
102
{ACAD_REACTORS
330
47
102
}
330
47
100
AcDbScale
 70
     0
300
1/32" = 1'-0"
140
0.03125
141
12.0
290
     0
  0
SCALE
  5
5C
102
{ACAD_REACTORS
330
47
102
}
330
47
100
AcDbScale
 70
     0
300
1/16" = 1'-0"
140
0.0625
141
12.0
290
     0
  0
SCALE
  5
5D
102
{ACAD_REACTORS
330
47
102
}
330
47
100
AcDbScale
 70
     0
300
3/32" = 1'-0"
140
0.09375
141
12.0
290
     0
  0
SCALE
  5
5E
102
{ACAD_REACTORS
330
47
102
}
330
47
100
AcDbScale
 70
     0
300
1/8" = 1'-0"
140
0.125
141
12.0
290
     0
  0
SCALE
  5
5F
102
{ACAD_REACTORS
330
47
102
}
330
47
100
AcDbScale
 70
     0
300
3/16" = 1'-0"
140
0.1875
141
12.0
290
     0
  0
SCALE
  5
60
102
{ACAD_REACTORS
330
47
102
}
330
47
100
AcDbScale
 70
     0
300
1/4" = 1'-0"
140
0.25
141
12.0
290
     0
  0
SCALE
  5
61
102
{ACAD_REACTORS
330
47
102
}
330
47
100
AcDbScale
 70
     0
300
3/8" = 1'-0"
140
0.375
141
12.0
290
     0
  0
SCALE
  5
62
102
{ACAD_REACTORS
330
47
102
}
330
47
100
AcDbScale
 70
     0
300
1/2" = 1'-0"
140
0.5
141
12.0
290
     0
  0
SCALE
  5
63
102
{ACAD_REACTORS
330
47
102
}
330
47
100
AcDbScale
 70
     0
300
3/4" = 1'-0"
140
0.75
141
12.0
290
     0
  0
SCALE
  5
64
102
{ACAD_REACTORS
330
47
102
}
330
47
100
AcDbScale
 70
     0
300
1" = 1'-0"
140
1.0
141
12.0
290
     0
  0
SCALE
  5
65
102
{ACAD_REACTORS
330
47
102
}
330
47
100
AcDbScale
 70
     0
300
1-1/2" = 1'-0"
140
1.5
141
12.0
290
     0
  0
SCALE
  5
66
102
{ACAD_REACTORS
330
47
102
}
330
47
100
AcDbScale
 70
     0
300
3" = 1'-0"
140
3.0
141
12.0
290
     0
  0
SCALE
  5
67
102
{ACAD_REACTORS
330
47
102
}
330
47
100
AcDbScale
 70
     0
300
6" = 1'-0"
140
6.0
141
12.0
290
     0
  0
SCALE
  5
68
102
{ACAD_REACTORS
330
47
102
}
330
47
100
AcDbScale
 70
     0
300
1'-0" = 1'-0"
140
12.0
141
12.0
290
     0
  0
ENDSEC
  0
EOF
