  0
SECTION
  2
HEADER
  9
$ACADVER
  1
AC1015
  9
$ACADMAINTVER
 70
     6
  9
$DWGCODEPAGE
  3
ANSI_1250
  9
$INSBASE
 10
0.0
 20
0.0
 30
0.0
  9
$EXTMIN
 10
0.0
 20
0.0
 30
0.0
  9
$EXTMAX
 10
20000.0
 20
10000.0
 30
0.0
  9
$LIMMIN
 10
0.0
 20
0.0
  9
$LIMMAX
 10
20000.0
 20
10000.0
  9
$ORTHOMODE
 70
     0
  9
$REGENMODE
 70
     1
  9
$FILLMODE
 70
     1
  9
$QTEXTMODE
 70
     0
  9
$MIRRTEXT
 70
     1
  9
$LTSCALE
 40
1.0
  9
$ATTMODE
 70
     1
  9
$TEXTSIZE
 40
2.0
  9
$TRACEWID
 40
1.0
  9
$TEXTSTYLE
  7
Standard
  9
$CLAYER
  8
0
  9
$CELTYPE
  6
ByLayer
  9
$CECOLOR
 62
   256
  9
$CELTSCALE
 40
1.0
  9
$DISPSILH
 70
     0
  9
$DIMSCALE
 40
1.0
  9
$DIMASZ
 40
2.0
  9
$DIMEXO
 40
1.0
  9
$DIMDLI
 40
3.75
  9
$DIMRND
 40
0.0
  9
$DIMDLE
 40
0.0
  9
$DIMEXE
 40
1.0
  9
$DIMTP
 40
0.0
  9
$DIMTM
 40
0.0
  9
$DIMTXT
 40
2.0
  9
$DIMCEN
 40
2.5
  9
$DIMTSZ
 40
0.0
  9
$DIMTOL
 70
     0
  9
$DIMLIM
 70
     0
  9
$DIMTIH
 70
     1
  9
$DIMTOH
 70
     1
  9
$DIMSE1
 70
     0
  9
$DIMSE2
 70
     0
  9
$DIMTAD
 70
     1
  9
$DIMZIN
 70
     0
  9
$DIMBLK
  1

  9
$DIMASO
 70
     1
  9
$DIMSHO
 70
     1
  9
$DIMPOST
  1

  9
$DIMAPOST
  1

  9
$DIMALT
 70
     0
  9
$DIMALTD
 70
     3
  9
$DIMALTF
 40
0.0393700787
  9
$DIMLFAC
 40
1.0
  9
$DIMTOFL
 70
     1
  9
$DIMTVP
 40
0.0
  9
$DIMTIX
 70
     0
  9
$DIMSOXD
 70
     0
  9
$DIMSAH
 70
     0
  9
$DIMBLK1
  1

  9
$DIMBLK2
  1

  9
$DIMSTYLE
  2
ISO-25
  9
$DIMCLRD
 70
     0
  9
$DIMCLRE
 70
     0
  9
$DIMCLRT
 70
     0
  9
$DIMTFAC
 40
1.0
  9
$DIMGAP
 40
1.524
  9
$DIMJUST
 70
     0
  9
$DIMSD1
 70
     0
  9
$DIMSD2
 70
     0
  9
$DIMTOLJ
 70
     0
  9
$DIMTZIN
 70
     0
  9
$DIMALTZ
 70
     0
  9
$DIMALTTZ
 70
     0
  9
$DIMUPT
 70
     0
  9
$DIMDEC
 70
     2
  9
$DIMTDEC
 70
     0
  9
$DIMALTU
 70
     2
  9
$DIMALTTD
 70
     3
  9
$DIMTXSTY
  7
Standard
  9
$DIMAUNIT
 70
     0
  9
$DIMADEC
 70
     2
  9
$DIMALTRND
 40
0.0
  9
$DIMAZIN
 70
     0
  9
$DIMDSEP
 70
    44
  9
$DIMATFIT
 70
     3
  9
$DIMFRAC
 70
     0
  9
$DIMLDRBLK
  1

  9
$DIMLUNIT
 70
     2
  9
$DIMLWD
 70
    -2
  9
$DIMLWE
 70
    -2
  9
$DIMTMOVE
 70
     0
  9
$LUNITS
 70
     2
  9
$LUPREC
 70
     3
  9
$SKETCHINC
 40
1.0
  9
$FILLETRAD
 40
10.0
  9
$AUNITS
 70
     0
  9
$AUPREC
 70
     2
  9
$MENU
  1
.
  9
$ELEVATION
 40
0.0
  9
$PELEVATION
 40
0.0
  9
$THICKNESS
 40
0.0
  9
$LIMCHECK
 70
     0
  9
$CHAMFERA
 40
0.0
  9
$CHAMFERB
 40
0.0
  9
$CHAMFERC
 40
0.0
  9
$CHAMFERD
 40
0.0
  9
$SKPOLY
 70
     0
  9
$TDCREATE
 40
2459593.579973924
  9
$TDUCREATE
 40
2459593.538307257
  9
$TDUPDATE
 40
2459593.57997434
  9
$TDUUPDATE
 40
2459593.538307674
  9
$TDINDWG
 40
0.0000000116
  9
$TDUSRTIMER
 40
0.0000000116
  9
$USRTIMER
 70
     1
  9
$ANGBASE
 50
0.0
  9
$ANGDIR
 70
     0
  9
$PDMODE
 70
     0
  9
$PDSIZE
 40
-1.0
  9
$PLINEWID
 40
0.0
  9
$SPLFRAME
 70
     0
  9
$SPLINETYPE
 70
     6
  9
$SPLINESEGS
 70
     8
  9
$HANDSEED
  5
104
  9
$SURFTAB1
 70
     6
  9
$SURFTAB2
 70
     6
  9
$SURFTYPE
 70
     6
  9
$SURFU
 70
     6
  9
$SURFV
 70
     6
  9
$UCSBASE
  2

  9
$UCSNAME
  2

  9
$UCSORG
 10
0.0
 20
0.0
 30
0.0
  9
$UCSXDIR
 10
1.0
 20
0.0
 30
0.0
  9
$UCSYDIR
 10
0.0
 20
1.0
 30
0.0
  9
$UCSORTHOREF
  2

  9
$UCSORTHOVIEW
 70
     0
  9
$UCSORGTOP
 10
0.0
 20
0.0
 30
0.0
  9
$UCSORGBOTTOM
 10
0.0
 20
0.0
 30
0.0
  9
$UCSORGLEFT
 10
0.0
 20
0.0
 30
0.0
  9
$UCSORGRIGHT
 10
0.0
 20
0.0
 30
0.0
  9
$UCSORGFRONT
 10
0.0
 20
0.0
 30
0.0
  9
$UCSORGBACK
 10
0.0
 20
0.0
 30
0.0
  9
$PUCSBASE
  2

  9
$PUCSNAME
  2

  9
$PUCSORG
 10
0.0
 20
0.0
 30
0.0
  9
$PUCSXDIR
 10
1.0
 20
0.0
 30
0.0
  9
$PUCSYDIR
 10
0.0
 20
1.0
 30
0.0
  9
$PUCSORTHOREF
  2

  9
$PUCSORTHOVIEW
 70
     0
  9
$PUCSORGTOP
 10
0.0
 20
0.0
 30
0.0
  9
$PUCSORGBOTTOM
 10
0.0
 20
0.0
 30
0.0
  9
$PUCSORGLEFT
 10
0.0
 20
0.0
 30
0.0
  9
$PUCSORGRIGHT
 10
0.0
 20
0.0
 30
0.0
  9
$PUCSORGFRONT
 10
0.0
 20
0.0
 30
0.0
  9
$PUCSORGBACK
 10
0.0
 20
0.0
 30
0.0
  9
$USERI1
 70
     0
  9
$USERI2
 70
     0
  9
$USERI3
 70
     0
  9
$USERI4
 70
     0
  9
$USERI5
 70
     0
  9
$USERR1
 40
0.0
  9
$USERR2
 40
0.0
  9
$USERR3
 40
0.0
  9
$USERR4
 40
0.0
  9
$USERR5
 40
0.0
  9
$WORLDVIEW
 70
     1
  9
$SHADEDGE
 70
     3
  9
$SHADEDIF
 70
    70
  9
$TILEMODE
 70
     1
  9
$MAXACTVP
 70
    64
  9
$PINSBASE
 10
0.0
 20
0.0
 30
0.0
  9
$PLIMCHECK
 70
     0
  9
$PEXTMIN
 10
1.0000000000E+20
 20
1.0000000000E+20
 30
1.0000000000E+20
  9
$PEXTMAX
 10
-1.0000000000E+20
 20
-1.0000000000E+20
 30
-1.0000000000E+20
  9
$PLIMMIN
 10
0.0
 20
0.0
  9
$PLIMMAX
 10
420.0
 20
297.0
  9
$UNITMODE
 70
     0
  9
$VISRETAIN
 70
     1
  9
$PLINEGEN
 70
     0
  9
$PSLTSCALE
 70
     1
  9
$TREEDEPTH
 70
  3020
  9
$CMLSTYLE
  2
Standard
  9
$CMLJUST
 70
     0
  9
$CMLSCALE
 40
20.0
  9
$PROXYGRAPHICS
 70
     1
  9
$MEASUREMENT
 70
     1
  9
$CELWEIGHT
370
    -1
  9
$ENDCAPS
280
     0
  9
$JOINSTYLE
280
     0
  9
$LWDISPLAY
290
     1
  9
$INSUNITS
 70
     4
  9
$HYPERLINKBASE
  1

  9
$STYLESHEET
  1

  9
$XEDIT
290
     1
  9
$CEPSNTYPE
380
     0
  9
$PSTYLEMODE
290
     1
  9
$FINGERPRINTGUID
  2
{e2af129d-3c65-4312-a21a-fc2350c3cdb1}
  9
$VERSIONGUID
  2
{FAEB1C32-E019-11D5-929B-00C0DF256EC4}
  9
$EXTNAMES
290
     1
  9
$PSVPSCALE
 40
0.0
  9
$OLESTARTUP
290
     0
  0
ENDSEC
  0
SECTION
  2
CLASSES
  0
CLASS
  1
ACDBDICTIONARYWDFLT
  2
AcDbDictionaryWithDefault
  3
ObjectDBX Classes
 90
        0
280
     0
281
     0
  0
CLASS
  1
VISUALSTYLE
  2
AcDbVisualStyle
  3
ObjectDBX Classes
 90
     4095
280
     0
281
     0
  0
CLASS
  1
MATERIAL
  2
AcDbMaterial
  3
ObjectDBX Classes
 90
     1153
280
     0
281
     0
  0
CLASS
  1
SCALE
  2
AcDbScale
  3
ObjectDBX Classes
 90
     1153
280
     0
281
     0
  0
CLASS
  1
TABLESTYLE
  2
AcDbTableStyle
  3
ObjectDBX Classes
 90
     4095
280
     0
281
     0
  0
CLASS
  1
MLEADERSTYLE
  2
AcDbMLeaderStyle
  3
ACDB_MLEADERSTYLE_CLASS
 90
     4095
280
     0
281
     0
  0
CLASS
  1
SUN
  2
AcDbSun
  3
SCENEOE
 90
     1153
280
     0
281
     0
  0
CLASS
  1
ACDBPLACEHOLDER
  2
AcDbPlaceHolder
  3
ObjectDBX Classes
 90
        0
280
     0
281
     0
  0
CLASS
  1
LAYOUT
  2
AcDbLayout
  3
ObjectDBX Classes
 90
        0
280
     0
281
     0
  0
ENDSEC
  0
SECTION
  2
TABLES
  0
TABLE
  2
VPORT
  5
8
330
0
100
AcDbSymbolTable
 70
     1
  0
VPORT
  5
29
330
8
100
AcDbSymbolTableRecord
100
AcDbViewportTableRecord
  2
*Active
 70
     0
 10
0.0
 20
0.0
 11
1.0
 21
1.0
 12
10000.0
 22
5000.0
 13
0.0
 23
0.0
 14
10.0
 24
10.0
 15
10.0
 25
10.0
 16
0.0
 26
0.0
 36
1.0
 17
0.0
 27
0.0
 37
0.0
 40
10000.0
 41
2.0
 42
50.0
 43
0.0
 44
0.0
 50
0.0
 51
0.0
 71
     0
 72
  2000
 73
     1
 74
     3
 75
     0
 76
     0
 77
     0
 78
     0
281
     0
 65
     1
110
0.0
120
0.0
130
0.0
111
1.0
121
0.0
131
0.0
112
0.0
122
1.0
132
0.0
 79
     0
146
0.0
  0
ENDTAB
  0
TABLE
  2
LTYPE
  5
5
330
0
100
AcDbSymbolTable
 70
     6
  0
LTYPE
  5
14
330
5
100
AcDbSymbolTableRecord
100
AcDbLinetypeTableRecord
  2
ByBlock
 70
     0
  3

 72
    65
 73
     0
 40
0.0
  0
LTYPE
  5
15
330
5
100
AcDbSymbolTableRecord
100
AcDbLinetypeTableRecord
  2
ByLayer
 70
     0
  3

 72
    65
 73
     0
 40
0.0
  0
LTYPE
  5
16
330
5
100
AcDbSymbolTableRecord
100
AcDbLinetypeTableRecord
  2
Continuous
 70
     0
  3
Solid line
 72
    65
 73
     0
 40
0.0
  0
LTYPE
  5
6E
330
5
100
AcDbSymbolTableRecord
100
AcDbLinetypeTableRecord
  2
HIDDEN
 70
     0
  3
Hidden __ __ __ __ __ __ __ __ __ __ __ __ __ __
 72
    65
 73
     2
 40
1.905
 49
1.27
 74
     0
 49
-0.635
 74
     0
  0
LTYPE
  5
6F
330
5
100
AcDbSymbolTableRecord
100
AcDbLinetypeTableRecord
  2
PHANTOM
 70
     0
  3
Phantom ______  __  __  ______  __  __  ______
 72
    65
 73
     6
 40
12.7
 49
6.35
 74
     0
 49
-1.27
 74
     0
 49
1.27
 74
     0
 49
-1.27
 74
     0
 49
1.27
 74
     0
 49
-1.27
 74
     0
  0
LTYPE
  5
70
330
5
100
AcDbSymbolTableRecord
100
AcDbLinetypeTableRecord
  2
CENTER
 70
     0
  3
Center ____ _ ____ _ ____ _ ____ _ ____ _ ____
 72
    65
 73
     4
 40
10.16
 49
6.35
 74
     0
 49
-1.27
 74
     0
 49
1.27
 74
     0
 49
-1.27
 74
     0
  0
LTYPE
  5
71
330
5
100
AcDbSymbolTableRecord
100
AcDbLinetypeTableRecord
  2
CENTERX2
 70
     0
  3
Center (2x) ________  __  ________  __  _____
 72
    65
 73
     4
 40
20.32
 49
12.7
 74
     0
 49
-2.54
 74
     0
 49
2.54
 74
     0
 49
-2.54
 74
     0
  0
LTYPE
  5
72
330
5
100
AcDbSymbolTableRecord
100
AcDbLinetypeTableRecord
  2
DOT2
 70
     0
  3
Dot (.5x) ........................................
 72
    65
 73
     2
 40
0.635
 49
0.0
 74
     0
 49
-0.635
 74
     0
  0
ENDTAB
  0
TABLE
  2
LAYER
  5
2
330
0
100
AcDbSymbolTable
 70
    13
  0
LAYER
  5
10
330
2
100
AcDbSymbolTableRecord
100
AcDbLayerTableRecord
  2
0
 70
     0
 62
     7
  6
Continuous
370
    -3
390
F
  0
LAYER
  5
73
330
2
100
AcDbSymbolTableRecord
100
AcDbLayerTableRecord
  2
FORMAT
 70
     0
 62
     7
  6
Continuous
370
    -3
390
F
  0
LAYER
  5
74
330
2
100
AcDbSymbolTableRecord
100
AcDbLayerTableRecord
  2
OSA
 70
     0
 62
     7
  6
CENTER
370
    -3
390
F
  0
LAYER
  5
75
330
2
100
AcDbSymbolTableRecord
100
AcDbLayerTableRecord
  2
0_35
 70
     0
 62
     7
  6
Continuous
370
    35
390
F
  0
LAYER
  5
76
330
2
100
AcDbSymbolTableRecord
100
AcDbLayerTableRecord
  2
0_5
 70
     0
 62
     7
  6
Continuous
370
    50
390
F
  0
LAYER
  5
77
330
2
100
AcDbSymbolTableRecord
100
AcDbLayerTableRecord
  2
0_25
 70
     0
 62
     7
  6
Continuous
370
    25
390
F
  0
LAYER
  5
78
330
2
100
AcDbSymbolTableRecord
100
AcDbLayerTableRecord
  2
0_18
 70
     0
 62
     7
  6
Continuous
370
    -3
390
F
  0
LAYER
  5
79
330
2
100
AcDbSymbolTableRecord
100
AcDbLayerTableRecord
  2
SLD-0
 70
     0
 62
   179
  6
Continuous
370
    -3
390
F
  0
LAYER
  5
7A
330
2
100
AcDbSymbolTableRecord
100
AcDbLayerTableRecord
  2
KOTY
 70
     0
 62
     7
  6
Continuous
370
    -3
390
F
  0
LAYER
  5
7B
330
2
100
AcDbSymbolTableRecord
100
AcDbLayerTableRecord
  2
SILNA
 70
     0
 62
   179
  6
Continuous
370
    -3
390
F
  0
LAYER
  5
7C
330
2
100
AcDbSymbolTableRecord
100
AcDbLayerTableRecord
  2
0_18_1
 70
     0
 62
   179
  6
Continuous
370
    -3
390
F
  0
LAYER
  5
7D
330
2
100
AcDbSymbolTableRecord
100
AcDbLayerTableRecord
  2
0_35_1
 70
     0
 62
   179
  6
Continuous
370
    35
390
F
  0
LAYER
  5
7E
330
2
100
AcDbSymbolTableRecord
100
AcDbLayerTableRecord
  2
0_5_1
 70
     0
 62
   179
  6
Continuous
370
    50
390
F
  0
ENDTAB
  0
TABLE
  2
STYLE
  5
3
330
0
100
AcDbSymbolTable
 70
     1
  0
STYLE
  5
11
330
3
100
AcDbSymbolTableRecord
100
AcDbTextStyleTableRecord
  2
Standard
 70
     0
 40
0.0
 41
1.0
 50
0.0
 71
     0
 42
2.0
  3
txt
  4

  0
ENDTAB
  0
TABLE
  2
VIEW
  5
6
330
0
100
AcDbSymbolTable
 70
     0
  0
ENDTAB
  0
TABLE
  2
UCS
  5
7
330
0
100
AcDbSymbolTable
 70
     0
  0
ENDTAB
  0
TABLE
  2
APPID
  5
9
330
0
100
AcDbSymbolTable
 70
     1
  0
APPID
  5
12
330
9
100
AcDbSymbolTableRecord
100
AcDbRegAppTableRecord
  2
ACAD
 70
     0
  0
ENDTAB
  0
TABLE
  2
DIMSTYLE
  5
A
330
0
100
AcDbSymbolTable
 70
     1
100
AcDbDimStyleTable
  0
DIMSTYLE
105
27
330
A
100
AcDbSymbolTableRecord
100
AcDbDimStyleTableRecord
  2
ISO-25
 70
     0
 41
2.5
 42
0.625
 43
3.75
 44
1.25
 73
     0
 74
     0
 77
     1
 78
     8
140
2.5
141
2.5
143
0.0393700787
147
0.625
171
     3
172
     1
178
     0
271
     2
272
     2
274
     3
278
    44
283
     0
284
     8
340
11
  0
ENDTAB
  0
TABLE
  2
BLOCK_RECORD
  5
1
330
0
100
AcDbSymbolTable
 70
     1
  0
BLOCK_RECORD
  5
1F
330
1
100
AcDbSymbolTableRecord
100
AcDbBlockTableRecord
  2
*Model_Space
340
22
  0
BLOCK_RECORD
  5
1B
330
1
100
AcDbSymbolTableRecord
100
AcDbBlockTableRecord
  2
*Paper_Space
340
1E
  0
BLOCK_RECORD
  5
23
330
1
100
AcDbSymbolTableRecord
100
AcDbBlockTableRecord
  2
*Paper_Space0
340
26
  0
ENDTAB
  0
ENDSEC
  0
SECTION
  2
BLOCKS
  0
BLOCK
  5
20
330
1F
100
AcDbEntity
  8
0
100
AcDbBlockBegin
  2
*Model_Space
 70
     0
 10
0.0
 20
0.0
 30
0.0
  3
*Model_Space
  1

  0
ENDBLK
  5
21
330
1F
100
AcDbEntity
  8
0
100
AcDbBlockEnd
  0
BLOCK
  5
1C
330
1B
100
AcDbEntity
 67
     1
  8
0
100
AcDbBlockBegin
  2
*Paper_Space
 70
     0
 10
0.0
 20
0.0
 30
0.0
  3
*Paper_Space
  1

  0
ENDBLK
  5
1D
330
1B
100
AcDbEntity
 67
     1
  8
0
100
AcDbBlockEnd
  0
BLOCK
  5
24
330
23
100
AcDbEntity
  8
0
100
AcDbBlockBegin
  2
*Paper_Space0
 70
     0
 10
0.0
 20
0.0
 30
0.0
  3
*Paper_Space0
  1

  0
ENDBLK
  5
25
330
23
100
AcDbEntity
  8
0
100
AcDbBlockEnd
  0
ENDSEC
  0
SECTION
  2
ENTITIES
  0
LINE
  5
7F
330
1F
100
AcDbEntity
  8
0
  6
Continuous
 62
     7
370
    25
100
AcDbLine
 10
6283.318755336
 20
5165.3494545927
 30
0.0
 11
6283.318755336
 21
5165.4494545927
 31
0.0
  0
LINE
  5
80
330
1F
100
AcDbEntity
  8
0
  6
Continuous
 62
     7
370
    25
100
AcDbLine
 10
6264.718755336
 20
5165.4494545927
 30
0.0
 11
6264.718755336
 21
5165.3494545927
 31
0.0
  0
ARC
  5
81
330
1F
100
AcDbEntity
  8
0
  6
Continuous
 62
     7
370
    25
100
AcDbCircle
 10
6288.018755336
 20
5164.8494545927
 30
0.0
 40
0.4999999999990905
100
AcDbArc
 50
0.0
 51
90.0
  0
ARC
  5
82
330
1F
100
AcDbEntity
  8
0
  6
Continuous
 62
     7
370
    25
100
AcDbCircle
 10
6260.018755336
 20
5164.8494545927
 30
0.0
 40
0.5000000000009095
100
AcDbArc
 50
90.0
 51
180.0
  0
LINE
  5
83
330
1F
100
AcDbEntity
  8
0
  6
Continuous
 62
     7
370
    25
100
AcDbLine
 10
6288.518755336
 20
5163.5494545927
 30
0.0
 11
6288.518755336
 21
5164.8494545927
 31
0.0
  0
LINE
  5
84
330
1F
100
AcDbEntity
  8
0
  6
Continuous
 62
     7
370
    25
100
AcDbLine
 10
6288.518755336
 20
5144.9494545927
 30
0.0
 11
6288.518755336
 21
5147.9494545927
 31
0.0
  0
LINE
  5
85
330
1F
100
AcDbEntity
  8
0
  6
Continuous
 62
     7
370
    25
100
AcDbLine
 10
6259.518755336
 20
5147.9494545927
 30
0.0
 11
6259.518755336
 21
5144.9494545927
 31
0.0
  0
LINE
  5
86
330
1F
100
AcDbEntity
  8
0
  6
Continuous
 62
     7
370
    25
100
AcDbLine
 10
6259.518755336
 20
5164.8494545927
 30
0.0
 11
6259.518755336
 21
5163.5494545927
 31
0.0
  0
LINE
  5
87
330
1F
100
AcDbEntity
  8
0
  6
Continuous
 62
     7
370
    25
100
AcDbLine
 10
6284.018755336
 20
5260.4494545927
 30
0.0
 11
6284.018755336
 21
5276.3028995887
 31
0.0
  0
LINE
  5
88
330
1F
100
AcDbEntity
  8
0
  6
Continuous
 62
     7
370
    25
100
AcDbLine
 10
6264.018755336
 20
5276.3028995887
 30
0.0
 11
6264.018755336
 21
5260.4494545927
 31
0.0
  0
LINE
  5
89
330
1F
100
AcDbEntity
  8
0
  6
Continuous
 62
     7
370
    25
100
AcDbLine
 10
6284.018755336
 20
5276.3028995887
 30
0.0
 11
6284.018755336
 21
5292.1563445848
 31
0.0
  0
LINE
  5
8A
330
1F
100
AcDbEntity
  8
0
  6
Continuous
 62
     7
370
    25
100
AcDbLine
 10
6264.018755336
 20
5292.1563445848
 30
0.0
 11
6264.018755336
 21
5276.3028995887
 31
0.0
  0
ARC
  5
8B
330
1F
100
AcDbEntity
  8
0
  6
Continuous
 62
     7
370
    25
100
AcDbCircle
 10
6274.018755336
 20
5355.4494545927
 30
0.0
 40
10.00000000000091
100
AcDbArc
 50
0.0
 51
180.0
  0
LINE
  5
8C
330
1F
100
AcDbEntity
  8
0
  6
Continuous
 62
     7
370
    25
100
AcDbLine
 10
6264.018755336
 20
5355.4494545927
 30
0.0
 11
6264.018755336
 21
5292.1563445848
 31
0.0
  0
LINE
  5
8D
330
1F
100
AcDbEntity
  8
0
  6
Continuous
 62
     7
370
    25
100
AcDbLine
 10
6284.018755336
 20
5292.1563445848
 30
0.0
 11
6284.018755336
 21
5355.4494545927
 31
0.0
  0
LINE
  5
8E
330
1F
100
AcDbEntity
  8
0
  6
Continuous
 62
     7
370
    25
100
AcDbLine
 10
6264.018755336
 20
5260.4494545927
 30
0.0
 11
6264.018755336
 21
5165.4494545927
 31
0.0
  0
LINE
  5
8F
330
1F
100
AcDbEntity
  8
0
  6
Continuous
 62
     7
370
    25
100
AcDbLine
 10
6284.018755336
 20
5165.4494545927
 30
0.0
 11
6284.018755336
 21
5260.4494545927
 31
0.0
  0
LINE
  5
90
330
1F
100
AcDbEntity
  8
0
  6
Continuous
 62
     7
370
    25
100
AcDbLine
 10
6281.518755336
 20
5260.4494545927
 30
0.0
 11
6281.518755336
 21
5260.8253866824
 31
0.0
  0
LINE
  5
91
330
1F
100
AcDbEntity
  8
0
  6
Continuous
 62
     7
370
    25
100
AcDbLine
 10
6266.518755336
 20
5260.8253866824
 30
0.0
 11
6266.518755336
 21
5260.4494545927
 31
0.0
  0
LINE
  5
92
330
1F
100
AcDbEntity
  8
0
  6
Continuous
 62
     7
370
    25
100
AcDbLine
 10
6250.0187553361
 20
5140.0749430155
 30
0.0
 11
6250.0187553361
 21
5061.9494545927
 31
0.0
  0
LINE
  5
93
330
1F
100
AcDbEntity
  8
0
  6
Continuous
 62
     7
370
    25
100
AcDbLine
 10
6298.0187553361
 20
5061.9494545927
 30
0.0
 11
6298.0187553361
 21
5140.0749430155
 31
0.0
  0
ARC
  5
94
330
1F
100
AcDbEntity
  8
0
  6
Continuous
 62
     7
370
    25
100
AcDbCircle
 10
6252.0187553361
 20
5140.0749430155
 30
0.0
 40
2.0
100
AcDbArc
 50
97.0
 51
180.0
  0
ARC
  5
95
330
1F
100
AcDbEntity
  8
0
  6
Continuous
 62
     7
370
    25
100
AcDbCircle
 10
6296.0187553361
 20
5140.0749430155
 30
0.0
 40
2.0
100
AcDbArc
 50
0.0
 51
83.0
  0
LINE
  5
96
330
1F
100
AcDbEntity
  8
0
  6
Continuous
 62
     7
370
    25
100
AcDbLine
 10
6296.2624940229
 20
5142.0600353188
 30
0.0
 11
6289.0187553361
 21
5142.9494545927
 31
0.0
  0
LINE
  5
97
330
1F
100
AcDbEntity
  8
0
  6
Continuous
 62
     7
370
    25
100
AcDbLine
 10
6259.0187553361
 20
5142.9494545927
 30
0.0
 11
6251.7750166493
 21
5142.0600353188
 31
0.0
  0
LINE
  5
98
330
1F
100
AcDbEntity
  8
0
  6
Continuous
 62
     7
370
    25
100
AcDbLine
 10
6261.7687553361
 20
5144.9494545927
 30
0.0
 11
6261.7687553361
 21
5142.9494545927
 31
0.0
  0
LINE
  5
99
330
1F
100
AcDbEntity
  8
0
  6
Continuous
 62
     7
370
    25
100
AcDbLine
 10
6286.2687553361
 20
5142.9494545927
 30
0.0
 11
6286.2687553361
 21
5144.9494545927
 31
0.0
  0
LINE
  5
9A
330
1F
100
AcDbEntity
  8
0
  6
Continuous
 62
     7
370
    25
100
AcDbLine
 10
6288.018755336
 20
5165.3494545927
 30
0.0
 11
6260.018755336
 21
5165.3494545927
 31
0.0
  0
LINE
  5
9B
330
1F
100
AcDbEntity
  8
0
  6
Continuous
 62
     7
370
    25
100
AcDbLine
 10
6287.968755336
 20
5163.5494545927
 30
0.0
 11
6288.518755336
 21
5163.5494545927
 31
0.0
  0
LINE
  5
9C
330
1F
100
AcDbEntity
  8
0
  6
Continuous
 62
     7
370
    25
100
AcDbLine
 10
6287.968755336
 20
5147.9494545927
 30
0.0
 11
6287.968755336
 21
5163.5494545927
 31
0.0
  0
LINE
  5
9D
330
1F
100
AcDbEntity
  8
0
  6
Continuous
 62
     7
370
    25
100
AcDbLine
 10
6288.518755336
 20
5147.9494545927
 30
0.0
 11
6287.968755336
 21
5147.9494545927
 31
0.0
  0
LINE
  5
9E
330
1F
100
AcDbEntity
  8
0
  6
Continuous
 62
     7
370
    25
100
AcDbLine
 10
6260.068755336
 20
5147.9494545927
 30
0.0
 11
6259.518755336
 21
5147.9494545927
 31
0.0
  0
LINE
  5
9F
330
1F
100
AcDbEntity
  8
0
  6
Continuous
 62
     7
370
    25
100
AcDbLine
 10
6260.068755336
 20
5163.5494545927
 30
0.0
 11
6260.068755336
 21
5147.9494545927
 31
0.0
  0
LINE
  5
A0
330
1F
100
AcDbEntity
  8
0
  6
Continuous
 62
     7
370
    25
100
AcDbLine
 10
6259.518755336
 20
5163.5494545927
 30
0.0
 11
6260.068755336
 21
5163.5494545927
 31
0.0
  0
LINE
  5
A1
330
1F
100
AcDbEntity
  8
0
  6
Continuous
 62
     7
370
    25
100
AcDbLine
 10
6288.518755336
 20
5144.9494545927
 30
0.0
 11
6259.518755336
 21
5144.9494545927
 31
0.0
  0
LWPOLYLINE
  5
A2
330
1F
100
AcDbEntity
  8
0
  6
Continuous
 62
     7
370
    25
100
AcDbPolyline
 90
       41
 70
   128
 43
0.0
 10
6274.018755336
 20
5259.0990666626
 10
6275.5830999864
 20
5259.1156921789
 10
6277.1089252798
 20
5259.1651593523
 10
6278.5586603334
 20
5259.2462501368
 10
6279.8966078589
 20
5259.3569678083
 10
6281.0898231479
 20
5259.4945861301
 10
6282.1089252798
 20
5259.6557164825
 10
6282.9288205779
 20
5259.8363913015
 10
6283.529320499
 20
5260.0321617733
 10
6283.895638742
 20
5260.2382073793
 10
6284.018755336
 20
5260.4494545927
 10
6283.895638742
 20
5260.6607018062
 10
6283.529320499
 20
5260.8667474121
 10
6282.9288205779
 20
5261.062517884
 10
6282.1089252798
 20
5261.2431927029
 10
6281.0898231479
 20
5261.4043230553
 10
6279.8966078589
 20
5261.5419413772
 10
6278.5586603334
 20
5261.6526590486
 10
6277.1089252798
 20
5261.7337498332
 10
6275.5830999864
 20
5261.7832170066
 10
6274.018755336
 20
5261.7998425228
 10
6272.4544106856
 20
5261.7832170066
 10
6270.9285853923
 20
5261.7337498332
 10
6269.4788503386
 20
5261.6526590486
 10
6268.1409028131
 20
5261.5419413772
 10
6266.9476875241
 20
5261.4043230553
 10
6265.9285853923
 20
5261.2431927029
 10
6265.1086900941
 20
5261.062517884
 10
6264.5081901731
 20
5260.8667474121
 10
6264.1418719301
 20
5260.6607018062
 10
6264.018755336
 20
5260.4494545927
 10
6264.1418719301
 20
5260.2382073793
 10
6264.5081901731
 20
5260.0321617733
 10
6265.1086900941
 20
5259.8363913015
 10
6265.9285853923
 20
5259.6557164825
 10
6266.9476875241
 20
5259.4945861301
 10
6268.1409028131
 20
5259.3569678083
 10
6269.4788503386
 20
5259.2462501368
 10
6270.9285853923
 20
5259.1651593523
 10
6272.4544106856
 20
5259.1156921789
 10
6274.018755336
 20
5259.0990666626
  0
LWPOLYLINE
  5
A3
330
1F
100
AcDbEntity
  8
0
  6
Continuous
 62
     7
370
    25
100
AcDbPolyline
 90
       36
 70
   128
 43
0.0
 10
6274.018755336
 20
5259.3691442486
 10
6275.4472104944
 20
5259.3865052803
 10
6276.8297539287
 20
5259.4380303775
 10
6278.1219495553
 20
5259.5220634811
 10
6279.2822651435
 20
5259.6359036982
 10
6280.2734071958
 20
5259.7758921103
 10
6281.0635195909
 20
5259.9375293749
 10
6281.6272074664
 20
5260.1156203372
 10
6281.9463534302
 20
5260.3044410071
 10
6282.0106998683
 20
5260.497922533
 10
6281.8181786335
 20
5260.6898462594
 10
6281.3749775164
 20
5260.8740435999
 10
6280.6953413658
 20
5261.0445943003
 10
6279.8011142466
 20
5261.1960167208
 10
6278.7210373543
 20
5261.3234440203
 10
6277.489825249
 20
5261.4227805804
 10
6276.1470501005
 20
5261.4908336425
 10
6274.7358698072
 20
5261.525415925
 10
6273.3016408648
 20
5261.525415925
 10
6271.8904605715
 20
5261.4908336425
 10
6270.5476854231
 20
5261.4227805804
 10
6269.3164733177
 20
5261.3234440203
 10
6268.2363964254
 20
5261.1960167208
 10
6267.3421693062
 20
5261.0445943003
 10
6266.6625331556
 20
5260.8740435999
 10
6266.2193320386
 20
5260.6898462594
 10
6266.0268108037
 20
5260.497922533
 10
6266.0911572419
 20
5260.3044410071
 10
6266.4103032056
 20
5260.1156203372
 10
6266.9739910812
 20
5259.9375293749
 10
6267.7641034763
 20
5259.7758921103
 10
6268.7552455285
 20
5259.6359036982
 10
6269.9155611168
 20
5259.5220634811
 10
6271.2077567434
 20
5259.4380303775
 10
6272.5903001776
 20
5259.3865052803
 10
6274.018755336
 20
5259.3691442486
  0
LINE
  5
A4
330
1F
100
AcDbEntity
  8
0
  6
Continuous
 62
     7
370
    25
100
AcDbLine
 10
6274.018755336
 20
5165.4494545927
 30
0.0
 11
6284.018755336
 21
5165.4494545927
 31
0.0
  0
LINE
  5
A5
330
1F
100
AcDbEntity
  8
0
  6
Continuous
 62
     7
370
    25
100
AcDbLine
 10
6264.018755336
 20
5165.4494545927
 30
0.0
 11
6274.018755336
 21
5165.4494545927
 31
0.0
  0
LWPOLYLINE
  5
A6
330
1F
100
AcDbEntity
  8
0
  6
Continuous
 62
     7
370
    25
100
AcDbPolyline
 90
       35
 70
   128
 43
0.0
 10
6274.018755336
 20
5259.4366636451
 10
6275.3968767196
 20
5259.4539083356
 10
6276.7280678324
 20
5259.5050551599
 10
6277.9669965576
 20
5259.5883623742
 10
6279.0714726634
 20
5259.7009930512
 10
6280.0038845406
 20
5259.8391116883
 10
6280.7324800212
 20
5259.998014821
 10
6281.2324476598
 20
5260.1722911937
 10
6281.4867616582
 20
5260.3560060335
 10
6281.4867616582
 20
5260.5429031519
 10
6281.2324476598
 20
5260.7266179918
 10
6280.7324800212
 20
5260.9008943644
 10
6280.0038845406
 20
5261.0597974971
 10
6279.0714726634
 20
5261.1979161343
 10
6277.9669965576
 20
5261.3105468113
 10
6276.7280678324
 20
5261.3938540255
 10
6275.3968767196
 20
5261.4450008498
 10
6274.018755336
 20
5261.4622455403
 10
6272.6406339524
 20
5261.4450008498
 10
6271.3094428396
 20
5261.3938540255
 10
6270.0705141144
 20
5261.3105468113
 10
6268.9660380087
 20
5261.1979161343
 10
6268.0336261314
 20
5261.0597974971
 10
6267.3050306508
 20
5260.9008943644
 10
6266.8050630122
 20
5260.7266179918
 10
6266.5507490138
 20
5260.5429031519
 10
6266.5507490138
 20
5260.3560060335
 10
6266.8050630122
 20
5260.1722911937
 10
6267.3050306508
 20
5259.998014821
 10
6268.0336261314
 20
5259.8391116883
 10
6268.9660380087
 20
5259.7009930512
 10
6270.0705141144
 20
5259.5883623742
 10
6271.3094428396
 20
5259.5050551599
 10
6272.6406339524
 20
5259.4539083356
 10
6274.018755336
 20
5259.4366636451
  0
ARC
  5
A7
330
1F
100
AcDbEntity
  8
0
  6
Continuous
 62
     7
370
    25
100
AcDbCircle
 10
6274.0279989478
 20
5090.9489253178
 30
0.0
 40
10.89362406206011
100
AcDbArc
 50
179.9999832075
 51
179.9976113866
  0
LINE
  5
A8
330
1F
100
AcDbEntity
  8
0
  6
Continuous
 62
     7
370
    25
100
AcDbLine
 10
6263.1343748857
 20
5090.9489285105
 30
0.0
 11
6263.4133528381
 21
5090.948928499
 31
0.0
  0
LWPOLYLINE
  5
A9
330
1F
100
AcDbEntity
  8
0
  6
Continuous
 62
     7
370
    25
100
AcDbPolyline
 90
       40
 70
   128
 43
0.0
 10
6263.4133528381
 20
5090.948928499
 10
6263.5394647442
 20
5089.3498718176
 10
6263.9274118629
 20
5087.7508151285
 10
6264.5363367275
 20
5086.2917610927
 10
6265.3777641493
 20
5084.9202129485
 10
6266.4649633498
 20
5083.6503573794
 10
6267.7756032893
 20
5082.5437586505
 10
6269.3209589406
 20
5081.6271053763
 10
6271.0676632104
 20
5080.9623794763
 10
6272.7873510679
 20
5080.6220555226
 10
6274.6038645316
 20
5080.5677356455
 10
6276.240902305
 20
5080.7825980119
 10
6277.8611390377
 20
5081.2579915809
 10
6279.350231266
 20
5081.9607760896
 10
6280.736737031
 20
5082.9030487413
 10
6281.9983556689
 20
5084.099716444
 10
6283.0710785487
 20
5085.5313430551
 10
6283.8821726423
 20
5087.1278094855
 10
6284.4200849997
 20
5088.9190287591
 10
6284.61710003
 20
5090.5698373304
 10
6284.5357626337
 20
5092.2903932169
 10
6284.2235547875
 20
5093.7813837207
 10
6283.6815679702
 20
5095.2355997755
 10
6282.9143085555
 20
5096.6116491836
 10
6281.9281576818
 20
5097.8771945977
 10
6280.6619242174
 20
5099.0551448934
 10
6279.1723413017
 20
5100.0374877177
 10
6277.5234960806
 20
5100.763066254
 10
6275.7026402679
 20
5101.2151798663
 10
6273.9953006897
 20
5101.3469877569
 10
6272.2350338074
 20
5101.199001217
 10
6270.6477971065
 20
5100.8080158403
 10
6269.10977072
 20
5100.1666770035
 10
6267.6837234229
 20
5099.2889146706
 10
6266.3898807532
 20
5098.1731077494
 10
6265.2586754304
 20
5096.8111988876
 10
6264.3488900029
 20
5095.220361765
 10
6263.7527840086
 20
5093.5596231788
 10
6263.444212696
 20
5091.7419283433
 10
6263.4133528473
 20
5090.9493586609
  0
LWPOLYLINE
  5
AA
330
1F
100
AcDbEntity
  8
0
  6
Continuous
 62
     7
370
    25
100
AcDbPolyline
 90
        9
 70
   128
 43
0.0
 10
6263.4133528473
 20
5090.9493586609
 10
6263.3541847468
 20
5090.9493618549
 10
6263.3002624129
 20
5090.9493649891
 10
6263.252595663
 20
5090.9493680047
 10
6263.2120771646
 20
5090.9493708454
 10
6263.1794657179
 20
5090.9493734579
 10
6263.155372046
 20
5090.9493757933
 10
6263.1402473571
 20
5090.9493778079
 10
6263.1343748952
 20
5090.9493794639
  0
LINE
  5
AB
330
1F
100
AcDbEntity
  8
0
  6
Continuous
 62
     7
370
    25
100
AcDbLine
 10
6263.1343748857
 20
5090.9489285105
 30
0.0
 11
6263.1343748952
 21
5090.9493794639
 31
0.0
  0
LINE
  5
AC
330
1F
100
AcDbEntity
  8
0
  6
Continuous
 62
     7
370
    25
100
AcDbLine
 10
6263.4133528473
 20
5090.9493586609
 30
0.0
 11
6263.4133528381
 21
5090.948928499
 31
0.0
  0
ARC
  5
AD
330
1F
100
AcDbEntity
  8
0
  6
Continuous
 62
     7
370
    25
100
AcDbCircle
 10
6274.0157248607
 20
5090.913964024
 30
0.0
 40
11.30738245975436
100
AcDbArc
 50
124.1719869296
 51
58.6208063192
  0
CIRCLE
  5
AE
330
1F
100
AcDbEntity
  8
0
  6
Continuous
 62
     7
370
    25
100
AcDbCircle
 10
6274.0188004422
 20
5090.9498241817
 30
0.0
 40
11.04963041107406
  0
LINE
  5
AF
330
1F
100
AcDbEntity
  8
0
  6
Continuous
 62
     7
370
    25
100
AcDbLine
 10
6250.0187553361
 20
5061.9494545927
 30
0.0
 11
6298.0187553361
 21
5061.9494545927
 31
0.0
  0
LINE
  5
B0
330
1F
100
AcDbEntity
  8
0
  6
Continuous
 62
     7
370
    25
100
AcDbLine
 10
6259.0187553361
 20
5142.9494545927
 30
0.0
 11
6289.0187553361
 21
5142.9494545927
 31
0.0
  0
LINE
  5
B1
330
1F
100
AcDbEntity
  8
0
  6
Continuous
 62
     8
370
    25
100
AcDbLine
 10
6288.518755336
 20
5164.8494545927
 30
0.0
 11
6259.518755336
 21
5164.8494545927
 31
0.0
  0
LWPOLYLINE
  5
B2
330
1F
100
AcDbEntity
  8
0
  6
Continuous
 62
     8
370
    25
100
AcDbPolyline
 90
       21
 70
   128
 43
0.0
 10
6284.018755336
 20
5276.3028995887
 10
6283.895638742
 20
5276.5141468022
 10
6283.529320499
 20
5276.7201924081
 10
6282.9288205779
 20
5276.91596288
 10
6282.1089252798
 20
5277.0966376989
 10
6281.0898231479
 20
5277.2577680514
 10
6279.8966078589
 20
5277.3953863732
 10
6278.5586603334
 20
5277.5061040447
 10
6277.1089252798
 20
5277.5871948292
 10
6275.5830999864
 20
5277.6366620026
 10
6274.018755336
 20
5277.6532875189
 10
6272.4544106856
 20
5277.6366620026
 10
6270.9285853923
 20
5277.5871948292
 10
6269.4788503386
 20
5277.5061040447
 10
6268.1409028131
 20
5277.3953863732
 10
6266.9476875241
 20
5277.2577680514
 10
6265.9285853923
 20
5277.0966376989
 10
6265.1086900941
 20
5276.91596288
 10
6264.5081901731
 20
5276.7201924081
 10
6264.1418719301
 20
5276.5141468022
 10
6264.018755336
 20
5276.3028995887
  0
LWPOLYLINE
  5
B3
330
1F
100
AcDbEntity
  8
0
  6
Continuous
 62
     8
370
    25
100
AcDbPolyline
 90
       21
 70
   128
 43
0.0
 10
6284.018755336
 20
5292.1563445848
 10
6283.895638742
 20
5292.3675917982
 10
6283.529320499
 20
5292.5736374042
 10
6282.9288205779
 20
5292.769407876
 10
6282.1089252798
 20
5292.950082695
 10
6281.0898231479
 20
5293.1112130474
 10
6279.8966078589
 20
5293.2488313692
 10
6278.5586603334
 20
5293.3595490407
 10
6277.1089252798
 20
5293.4406398252
 10
6275.5830999864
 20
5293.4901069986
 10
6274.018755336
 20
5293.5067325149
 10
6272.4544106856
 20
5293.4901069986
 10
6270.9285853923
 20
5293.4406398252
 10
6269.4788503386
 20
5293.3595490407
 10
6268.1409028131
 20
5293.2488313692
 10
6266.9476875241
 20
5293.1112130474
 10
6265.9285853923
 20
5292.950082695
 10
6265.1086900941
 20
5292.769407876
 10
6264.5081901731
 20
5292.5736374042
 10
6264.1418719301
 20
5292.3675917982
 10
6264.018755336
 20
5292.1563445848
  0
ARC
  5
B4
330
1F
100
AcDbEntity
  8
0
  6
Continuous
 62
     8
370
    25
100
AcDbCircle
 10
6274.0221715827
 20
5090.7856747854
 30
0.0
 40
11.41378031861276
100
AcDbArc
 50
58.9837658949
 51
90.01714914
  0
ARC
  5
B5
330
1F
100
AcDbEntity
  8
0
  6
Continuous
 62
     8
370
    25
100
AcDbCircle
 10
6274.0157480213
 20
5090.7857730438
 30
0.0
 40
11.4136819450987
100
AcDbArc
 50
89.9849035179
 51
123.8106355192
  0
LINE
  5
B6
330
1F
100
AcDbEntity
  8
0
  6
Continuous
 62
     8
370
    25
100
AcDbLine
 10
6250.0187553361
 20
5140.0749430155
 30
0.0
 11
6298.0187553361
 21
5140.0749430155
 31
0.0
  0
LINE
  5
B7
330
1F
100
AcDbEntity
  8
0
  6
Continuous
 62
     8
370
    25
100
AcDbLine
 10
6251.7750166493
 20
5142.0600353188
 30
0.0
 11
6296.2624940229
 21
5142.0600353188
 31
0.0
  0
LINE
  5
B8
330
1F
100
AcDbEntity
  8
0
  6
Continuous
 62
     7
370
    25
100
AcDbLine
 10
6479.9998805735
 20
5165.3494545927
 30
0.0
 11
6479.9998805735
 21
5165.4494545927
 31
0.0
  0
LINE
  5
B9
330
1F
100
AcDbEntity
  8
0
  6
Continuous
 62
     7
370
    25
100
AcDbLine
 10
6461.3998805735
 20
5165.4494545927
 30
0.0
 11
6461.3998805735
 21
5165.3494545927
 31
0.0
  0
ARC
  5
BA
330
1F
100
AcDbEntity
  8
0
  6
Continuous
 62
     7
370
    25
100
AcDbCircle
 10
6484.6998805735
 20
5164.8494545927
 30
0.0
 40
0.5000000000009095
100
AcDbArc
 50
0.0
 51
90.0
  0
ARC
  5
BB
330
1F
100
AcDbEntity
  8
0
  6
Continuous
 62
     7
370
    25
100
AcDbCircle
 10
6456.6998805735
 20
5164.8494545927
 30
0.0
 40
0.5
100
AcDbArc
 50
90.0
 51
180.0
  0
LINE
  5
BC
330
1F
100
AcDbEntity
  8
0
  6
Continuous
 62
     7
370
    25
100
AcDbLine
 10
6485.1998805735
 20
5144.9494545927
 30
0.0
 11
6485.1998805735
 21
5164.8494545927
 31
0.0
  0
LINE
  5
BD
330
1F
100
AcDbEntity
  8
0
  6
Continuous
 62
     7
370
    25
100
AcDbLine
 10
6456.1998805735
 20
5164.8494545927
 30
0.0
 11
6456.1998805735
 21
5144.9494545927
 31
0.0
  0
ARC
  5
BE
330
1F
100
AcDbEntity
  8
0
  6
Continuous
 62
     7
370
    25
100
AcDbCircle
 10
6543.8743877035
 20
5282.2749474627
 30
0.0
 40
63.17450713005343
100
AcDbArc
 50
7.7608631057
 51
180.0
  0
ARC
  5
BF
330
1F
100
AcDbEntity
  8
0
  6
Continuous
 62
     7
370
    25
100
AcDbCircle
 10
6543.8743877035
 20
5282.2749474627
 30
0.0
 40
83.17450713005367
100
AcDbArc
 50
7.7608631057
 51
180.0
  0
LINE
  5
C0
330
1F
100
AcDbEntity
  8
0
  6
Continuous
 62
     7
370
    25
100
AcDbLine
 10
6460.6998805735
 20
5282.2749474627
 30
0.0
 11
6460.6998805735
 21
5165.4494545927
 31
0.0
  0
LINE
  5
C1
330
1F
100
AcDbEntity
  8
0
  6
Continuous
 62
     7
370
    25
100
AcDbLine
 10
6480.6998805735
 20
5165.4494545927
 30
0.0
 11
6480.6998805735
 21
5282.2749474627
 31
0.0
  0
LINE
  5
C2
330
1F
100
AcDbEntity
  8
0
  6
Continuous
 62
     7
370
    25
100
AcDbLine
 10
6628.4476630078
 20
5277.6532875189
 30
0.0
 11
6626.2870423196
 21
5293.5067325149
 31
0.0
  0
LINE
  5
C3
330
1F
100
AcDbEntity
  8
0
  6
Continuous
 62
     7
370
    25
100
AcDbLine
 10
6606.4702360746
 20
5290.8059566546
 30
0.0
 11
6608.6308567628
 21
5274.9525116586
 31
0.0
  0
LINE
  5
C4
330
1F
100
AcDbEntity
  8
0
  6
Continuous
 62
     7
370
    25
100
AcDbLine
 10
6630.608283696
 20
5261.7998425228
 30
0.0
 11
6628.4476630078
 21
5277.6532875189
 31
0.0
  0
LINE
  5
C5
330
1F
100
AcDbEntity
  8
0
  6
Continuous
 62
     7
370
    25
100
AcDbLine
 10
6608.6308567628
 20
5274.9525116586
 30
0.0
 11
6610.7914774509
 21
5259.0990666626
 31
0.0
  0
LWPOLYLINE
  5
C6
330
1F
100
AcDbEntity
  8
0
  6
Continuous
 62
     7
370
    25
100
AcDbPolyline
 90
        3
 70
   128
 43
0.0
 10
6493.4894259951
 20
5080.1483102994
 10
6493.5999381349
 20
5080.2541710914
 10
6493.6490963892
 20
5080.3428586759
  0
ARC
  5
C7
330
1F
100
AcDbEntity
  8
0
  6
Continuous
 62
     7
370
    25
100
AcDbCircle
 10
6493.2383927523
 20
5101.4145375736
 30
0.0
 40
0.4338461423250474
100
AcDbArc
 50
23.4175111128
 51
96.7949882997
  0
LINE
  5
C8
330
1F
100
AcDbEntity
  8
0
  6
Continuous
 62
     7
370
    25
100
AcDbLine
 10
6493.6998805736
 20
5080.5852263185
 30
0.0
 11
6493.6998805736
 21
5101.3451792044
 31
0.0
  0
LINE
  5
C9
330
1F
100
AcDbEntity
  8
0
  6
Continuous
 62
     7
370
    25
100
AcDbLine
 10
6445.6998805736
 20
5140.0749430155
 30
0.0
 11
6445.6998805736
 21
5061.9494545927
 31
0.0
  0
LINE
  5
CA
330
1F
100
AcDbEntity
  8
0
  6
Continuous
 62
     7
370
    25
100
AcDbLine
 10
6493.6998805736
 20
5102.1994545927
 30
0.0
 11
6493.6998805736
 21
5140.0749430155
 31
0.0
  0
LINE
  5
CB
330
1F
100
AcDbEntity
  8
0
  6
Continuous
 62
     7
370
    25
100
AcDbLine
 10
6493.6998805736
 20
5061.9494545927
 30
0.0
 11
6493.6998805736
 21
5079.7229885427
 31
0.0
  0
ARC
  5
CC
330
1F
100
AcDbEntity
  8
0
  6
Continuous
 62
     7
370
    25
100
AcDbCircle
 10
6447.6998805736
 20
5140.0749430155
 30
0.0
 40
2.000000000000909
100
AcDbArc
 50
97.0
 51
180.0
  0
ARC
  5
CD
330
1F
100
AcDbEntity
  8
0
  6
Continuous
 62
     7
370
    25
100
AcDbCircle
 10
6491.6998805736
 20
5140.0749430155
 30
0.0
 40
2.000000000000107
100
AcDbArc
 50
0.0
 51
83.0
  0
LINE
  5
CE
330
1F
100
AcDbEntity
  8
0
  6
Continuous
 62
     7
370
    25
100
AcDbLine
 10
6491.9436192604
 20
5142.0600353188
 30
0.0
 11
6484.6998805736
 21
5142.9494545927
 31
0.0
  0
LINE
  5
CF
330
1F
100
AcDbEntity
  8
0
  6
Continuous
 62
     7
370
    25
100
AcDbLine
 10
6454.6998805736
 20
5142.9494545927
 30
0.0
 11
6447.4561418868
 21
5142.0600353188
 31
0.0
  0
LINE
  5
D0
330
1F
100
AcDbEntity
  8
0
  6
Continuous
 62
     7
370
    25
100
AcDbLine
 10
6457.4498805736
 20
5144.9494545927
 30
0.0
 11
6457.4498805736
 21
5142.9494545927
 31
0.0
  0
LINE
  5
D1
330
1F
100
AcDbEntity
  8
0
  6
Continuous
 62
     7
370
    25
100
AcDbLine
 10
6481.9498805736
 20
5142.9494545927
 30
0.0
 11
6481.9498805736
 21
5144.9494545927
 31
0.0
  0
ARC
  5
D2
330
1F
100
AcDbEntity
  8
0
  6
Continuous
 62
     7
370
    25
100
AcDbCircle
 10
6493.5162551382
 20
5102.1914870599
 30
0.0
 40
0.1816846419762415
100
AcDbArc
 50
334.5832890907
 51
344.9955409567
  0
LINE
  5
D3
330
1F
100
AcDbEntity
  8
0
  6
Continuous
 62
     7
370
    25
100
AcDbLine
 10
6484.6998804573
 20
5165.3494545927
 30
0.0
 11
6456.6998805735
 21
5165.3494545927
 31
0.0
  0
LINE
  5
D4
330
1F
100
AcDbEntity
  8
0
  6
Continuous
 62
     7
370
    25
100
AcDbLine
 10
6474.6555726747
 20
5147.9494545927
 30
0.0
 11
6466.7441884722
 21
5147.9494545927
 31
0.0
  0
LINE
  5
D5
330
1F
100
AcDbEntity
  8
0
  6
Continuous
 62
     7
370
    25
100
AcDbLine
 10
6474.6555726747
 20
5163.5494545927
 30
0.0
 11
6474.6555726747
 21
5147.9494545927
 31
0.0
  0
LINE
  5
D6
330
1F
100
AcDbEntity
  8
0
  6
Continuous
 62
     7
370
    25
100
AcDbLine
 10
6466.7441884722
 20
5163.5494545927
 30
0.0
 11
6474.6555726747
 21
5163.5494545927
 31
0.0
  0
LINE
  5
D7
330
1F
100
AcDbEntity
  8
0
  6
Continuous
 62
     7
370
    25
100
AcDbLine
 10
6466.7441884722
 20
5147.9494545927
 30
0.0
 11
6466.7441884722
 21
5163.5494545927
 31
0.0
  0
LINE
  5
D8
330
1F
100
AcDbEntity
  8
0
  6
Continuous
 62
     7
370
    25
100
AcDbLine
 10
6485.1998805735
 20
5144.9494545927
 30
0.0
 11
6456.1998805735
 21
5144.9494545927
 31
0.0
  0
LINE
  5
D9
330
1F
100
AcDbEntity
  8
0
  6
Continuous
 62
     7
370
    25
100
AcDbLine
 10
6460.6998805735
 20
5165.4494545927
 30
0.0
 11
6480.6998805735
 21
5165.4494545927
 31
0.0
  0
LINE
  5
DA
330
1F
100
AcDbEntity
  8
0
  6
Continuous
 62
     7
370
    25
100
AcDbLine
 10
6630.608283696
 20
5261.7998425228
 30
0.0
 11
6610.7914774509
 21
5259.0990666626
 31
0.0
  0
LINE
  5
DB
330
1F
100
AcDbEntity
  8
0
  6
Continuous
 62
     7
370
    25
100
AcDbLine
 10
6490.7897132761
 20
5090.9489285105
 30
0.0
 11
6491.2295212543
 21
5090.948928499
 31
0.0
  0
ARC
  5
DC
330
1F
100
AcDbEntity
  8
0
  6
Continuous
 62
     7
370
    25
100
AcDbCircle
 10
6517.3024920209
 20
5091.6533590759
 30
0.0
 40
26.08248506246832
100
AcDbArc
 50
181.5476212185
 51
205.110097796
  0
ARC
  5
DD
330
1F
100
AcDbEntity
  8
0
  6
Continuous
 62
     7
370
    25
100
AcDbCircle
 10
6517.2433838983
 20
5090.2505309906
 30
0.0
 40
26.02745552765774
100
AcDbArc
 50
154.7647051164
 51
177.7820857097
  0
LWPOLYLINE
  5
DE
330
1F
100
AcDbEntity
  8
0
  6
Continuous
 62
     7
370
    25
100
AcDbPolyline
 90
        9
 70
   128
 43
0.0
 10
6491.2295212589
 20
5090.9493586609
 10
6491.195156306
 20
5090.9493618549
 10
6491.1530350998
 20
5090.9493649891
 10
6491.1039464548
 20
5090.9493680047
 10
6491.0488096668
 20
5090.9493708454
 10
6490.9886572965
 20
5090.9493734579
 10
6490.9246158327
 20
5090.9493757933
 10
6490.8578845964
 20
5090.9493778079
 10
6490.7897132805
 20
5090.9493794639
  0
LINE
  5
DF
330
1F
100
AcDbEntity
  8
0
  6
Continuous
 62
     7
370
    25
100
AcDbLine
 10
6491.2295212589
 20
5090.9493586609
 30
0.0
 11
6491.2295212543
 21
5090.948928499
 31
0.0
  0
LINE
  5
E0
330
1F
100
AcDbEntity
  8
0
  6
Continuous
 62
     7
370
    25
100
AcDbLine
 10
6469.6998805736
 20
5061.9494545927
 30
0.0
 11
6493.6998805736
 21
5061.9494545927
 31
0.0
  0
LINE
  5
E1
330
1F
100
AcDbEntity
  8
0
  6
Continuous
 62
     7
370
    25
100
AcDbLine
 10
6445.6998805736
 20
5061.9494545927
 30
0.0
 11
6469.6998805736
 21
5061.9494545927
 31
0.0
  0
LWPOLYLINE
  5
E2
330
1F
100
AcDbEntity
  8
0
  6
Continuous
 62
     7
370
    25
100
AcDbPolyline
 90
       22
 70
   128
 43
0.0
 10
6493.6886997926
 20
5079.7229885427
 10
6493.6975659592
 20
5079.7043112965
 10
6493.6623292666
 20
5079.778450169
 10
6493.4957819534
 20
5080.1342185959
 10
6493.2021203885
 20
5080.7852914176
 10
6492.8282048828
 20
5081.6670136723
 10
6492.3889751932
 20
5082.8024706477
 10
6491.9187371332
 20
5084.1962027686
 10
6491.470030421
 20
5085.8312667852
 10
6491.1148826704
 20
5087.6157944005
 10
6490.8937610635
 20
5089.5900722047
 10
6490.8532961403
 20
5091.3529159468
 10
6490.966678237
 20
5093.1613872873
 10
6491.1931139556
 20
5094.7460772608
 10
6491.5197088425
 20
5096.2716145644
 10
6491.9305886461
 20
5097.7409537985
 10
6492.3792849135
 20
5099.0698616422
 10
6492.8434496682
 20
5100.2691867112
 10
6493.2529723284
 20
5101.2287227184
 10
6493.5361789579
 20
5101.8518209188
 10
6493.6856643857
 20
5102.1695993017
 10
6493.6998805736
 20
5102.1994545927
  0
LINE
  5
E3
330
1F
100
AcDbEntity
  8
0
  6
Continuous
 62
     7
370
    25
100
AcDbLine
 10
6469.6998805736
 20
5142.9494545927
 30
0.0
 11
6484.6998805736
 21
5142.9494545927
 31
0.0
  0
LINE
  5
E4
330
1F
100
AcDbEntity
  8
0
  6
Continuous
 62
     7
370
    25
100
AcDbLine
 10
6454.6998805736
 20
5142.9494545927
 30
0.0
 11
6469.6998805736
 21
5142.9494545927
 31
0.0
  0
LINE
  5
E5
330
1F
100
AcDbEntity
  8
0
  6
Continuous
 62
     8
370
    25
100
AcDbLine
 10
6485.1998805735
 20
5164.8494545927
 30
0.0
 11
6456.1998805735
 21
5164.8494545927
 31
0.0
  0
LINE
  5
E6
330
1F
100
AcDbEntity
  8
0
  6
Continuous
 62
     8
370
    25
100
AcDbLine
 10
6460.6998805735
 20
5282.2749474627
 30
0.0
 11
6480.6998805735
 21
5282.2749474627
 31
0.0
  0
LINE
  5
E7
330
1F
100
AcDbEntity
  8
0
  6
Continuous
 62
     8
370
    25
100
AcDbLine
 10
6626.2870423196
 20
5293.5067325149
 30
0.0
 11
6606.4702360746
 21
5290.8059566546
 31
0.0
  0
LINE
  5
E8
330
1F
100
AcDbEntity
  8
0
  6
Continuous
 62
     8
370
    25
100
AcDbLine
 10
6628.4476630078
 20
5277.6532875189
 30
0.0
 11
6608.6308567628
 21
5274.9525116586
 31
0.0
  0
LINE
  5
E9
330
1F
100
AcDbEntity
  8
0
  6
Continuous
 62
     8
370
    25
100
AcDbLine
 10
6491.2354264458
 20
5091.2577997686
 30
0.0
 11
6491.2295212589
 21
5090.9493586609
 31
0.0
  0
LINE
  5
EA
330
1F
100
AcDbEntity
  8
0
  6
Continuous
 62
     8
370
    25
100
AcDbLine
 10
6469.6998805736
 20
5140.0749430155
 30
0.0
 11
6493.6998805736
 21
5140.0749430155
 31
0.0
  0
LINE
  5
EB
330
1F
100
AcDbEntity
  8
0
  6
Continuous
 62
     8
370
    25
100
AcDbLine
 10
6445.6998805736
 20
5140.0749430155
 30
0.0
 11
6469.6998805736
 21
5140.0749430155
 31
0.0
  0
LINE
  5
EC
330
1F
100
AcDbEntity
  8
0
  6
Continuous
 62
     8
370
    25
100
AcDbLine
 10
6469.6998805736
 20
5142.0600353188
 30
0.0
 11
6491.9436192604
 21
5142.0600353188
 31
0.0
  0
LINE
  5
ED
330
1F
100
AcDbEntity
  8
0
  6
Continuous
 62
     8
370
    25
100
AcDbLine
 10
6447.4561418868
 20
5142.0600353188
 30
0.0
 11
6469.6998805736
 21
5142.0600353188
 31
0.0
  0
LINE
  5
EE
330
1F
100
AcDbEntity
  8
0
  6
Continuous
 62
     7
370
    25
100
AcDbLine
 10
6264.018755336
 20
4887.5519269889
 30
0.0
 11
6264.018755336
 21
4741.8731683653
 31
0.0
  0
LINE
  5
EF
330
1F
100
AcDbEntity
  8
0
  6
Continuous
 62
     7
370
    25
100
AcDbLine
 10
6284.018755336
 20
4741.8731683653
 30
0.0
 11
6284.018755336
 21
4887.5519269889
 31
0.0
  0
LINE
  5
F0
330
1F
100
AcDbEntity
  8
0
  6
Continuous
 62
     7
370
    25
100
AcDbLine
 10
6284.018755336
 20
4739.7125476771
 30
0.0
 11
6284.018755336
 21
4741.8731683653
 31
0.0
  0
LINE
  5
F1
330
1F
100
AcDbEntity
  8
0
  6
Continuous
 62
     7
370
    25
100
AcDbLine
 10
6264.018755336
 20
4741.8731683653
 30
0.0
 11
6264.018755336
 21
4739.7125476771
 31
0.0
  0
LINE
  5
F2
330
1F
100
AcDbEntity
  8
0
  6
Continuous
 62
     7
370
    25
100
AcDbLine
 10
6284.018755336
 20
4737.5519269889
 30
0.0
 11
6284.018755336
 21
4739.7125476771
 31
0.0
  0
LINE
  5
F3
330
1F
100
AcDbEntity
  8
0
  6
Continuous
 62
     7
370
    25
100
AcDbLine
 10
6264.018755336
 20
4739.7125476771
 30
0.0
 11
6264.018755336
 21
4737.5519269889
 31
0.0
  0
ARC
  5
F4
330
1F
100
AcDbEntity
  8
0
  6
Continuous
 62
     7
370
    25
100
AcDbCircle
 10
6274.018755336
 20
4887.5519269889
 30
0.0
 40
14.50000000000129
100
AcDbArc
 50
313.6028189727
 51
90.0
  0
ARC
  5
F5
330
1F
100
AcDbEntity
  8
0
  6
Continuous
 62
     7
370
    25
100
AcDbCircle
 10
6274.018755336
 20
4887.5519269889
 30
0.0
 40
14.50000000000003
100
AcDbArc
 50
90.0
 51
226.3971810273
  0
ARC
  5
F6
330
1F
100
AcDbEntity
  8
0
  6
Continuous
 62
     7
370
    25
100
AcDbCircle
 10
6274.018755336
 20
4887.5519269889
 30
0.0
 40
10.00000000000091
100
AcDbArc
 50
0.0
 51
180.0
  0
ARC
  5
F7
330
1F
100
AcDbEntity
  8
0
  6
Continuous
 62
     7
370
    25
100
AcDbCircle
 10
6274.018755336
 20
4737.6259791714
 30
0.0
 40
10.00027418252754
100
AcDbArc
 50
180.4242799965
 51
359.5757200035
  0
LWPOLYLINE
  5
F8
330
1F
100
AcDbEntity
  8
0
  6
Continuous
 62
     7
370
    25
100
AcDbPolyline
 90
        3
 70
   128
 43
0.0
 10
6284.6002033387
 20
4867.010533857
 10
6284.5357626337
 20
4866.9789678169
 10
6284.4486551776
 20
4866.9372768739
  0
ARC
  5
F9
330
1F
100
AcDbEntity
  8
0
  6
Continuous
 62
     7
370
    25
100
AcDbCircle
 10
6274.0187553361
 20
4888.5519269888
 30
0.0
 40
15.00000000000107
100
AcDbArc
 50
180.0
 51
211.6682395659
  0
ARC
  5
FA
330
1F
100
AcDbEntity
  8
0
  6
Continuous
 62
     7
370
    25
100
AcDbCircle
 10
6274.0187553361
 20
4888.5519269888
 30
0.0
 40
15.00000000000091
100
AcDbArc
 50
328.3317591987
 51
180.0
  0
ARC
  5
FB
330
1F
100
AcDbEntity
  8
0
  6
Continuous
 62
     7
370
    25
100
AcDbCircle
 10
6274.0187553361
 20
4888.5519269888
 30
0.0
 40
24.0
100
AcDbArc
 50
180.0
 51
245.3756816476
  0
ARC
  5
FC
330
1F
100
AcDbEntity
  8
0
  6
Continuous
 62
     7
370
    25
100
AcDbCircle
 10
6274.0187553361
 20
4888.5519269888
 30
0.0
 40
24.0
100
AcDbArc
 50
294.6243183519
 51
180.0
  0
ARC
  5
FD
330
1F
100
AcDbEntity
  8
0
  6
Continuous
 62
     8
370
    25
100
AcDbCircle
 10
6274.018755336
 20
4887.5519269889
 30
0.0
 40
14.00000000000091
100
AcDbArc
 50
315.5846914028
 51
90.0
  0
ARC
  5
FE
330
1F
100
AcDbEntity
  8
0
  6
Continuous
 62
     8
370
    25
100
AcDbCircle
 10
6274.018755336
 20
4887.5519269889
 30
0.0
 40
13.99999999999961
100
AcDbArc
 50
90.0
 51
224.4153085972
  0
ARC
  5
FF
330
1F
100
AcDbEntity
  8
0
  6
Continuous
 62
     8
370
    25
100
AcDbCircle
 10
6274.018755336
 20
4741.9472205477
 30
0.0
 40
10.00027418252845
100
AcDbArc
 50
180.4242799965
 51
359.5757200035
  0
ARC
  5
100
330
1F
100
AcDbEntity
  8
0
  6
Continuous
 62
     8
370
    25
100
AcDbCircle
 10
6274.018755336
 20
4739.7865998596
 30
0.0
 40
10.00027418252754
100
AcDbArc
 50
180.4242799965
 51
359.5757200035
  0
ARC
  5
101
330
1F
100
AcDbEntity
  8
0
  6
Continuous
 62
     8
370
    25
100
AcDbCircle
 10
6274.0187553361
 20
4888.5519269888
 30
0.0
 40
22.24373868681029
100
AcDbArc
 50
180.0
 51
243.2842401774
  0
ARC
  5
102
330
1F
100
AcDbEntity
  8
0
  6
Continuous
 62
     8
370
    25
100
AcDbCircle
 10
6274.0187553361
 20
4888.5519269888
 30
0.0
 40
22.24373868681057
100
AcDbArc
 50
296.7157598221
 51
180.0
  0
ENDSEC
  0
SECTION
  2
OBJECTS
  0
DICTIONARY
  5
C
330
0
100
AcDbDictionary
281
     1
  3
ACAD_GROUP
350
D
  3
ACAD_LAYOUT
350
1A
  3
ACAD_MLINESTYLE
350
17
  3
ACAD_PLOTSETTINGS
350
19
  3
ACAD_PLOTSTYLENAME
350
E
  3
ACAD_SCALELIST
350
47
  3
DWGPROPS
350
103
  0
DICTIONARY
  5
D
102
{ACAD_REACTORS
330
C
102
}
330
C
100
AcDbDictionary
281
     1
  0
DICTIONARY
  5
1A
102
{ACAD_REACTORS
330
C
102
}
330
C
100
AcDbDictionary
281
     1
  3
Layout1
350
1E
  3
Layout2
350
26
  3
Model
350
22
  0
DICTIONARY
  5
17
102
{ACAD_REACTORS
330
C
102
}
330
C
100
AcDbDictionary
281
     1
  3
Standard
350
18
  0
DICTIONARY
  5
19
102
{ACAD_REACTORS
330
C
102
}
330
C
100
AcDbDictionary
281
     1
  0
ACDBDICTIONARYWDFLT
  5
E
102
{ACAD_REACTORS
330
C
102
}
330
C
100
AcDbDictionary
281
     1
  3
Normal
350
F
100
AcDbDictionaryWithDefault
340
F
  0
DICTIONARY
  5
47
102
{ACAD_REACTORS
330
C
102
}
330
C
100
AcDbDictionary
281
     1
  3
A0
350
48
  3
A1
350
49
  3
A2
350
4A
  3
A3
350
4B
  3
A4
350
4C
  3
A5
350
4D
  3
A6
350
4E
  3
A7
350
4F
  3
A8
350
50
  3
A9
350
51
  3
B0
350
52
  3
B1
350
53
  3
B2
350
54
  3
B3
350
55
  3
B4
350
56
  3
B5
350
57
  3
B6
350
58
  3
B7
350
59
  3
B8
350
5A
  3
B9
350
5B
  3
C0
350
5C
  3
C1
350
5D
  3
C2
350
5E
  3
C3
350
5F
  3
C4
350
60
  3
C5
350
61
  3
C6
350
62
  3
C7
350
63
  3
C8
350
64
  3
C9
350
65
  3
D0
350
66
  3
D1
350
67
  3
D2
350
68
  0
XRECORD
  5
103
102
{ACAD_REACTORS
330
C
102
}
330
C
100
AcDbXrecord
280
     1
  1
DWGPROPS COOKIE
  2

  3

  4

  6

  7

  8
radek.stransky
  9

300
=
301
=
302
=
303
=
304
=
305
=
306
=
307
=
308
=
309
=
 40
0.0
 41
2459593.538307257
 42
2459593.538307674
  1

 90
        0
  0
LAYOUT
  5
1E
102
{ACAD_REACTORS
330
1A
102
}
330
1A
100
AcDbPlotSettings
  1

  2
none_device
  4

  6

 40
0.0
 41
0.0
 42
0.0
 43
0.0
 44
0.0
 45
0.0
 46
0.0
 47
0.0
 48
0.0
 49
0.0
140
0.0
141
0.0
142
1.0
143
1.0
 70
   688
 72
     1
 73
     0
 74
     5
  7

 75
    16
147
1.0
148
0.0
149
0.0
100
AcDbLayout
  1
Layout1
 70
     1
 71
     1
 10
0.0
 20
0.0
 11
420.0
 21
297.0
 12
0.0
 22
0.0
 32
0.0
 14
1.0000000000E+20
 24
1.0000000000E+20
 34
1.0000000000E+20
 15
-1.0000000000E+20
 25
-1.0000000000E+20
 35
-1.0000000000E+20
146
0.0
 13
0.0
 23
0.0
 33
0.0
 16
1.0
 26
0.0
 36
0.0
 17
0.0
 27
1.0
 37
0.0
 76
     0
330
1B
  0
LAYOUT
  5
26
102
{ACAD_REACTORS
330
1A
102
}
330
1A
100
AcDbPlotSettings
  1

  2
none_device
  4

  6

 40
0.0
 41
0.0
 42
0.0
 43
0.0
 44
0.0
 45
0.0
 46
0.0
 47
0.0
 48
0.0
 49
0.0
140
0.0
141
0.0
142
1.0
143
1.0
 70
   688
 72
     1
 73
     0
 74
     5
  7

 75
    16
147
1.0
148
0.0
149
0.0
100
AcDbLayout
  1
Layout2
 70
     1
 71
     2
 10
0.0
 20
0.0
 11
0.0
 21
0.0
 12
0.0
 22
0.0
 32
0.0
 14
0.0
 24
0.0
 34
0.0
 15
0.0
 25
0.0
 35
0.0
146
0.0
 13
0.0
 23
0.0
 33
0.0
 16
1.0
 26
0.0
 36
0.0
 17
0.0
 27
1.0
 37
0.0
 76
     0
330
23
  0
LAYOUT
  5
22
102
{ACAD_REACTORS
330
1A
102
}
330
1A
100
AcDbPlotSettings
  1

  2
none_device
  4
Letter_(8.50_x_11.00_Inches)
  6

 40
6.35
 41
6.35
 42
6.35000508
 43
6.35000508
 44
215.9
 45
279.4
 46
0.0
 47
0.0
 48
0.0
 49
0.0
140
0.0
141
0.0
142
1.0
143
1.0
 70
  1712
 72
     1
 73
     0
 74
     0
  7

 75
     0
147
1.0
148
0.0
149
0.0
100
AcDbLayout
  1
Model
 70
     1
 71
     0
 10
0.0
 20
0.0
 11
20000.0
 21
10000.0
 12
0.0
 22
0.0
 32
0.0
 14
0.0
 24
0.0
 34
0.0
 15
20000.0
 25
10000.0
 35
0.0
146
0.0
 13
0.0
 23
0.0
 33
0.0
 16
1.0
 26
0.0
 36
0.0
 17
0.0
 27
1.0
 37
0.0
 76
     0
330
1F
331
29
  0
MLINESTYLE
  5
18
102
{ACAD_REACTORS
330
17
102
}
330
17
100
AcDbMlineStyle
  2
Standard
 70
     0
  3

 62
   256
 51
90.0
 52
90.0
 71
     2
 49
0.5
 62
   256
  6
BYLAYER
 49
-0.5
 62
   256
  6
BYLAYER
  0
ACDBPLACEHOLDER
  5
F
102
{ACAD_REACTORS
330
E
102
}
330
E
  0
SCALE
  5
48
102
{ACAD_REACTORS
330
47
102
}
330
47
100
AcDbScale
 70
     0
300
1:1
140
1.0
141
1.0
290
     1
  0
SCALE
  5
49
102
{ACAD_REACTORS
330
47
102
}
330
47
100
AcDbScale
 70
     0
300
1:2
140
1.0
141
2.0
290
     0
  0
SCALE
  5
4A
102
{ACAD_REACTORS
330
47
102
}
330
47
100
AcDbScale
 70
     0
300
1:4
140
1.0
141
4.0
290
     0
  0
SCALE
  5
4B
102
{ACAD_REACTORS
330
47
102
}
330
47
100
AcDbScale
 70
     0
300
1:5
140
1.0
141
5.0
290
     0
  0
SCALE
  5
4C
102
{ACAD_REACTORS
330
47
102
}
330
47
100
AcDbScale
 70
     0
300
1:8
140
1.0
141
8.0
290
     0
  0
SCALE
  5
4D
102
{ACAD_REACTORS
330
47
102
}
330
47
100
AcDbScale
 70
     0
300
1:10
140
1.0
141
10.0
290
     0
  0
SCALE
  5
4E
102
{ACAD_REACTORS
330
47
102
}
330
47
100
AcDbScale
 70
     0
300
1:16
140
1.0
141
16.0
290
     0
  0
SCALE
  5
4F
102
{ACAD_REACTORS
330
47
102
}
330
47
100
AcDbScale
 70
     0
300
1:20
140
1.0
141
20.0
290
     0
  0
SCALE
  5
50
102
{ACAD_REACTORS
330
47
102
}
330
47
100
AcDbScale
 70
     0
300
1:30
140
1.0
141
30.0
290
     0
  0
SCALE
  5
51
102
{ACAD_REACTORS
330
47
102
}
330
47
100
AcDbScale
 70
     0
300
1:40
140
1.0
141
40.0
290
     0
  0
SCALE
  5
52
102
{ACAD_REACTORS
330
47
102
}
330
47
100
AcDbScale
 70
     0
300
1:50
140
1.0
141
50.0
290
     0
  0
SCALE
  5
53
102
{ACAD_REACTORS
330
47
102
}
330
47
100
AcDbScale
 70
     0
300
1:100
140
1.0
141
100.0
290
     0
  0
SCALE
  5
54
102
{ACAD_REACTORS
330
47
102
}
330
47
100
AcDbScale
 70
     0
300
2:1
140
2.0
141
1.0
290
     0
  0
SCALE
  5
55
102
{ACAD_REACTORS
330
47
102
}
330
47
100
AcDbScale
 70
     0
300
4:1
140
4.0
141
1.0
290
     0
  0
SCALE
  5
56
102
{ACAD_REACTORS
330
47
102
}
330
47
100
AcDbScale
 70
     0
300
8:1
140
8.0
141
1.0
290
     0
  0
SCALE
  5
57
102
{ACAD_REACTORS
330
47
102
}
330
47
100
AcDbScale
 70
     0
300
10:1
140
10.0
141
1.0
290
     0
  0
SCALE
  5
58
102
{ACAD_REACTORS
330
47
102
}
330
47
100
AcDbScale
 70
     0
300
100:1
140
100.0
141
1.0
290
     0
  0
SCALE
  5
59
102
{ACAD_REACTORS
330
47
102
}
330
47
100
AcDbScale
 70
     0
300
1/128" = 1'-0"
140
0.0078125
141
12.0
290
     0
  0
SCALE
  5
5A
102
{ACAD_REACTORS
330
47
102
}
330
47
100
AcDbScale
 70
     0
300
1/64" = 1'-0"
140
0.015625
141
12.0
290
     0
  0
SCALE
  5
5B
102
{ACAD_REACTORS
330
47
102
}
330
47
100
AcDbScale
 70
     0
300
1/32" = 1'-0"
140
0.03125
141
12.0
290
     0
  0
SCALE
  5
5C
102
{ACAD_REACTORS
330
47
102
}
330
47
100
AcDbScale
 70
     0
300
1/16" = 1'-0"
140
0.0625
141
12.0
290
     0
  0
SCALE
  5
5D
102
{ACAD_REACTORS
330
47
102
}
330
47
100
AcDbScale
 70
     0
300
3/32" = 1'-0"
140
0.09375
141
12.0
290
     0
  0
SCALE
  5
5E
102
{ACAD_REACTORS
330
47
102
}
330
47
100
AcDbScale
 70
     0
300
1/8" = 1'-0"
140
0.125
141
12.0
290
     0
  0
SCALE
  5
5F
102
{ACAD_REACTORS
330
47
102
}
330
47
100
AcDbScale
 70
     0
300
3/16" = 1'-0"
140
0.1875
141
12.0
290
     0
  0
SCALE
  5
60
102
{ACAD_REACTORS
330
47
102
}
330
47
100
AcDbScale
 70
     0
300
1/4" = 1'-0"
140
0.25
141
12.0
290
     0
  0
SCALE
  5
61
102
{ACAD_REACTORS
330
47
102
}
330
47
100
AcDbScale
 70
     0
300
3/8" = 1'-0"
140
0.375
141
12.0
290
     0
  0
SCALE
  5
62
102
{ACAD_REACTORS
330
47
102
}
330
47
100
AcDbScale
 70
     0
300
1/2" = 1'-0"
140
0.5
141
12.0
290
     0
  0
SCALE
  5
63
102
{ACAD_REACTORS
330
47
102
}
330
47
100
AcDbScale
 70
     0
300
3/4" = 1'-0"
140
0.75
141
12.0
290
     0
  0
SCALE
  5
64
102
{ACAD_REACTORS
330
47
102
}
330
47
100
AcDbScale
 70
     0
300
1" = 1'-0"
140
1.0
141
12.0
290
     0
  0
SCALE
  5
65
102
{ACAD_REACTORS
330
47
102
}
330
47
100
AcDbScale
 70
     0
300
1-1/2" = 1'-0"
140
1.5
141
12.0
290
     0
  0
SCALE
  5
66
102
{ACAD_REACTORS
330
47
102
}
330
47
100
AcDbScale
 70
     0
300
3" = 1'-0"
140
3.0
141
12.0
290
     0
  0
SCALE
  5
67
102
{ACAD_REACTORS
330
47
102
}
330
47
100
AcDbScale
 70
     0
300
6" = 1'-0"
140
6.0
141
12.0
290
     0
  0
SCALE
  5
68
102
{ACAD_REACTORS
330
47
102
}
330
47
100
AcDbScale
 70
     0
300
1'-0" = 1'-0"
140
12.0
141
12.0
290
     0
  0
ENDSEC
  0
EOF
