  0
SECTION
  2
HEADER
  9
$ACADVER
  1
AC1015
  9
$ACADMAINTVER
 70
     6
  9
$DWGCODEPAGE
  3
ANSI_1250
  9
$INSBASE
 10
0.0
 20
0.0
 30
0.0
  9
$EXTMIN
 10
6176.518751879
 20
4796.6886806014
 30
0.0
  9
$EXTMAX
 10
6687.8317409947
 20
5353.7691778444
 30
0.0
  9
$LIMMIN
 10
0.0
 20
0.0
  9
$LIMMAX
 10
420.0
 20
297.0
  9
$ORTHOMODE
 70
     0
  9
$REGENMODE
 70
     1
  9
$FILLMODE
 70
     1
  9
$QTEXTMODE
 70
     0
  9
$MIRRTEXT
 70
     1
  9
$LTSCALE
 40
1.0
  9
$ATTMODE
 70
     1
  9
$TEXTSIZE
 40
3.5
  9
$TRACEWID
 40
1.0
  9
$TEXTSTYLE
  7
Standard
  9
$CLAYER
  8
0
  9
$CELTYPE
  6
ByLayer
  9
$CECOLOR
 62
   256
  9
$CELTSCALE
 40
1.0
  9
$DISPSILH
 70
     0
  9
$DIMSCALE
 40
1.0
  9
$DIMASZ
 40
3.302
  9
$DIMEXO
 40
0.0
  9
$DIMDLI
 40
3.75
  9
$DIMRND
 40
0.0
  9
$DIMDLE
 40
0.0
  9
$DIMEXE
 40
1.0
  9
$DIMTP
 40
0.0
  9
$DIMTM
 40
0.0
  9
$DIMTXT
 40
3.5
  9
$DIMCEN
 40
2.5
  9
$DIMTSZ
 40
0.0
  9
$DIMTOL
 70
     0
  9
$DIMLIM
 70
     0
  9
$DIMTIH
 70
     1
  9
$DIMTOH
 70
     1
  9
$DIMSE1
 70
     0
  9
$DIMSE2
 70
     0
  9
$DIMTAD
 70
     1
  9
$DIMZIN
 70
     0
  9
$DIMBLK
  1

  9
$DIMASO
 70
     1
  9
$DIMSHO
 70
     1
  9
$DIMPOST
  1

  9
$DIMAPOST
  1

  9
$DIMALT
 70
     0
  9
$DIMALTD
 70
     3
  9
$DIMALTF
 40
0.0393700787
  9
$DIMLFAC
 40
1.0
  9
$DIMTOFL
 70
     1
  9
$DIMTVP
 40
0.0
  9
$DIMTIX
 70
     0
  9
$DIMSOXD
 70
     0
  9
$DIMSAH
 70
     0
  9
$DIMBLK1
  1

  9
$DIMBLK2
  1

  9
$DIMSTYLE
  2
ISO-25
  9
$DIMCLRD
 70
     0
  9
$DIMCLRE
 70
     0
  9
$DIMCLRT
 70
     0
  9
$DIMTFAC
 40
1.0
  9
$DIMGAP
 40
1.524
  9
$DIMJUST
 70
     0
  9
$DIMSD1
 70
     0
  9
$DIMSD2
 70
     0
  9
$DIMTOLJ
 70
     0
  9
$DIMTZIN
 70
     0
  9
$DIMALTZ
 70
     0
  9
$DIMALTTZ
 70
     0
  9
$DIMUPT
 70
     0
  9
$DIMDEC
 70
     2
  9
$DIMTDEC
 70
     2
  9
$DIMALTU
 70
     2
  9
$DIMALTTD
 70
     3
  9
$DIMTXSTY
  7
Standard
  9
$DIMAUNIT
 70
     0
  9
$DIMADEC
 70
     2
  9
$DIMALTRND
 40
0.0
  9
$DIMAZIN
 70
     0
  9
$DIMDSEP
 70
    44
  9
$DIMATFIT
 70
     3
  9
$DIMFRAC
 70
     0
  9
$DIMLDRBLK
  1

  9
$DIMLUNIT
 70
     2
  9
$DIMLWD
 70
    -2
  9
$DIMLWE
 70
    -2
  9
$DIMTMOVE
 70
     0
  9
$LUNITS
 70
     2
  9
$LUPREC
 70
     2
  9
$SKETCHINC
 40
1.0
  9
$FILLETRAD
 40
10.0
  9
$AUNITS
 70
     0
  9
$AUPREC
 70
     2
  9
$MENU
  1
.
  9
$ELEVATION
 40
0.0
  9
$PELEVATION
 40
0.0
  9
$THICKNESS
 40
0.0
  9
$LIMCHECK
 70
     0
  9
$CHAMFERA
 40
0.0
  9
$CHAMFERB
 40
0.0
  9
$CHAMFERC
 40
0.0
  9
$CHAMFERD
 40
0.0
  9
$SKPOLY
 70
     0
  9
$TDCREATE
 40
2459095.542442593
  9
$TDUCREATE
 40
2459095.459109259
  9
$TDUPDATE
 40
2459095.542493102
  9
$TDUUPDATE
 40
2459095.459159769
  9
$TDINDWG
 40
0.0000000116
  9
$TDUSRTIMER
 40
0.0000000116
  9
$USRTIMER
 70
     1
  9
$ANGBASE
 50
0.0
  9
$ANGDIR
 70
     0
  9
$PDMODE
 70
     0
  9
$PDSIZE
 40
-1.0
  9
$PLINEWID
 40
0.0
  9
$SPLFRAME
 70
     0
  9
$SPLINETYPE
 70
     6
  9
$SPLINESEGS
 70
     8
  9
$HANDSEED
  5
4EE
  9
$SURFTAB1
 70
     6
  9
$SURFTAB2
 70
     6
  9
$SURFTYPE
 70
     6
  9
$SURFU
 70
     6
  9
$SURFV
 70
     6
  9
$UCSBASE
  2

  9
$UCSNAME
  2

  9
$UCSORG
 10
0.0
 20
0.0
 30
0.0
  9
$UCSXDIR
 10
1.0
 20
0.0
 30
0.0
  9
$UCSYDIR
 10
0.0
 20
1.0
 30
0.0
  9
$UCSORTHOREF
  2

  9
$UCSORTHOVIEW
 70
     0
  9
$UCSORGTOP
 10
0.0
 20
0.0
 30
0.0
  9
$UCSORGBOTTOM
 10
0.0
 20
0.0
 30
0.0
  9
$UCSORGLEFT
 10
0.0
 20
0.0
 30
0.0
  9
$UCSORGRIGHT
 10
0.0
 20
0.0
 30
0.0
  9
$UCSORGFRONT
 10
0.0
 20
0.0
 30
0.0
  9
$UCSORGBACK
 10
0.0
 20
0.0
 30
0.0
  9
$PUCSBASE
  2

  9
$PUCSNAME
  2

  9
$PUCSORG
 10
0.0
 20
0.0
 30
0.0
  9
$PUCSXDIR
 10
1.0
 20
0.0
 30
0.0
  9
$PUCSYDIR
 10
0.0
 20
1.0
 30
0.0
  9
$PUCSORTHOREF
  2

  9
$PUCSORTHOVIEW
 70
     0
  9
$PUCSORGTOP
 10
0.0
 20
0.0
 30
0.0
  9
$PUCSORGBOTTOM
 10
0.0
 20
0.0
 30
0.0
  9
$PUCSORGLEFT
 10
0.0
 20
0.0
 30
0.0
  9
$PUCSORGRIGHT
 10
0.0
 20
0.0
 30
0.0
  9
$PUCSORGFRONT
 10
0.0
 20
0.0
 30
0.0
  9
$PUCSORGBACK
 10
0.0
 20
0.0
 30
0.0
  9
$USERI1
 70
     0
  9
$USERI2
 70
     0
  9
$USERI3
 70
     0
  9
$USERI4
 70
     0
  9
$USERI5
 70
     0
  9
$USERR1
 40
0.0
  9
$USERR2
 40
0.0
  9
$USERR3
 40
0.0
  9
$USERR4
 40
0.0
  9
$USERR5
 40
0.0
  9
$WORLDVIEW
 70
     1
  9
$SHADEDGE
 70
     3
  9
$SHADEDIF
 70
    70
  9
$TILEMODE
 70
     1
  9
$MAXACTVP
 70
    64
  9
$PINSBASE
 10
0.0
 20
0.0
 30
0.0
  9
$PLIMCHECK
 70
     0
  9
$PEXTMIN
 10
1.0000000000E+20
 20
1.0000000000E+20
 30
1.0000000000E+20
  9
$PEXTMAX
 10
-1.0000000000E+20
 20
-1.0000000000E+20
 30
-1.0000000000E+20
  9
$PLIMMIN
 10
0.0
 20
0.0
  9
$PLIMMAX
 10
420.0
 20
297.0
  9
$UNITMODE
 70
     0
  9
$VISRETAIN
 70
     1
  9
$PLINEGEN
 70
     0
  9
$PSLTSCALE
 70
     1
  9
$TREEDEPTH
 70
  3020
  9
$CMLSTYLE
  2
Standard
  9
$CMLJUST
 70
     0
  9
$CMLSCALE
 40
20.0
  9
$PROXYGRAPHICS
 70
     1
  9
$MEASUREMENT
 70
     1
  9
$CELWEIGHT
370
    -1
  9
$ENDCAPS
280
     0
  9
$JOINSTYLE
280
     0
  9
$LWDISPLAY
290
     1
  9
$INSUNITS
 70
     4
  9
$HYPERLINKBASE
  1

  9
$STYLESHEET
  1

  9
$XEDIT
290
     1
  9
$CEPSNTYPE
380
     0
  9
$PSTYLEMODE
290
     1
  9
$FINGERPRINTGUID
  2
{2b902240-bd37-4568-a3a2-b250d0b21129}
  9
$VERSIONGUID
  2
{FAEB1C32-E019-11D5-929B-00C0DF256EC4}
  9
$EXTNAMES
290
     1
  9
$PSVPSCALE
 40
0.0
  9
$OLESTARTUP
290
     0
  0
ENDSEC
  0
SECTION
  2
CLASSES
  0
CLASS
  1
ACDBDICTIONARYWDFLT
  2
AcDbDictionaryWithDefault
  3
ObjectDBX Classes
 90
        0
280
     0
281
     0
  0
CLASS
  1
VISUALSTYLE
  2
AcDbVisualStyle
  3
ObjectDBX Classes
 90
     4095
280
     0
281
     0
  0
CLASS
  1
MATERIAL
  2
AcDbMaterial
  3
ObjectDBX Classes
 90
     1153
280
     0
281
     0
  0
CLASS
  1
SCALE
  2
AcDbScale
  3
ObjectDBX Classes
 90
     1153
280
     0
281
     0
  0
CLASS
  1
TABLESTYLE
  2
AcDbTableStyle
  3
ObjectDBX Classes
 90
     4095
280
     0
281
     0
  0
CLASS
  1
MLEADERSTYLE
  2
AcDbMLeaderStyle
  3
ACDB_MLEADERSTYLE_CLASS
 90
     4095
280
     0
281
     0
  0
CLASS
  1
SUN
  2
AcDbSun
  3
SCENEOE
 90
     1153
280
     0
281
     0
  0
CLASS
  1
ACDBPLACEHOLDER
  2
AcDbPlaceHolder
  3
ObjectDBX Classes
 90
        0
280
     0
281
     0
  0
CLASS
  1
LAYOUT
  2
AcDbLayout
  3
ObjectDBX Classes
 90
        0
280
     0
281
     0
  0
ENDSEC
  0
SECTION
  2
TABLES
  0
TABLE
  2
VPORT
  5
8
330
0
100
AcDbSymbolTable
 70
     1
  0
VPORT
  5
29
330
8
100
AcDbSymbolTableRecord
100
AcDbViewportTableRecord
  2
*Active
 70
     0
 10
0.0
 20
0.0
 11
1.0
 21
1.0
 12
6432.1752464369
 22
5075.2289292229
 13
0.0
 23
0.0
 14
10.0
 24
10.0
 15
10.0
 25
10.0
 16
0.0
 26
0.0
 36
1.0
 17
0.0
 27
0.0
 37
0.0
 40
568.2221071879
 41
0.917843995
 42
50.0
 43
0.0
 44
0.0
 50
0.0
 51
0.0
 71
     0
 72
   100
 73
     1
 74
     3
 75
     0
 76
     0
 77
     0
 78
     0
281
     0
 65
     1
110
0.0
120
0.0
130
0.0
111
1.0
121
0.0
131
0.0
112
0.0
122
1.0
132
0.0
 79
     0
146
0.0
  0
ENDTAB
  0
TABLE
  2
LTYPE
  5
5
330
0
100
AcDbSymbolTable
 70
     6
  0
LTYPE
  5
14
330
5
100
AcDbSymbolTableRecord
100
AcDbLinetypeTableRecord
  2
ByBlock
 70
     0
  3

 72
    65
 73
     0
 40
0.0
  0
LTYPE
  5
15
330
5
100
AcDbSymbolTableRecord
100
AcDbLinetypeTableRecord
  2
ByLayer
 70
     0
  3

 72
    65
 73
     0
 40
0.0
  0
LTYPE
  5
16
330
5
100
AcDbSymbolTableRecord
100
AcDbLinetypeTableRecord
  2
Continuous
 70
     0
  3
Solid line
 72
    65
 73
     0
 40
0.0
  0
LTYPE
  5
6E
330
5
100
AcDbSymbolTableRecord
100
AcDbLinetypeTableRecord
  2
HIDDEN
 70
     0
  3
Hidden __ __ __ __ __ __ __ __ __ __ __ __ __ __
 72
    65
 73
     2
 40
1.905
 49
1.27
 74
     0
 49
-0.635
 74
     0
  0
LTYPE
  5
6F
330
5
100
AcDbSymbolTableRecord
100
AcDbLinetypeTableRecord
  2
PHANTOM
 70
     0
  3
Phantom ______  __  __  ______  __  __  ______
 72
    65
 73
     6
 40
12.7
 49
6.35
 74
     0
 49
-1.27
 74
     0
 49
1.27
 74
     0
 49
-1.27
 74
     0
 49
1.27
 74
     0
 49
-1.27
 74
     0
  0
LTYPE
  5
70
330
5
100
AcDbSymbolTableRecord
100
AcDbLinetypeTableRecord
  2
CENTER
 70
     0
  3
Center ____ _ ____ _ ____ _ ____ _ ____ _ ____
 72
    65
 73
     4
 40
10.16
 49
6.35
 74
     0
 49
-1.27
 74
     0
 49
1.27
 74
     0
 49
-1.27
 74
     0
  0
LTYPE
  5
71
330
5
100
AcDbSymbolTableRecord
100
AcDbLinetypeTableRecord
  2
CENTERX2
 70
     0
  3
Center (2x) ________  __  ________  __  _____
 72
    65
 73
     4
 40
20.32
 49
12.7
 74
     0
 49
-2.54
 74
     0
 49
2.54
 74
     0
 49
-2.54
 74
     0
  0
LTYPE
  5
72
330
5
100
AcDbSymbolTableRecord
100
AcDbLinetypeTableRecord
  2
DOT2
 70
     0
  3
Dot (.5x) ........................................
 72
    65
 73
     2
 40
0.635
 49
0.0
 74
     0
 49
-0.635
 74
     0
  0
ENDTAB
  0
TABLE
  2
LAYER
  5
2
330
0
100
AcDbSymbolTable
 70
     1
  0
LAYER
  5
10
330
2
100
AcDbSymbolTableRecord
100
AcDbLayerTableRecord
  2
0
 70
     0
 62
     7
  6
Continuous
370
    -3
390
F
  0
ENDTAB
  0
TABLE
  2
STYLE
  5
3
330
0
100
AcDbSymbolTable
 70
     1
  0
STYLE
  5
11
330
3
100
AcDbSymbolTableRecord
100
AcDbTextStyleTableRecord
  2
Standard
 70
     0
 40
0.0
 41
1.0
 50
0.0
 71
     0
 42
3.5
  3
txt
  4

  0
ENDTAB
  0
TABLE
  2
VIEW
  5
6
330
0
100
AcDbSymbolTable
 70
     0
  0
ENDTAB
  0
TABLE
  2
UCS
  5
7
330
0
100
AcDbSymbolTable
 70
     0
  0
ENDTAB
  0
TABLE
  2
APPID
  5
9
330
0
100
AcDbSymbolTable
 70
     1
  0
APPID
  5
12
330
9
100
AcDbSymbolTableRecord
100
AcDbRegAppTableRecord
  2
ACAD
 70
     0
  0
ENDTAB
  0
TABLE
  2
DIMSTYLE
  5
A
330
0
100
AcDbSymbolTable
 70
     1
100
AcDbDimStyleTable
  0
DIMSTYLE
105
27
330
A
100
AcDbSymbolTableRecord
100
AcDbDimStyleTableRecord
  2
ISO-25
 70
     0
 41
2.5
 42
0.625
 43
3.75
 44
1.25
 73
     0
 74
     0
 77
     1
 78
     8
140
2.5
141
2.5
143
0.0393700787
147
0.625
171
     3
172
     1
178
     0
271
     2
272
     2
274
     3
278
    44
283
     0
284
     8
340
11
  0
ENDTAB
  0
TABLE
  2
BLOCK_RECORD
  5
1
330
0
100
AcDbSymbolTable
 70
     1
  0
BLOCK_RECORD
  5
1F
330
1
100
AcDbSymbolTableRecord
100
AcDbBlockTableRecord
  2
*Model_Space
340
22
  0
BLOCK_RECORD
  5
1B
330
1
100
AcDbSymbolTableRecord
100
AcDbBlockTableRecord
  2
*Paper_Space
340
1E
  0
BLOCK_RECORD
  5
23
330
1
100
AcDbSymbolTableRecord
100
AcDbBlockTableRecord
  2
*Paper_Space0
340
26
  0
ENDTAB
  0
ENDSEC
  0
SECTION
  2
BLOCKS
  0
BLOCK
  5
20
330
1F
100
AcDbEntity
  8
0
100
AcDbBlockBegin
  2
*Model_Space
 70
     0
 10
0.0
 20
0.0
 30
0.0
  3
*Model_Space
  1

  0
ENDBLK
  5
21
330
1F
100
AcDbEntity
  8
0
100
AcDbBlockEnd
  0
BLOCK
  5
1C
330
1B
100
AcDbEntity
 67
     1
  8
0
100
AcDbBlockBegin
  2
*Paper_Space
 70
     0
 10
0.0
 20
0.0
 30
0.0
  3
*Paper_Space
  1

  0
ENDBLK
  5
1D
330
1B
100
AcDbEntity
 67
     1
  8
0
100
AcDbBlockEnd
  0
BLOCK
  5
24
330
23
100
AcDbEntity
  8
0
100
AcDbBlockBegin
  2
*Paper_Space0
 70
     0
 10
0.0
 20
0.0
 30
0.0
  3
*Paper_Space0
  1

  0
ENDBLK
  5
25
330
23
100
AcDbEntity
  8
0
100
AcDbBlockEnd
  0
ENDSEC
  0
SECTION
  2
ENTITIES
  0
ARC
  5
73
330
1F
100
AcDbEntity
  8
0
  6
Continuous
 62
     7
100
AcDbCircle
 10
6273.2637740095
 20
5188.3216009531
 30
0.0
 40
7.311104705565776
100
AcDbArc
 50
273.1513290011
 51
304.7725009061
  0
ARC
  5
74
330
1F
100
AcDbEntity
  8
0
  6
Continuous
 62
     7
100
AcDbCircle
 10
6274.2638228401
 20
5188.3081484621
 30
0.0
 40
7.311104705566735
100
AcDbArc
 50
233.6861075965
 51
265.3072973186
  0
ARC
  5
75
330
1F
100
AcDbEntity
  8
0
  6
Continuous
 62
     7
100
AcDbCircle
 10
6289.7187534616
 20
5277.8191772454
 30
0.0
 40
1.000000000000234
100
AcDbArc
 50
270.0000973282
 51
0.00011611
  0
ARC
  5
76
330
1F
100
AcDbEntity
  8
0
  6
Continuous
 62
     7
100
AcDbCircle
 10
6258.3187543198
 20
5277.8191772454
 30
0.0
 40
0.9999999999993249
100
AcDbArc
 50
179.99988389
 51
270.0001161101
  0
ARC
  5
77
330
1F
100
AcDbEntity
  8
0
  6
Continuous
 62
     7
100
AcDbCircle
 10
6258.3187543198
 20
5290.7191761487
 30
0.0
 40
0.9999999999993249
100
AcDbArc
 50
89.99988389
 51
179.9999026718
  0
ARC
  5
78
330
1F
100
AcDbEntity
  8
0
  6
Continuous
 62
     7
100
AcDbCircle
 10
6289.7187534616
 20
5290.7191761487
 30
0.0
 40
1.000000000001443
100
AcDbArc
 50
0.0000973283
 51
89.9999026717
  0
ARC
  5
79
330
1F
100
AcDbEntity
  8
0
  6
Continuous
 62
     7
100
AcDbCircle
 10
6289.7187534616
 20
5290.7191761487
 30
0.0
 40
1.099999327504117
100
AcDbArc
 50
0.0000884801
 51
65.3800501739
  0
ARC
  5
7A
330
1F
100
AcDbEntity
  8
0
  6
Continuous
 62
     7
100
AcDbCircle
 10
6258.3187543198
 20
5290.7191761487
 30
0.0
 40
1.100001418351372
100
AcDbArc
 50
114.6199893412
 51
155.3799797928
  0
ARC
  5
7B
330
1F
100
AcDbEntity
  8
0
  6
Continuous
 62
     7
100
AcDbCircle
 10
6289.7187534616
 20
5277.8191772454
 30
0.0
 40
1.099999327502749
100
AcDbArc
 50
270.0000884803
 51
0.0001055544
  0
ARC
  5
7C
330
1F
100
AcDbEntity
  8
0
  6
Continuous
 62
     7
100
AcDbCircle
 10
6258.3187543198
 20
5277.8191772454
 30
0.0
 40
1.099999327502128
100
AcDbArc
 50
204.6199496482
 51
270.0001055548
  0
ARC
  5
7D
330
1F
100
AcDbEntity
  8
0
  6
Continuous
 62
     7
100
AcDbCircle
 10
6258.3187543198
 20
5290.7191761487
 30
0.0
 40
1.150000676549443
100
AcDbArc
 50
89.999899035
 51
179.999915367
  0
ARC
  5
7E
330
1F
100
AcDbEntity
  8
0
  6
Continuous
 62
     7
100
AcDbCircle
 10
6258.3187543198
 20
5277.8191772454
 30
0.0
 40
1.150000676549064
100
AcDbArc
 50
179.999899035
 51
270.0001009654
  0
ARC
  5
7F
330
1F
100
AcDbEntity
  8
0
  6
Continuous
 62
     7
100
AcDbCircle
 10
6289.7187534616
 20
5277.8191772454
 30
0.0
 40
1.150000676549974
100
AcDbArc
 50
270.0000846333
 51
0.0001009653
  0
ARC
  5
80
330
1F
100
AcDbEntity
  8
0
  6
Continuous
 62
     7
100
AcDbCircle
 10
6289.7187534616
 20
5290.7191761487
 30
0.0
 40
1.150000676551262
100
AcDbArc
 50
0.0000846334
 51
89.999915367
  0
ARC
  5
81
330
1F
100
AcDbEntity
  8
0
  6
Continuous
 62
     7
100
AcDbCircle
 10
6349.0187557161
 20
5329.2691773303
 30
0.0
 40
10.00000000000001
100
AcDbArc
 50
0.0000012806
 51
90.0000027216
  0
ARC
  5
82
330
1F
100
AcDbEntity
  8
0
  6
Continuous
 62
     7
100
AcDbCircle
 10
6199.0187548593
 20
5179.2691708856
 30
0.0
 40
9.99999999999962
100
AcDbArc
 50
179.9999692642
 51
270.0000307358
  0
ARC
  5
83
330
1F
100
AcDbEntity
  8
0
  6
Continuous
 62
     7
100
AcDbCircle
 10
6349.0187557161
 20
5179.2691708856
 30
0.0
 40
9.999999999999101
100
AcDbArc
 50
269.9999972784
 51
0.0000307358
  0
ARC
  5
84
330
1F
100
AcDbEntity
  8
0
  6
Continuous
 62
     7
100
AcDbCircle
 10
6199.0187548593
 20
5329.2691773303
 30
0.0
 40
10.0
100
AcDbArc
 50
89.9999692643
 51
179.9999987194
  0
CIRCLE
  5
85
330
1F
100
AcDbEntity
  8
0
  6
Continuous
 62
     7
100
AcDbCircle
 10
6333.4386933361
 20
5195.4556135421
 30
0.0
 40
0.5814414999995279
  0
CIRCLE
  5
86
330
1F
100
AcDbEntity
  8
0
  6
Continuous
 62
     7
100
AcDbCircle
 10
6333.4386933361
 20
5195.4556135421
 30
0.0
 40
0.505037099999754
  0
CIRCLE
  5
87
330
1F
100
AcDbEntity
  8
0
  6
Continuous
 62
     7
100
AcDbCircle
 10
6274.0187553361
 20
5207.2691774421
 30
0.0
 40
26.94999999999982
  0
CIRCLE
  5
88
330
1F
100
AcDbEntity
  8
0
  6
Continuous
 62
     7
100
AcDbCircle
 10
6274.0187553361
 20
5207.2691774421
 30
0.0
 40
28.44999999999982
  0
CIRCLE
  5
89
330
1F
100
AcDbEntity
  8
0
  6
Continuous
 62
     7
100
AcDbCircle
 10
6274.0187553361
 20
5207.2691774421
 30
0.0
 40
24.54999999999927
  0
ARC
  5
8A
330
1F
100
AcDbEntity
  8
0
  6
Continuous
 62
     7
100
AcDbCircle
 10
6593.5817419663
 20
5172.369180017
 30
0.0
 40
0.8000000000004267
100
AcDbArc
 50
180.0000973311
 51
269.9999026689
  0
ARC
  5
8B
330
1F
100
AcDbEntity
  8
0
  6
Continuous
 62
     7
100
AcDbCircle
 10
6605.1817418948
 20
5172.369180017
 30
0.0
 40
0.8000000000022457
100
AcDbArc
 50
269.9998305263
 51
359.9999026689
  0
ARC
  5
8C
330
1F
100
AcDbEntity
  8
0
  6
Continuous
 62
     7
100
AcDbCircle
 10
6644.9317374423
 20
5180.3191760831
 30
0.0
 40
1.500000000001028
100
AcDbArc
 50
270.0001684799
 51
359.9998315239
  0
ARC
  5
8D
330
1F
100
AcDbEntity
  8
0
  6
Continuous
 62
     7
100
AcDbCircle
 10
6644.9317374423
 20
5234.2191781454
 30
0.0
 40
1.500000000000352
100
AcDbArc
 50
359.9998838879
 51
89.99983152
  0
ARC
  5
8E
330
1F
100
AcDbEntity
  8
0
  6
Continuous
 62
     7
100
AcDbCircle
 10
6656.751295903
 20
5206.3089502819
 30
0.0
 40
31.09527461368475
100
AcDbArc
 50
1.7695843494
 51
55.1237777905
  0
ARC
  5
8F
330
1F
100
AcDbEntity
  8
0
  6
Continuous
 62
     7
100
AcDbCircle
 10
6656.7512961175
 20
5208.2294115468
 30
0.0
 40
31.09527461368587
100
AcDbArc
 50
304.8762217277
 51
358.2304028488
  0
ARC
  5
90
330
1F
100
AcDbEntity
  8
0
  6
Continuous
 62
     7
100
AcDbCircle
 10
6631.2497797857
 20
5260.720250491
 30
0.0
 40
10.45892523300203
100
AcDbArc
 50
89.529601042
 51
91.7211297868
  0
ARC
  5
91
330
1F
100
AcDbEntity
  8
0
  6
Continuous
 62
     7
100
AcDbCircle
 10
6634.6317442253
 20
5329.2691773303
 30
0.0
 40
10.0
100
AcDbArc
 50
0.0000012806
 51
90.0000307357
  0
ARC
  5
92
330
1F
100
AcDbEntity
  8
0
  6
Continuous
 62
     7
100
AcDbCircle
 10
6634.6317442253
 20
5179.2691708856
 30
0.0
 40
9.99999999999962
100
AcDbArc
 50
269.9999692642
 51
0.0000307358
  0
ARC
  5
93
330
1F
100
AcDbEntity
  8
0
  6
Continuous
 62
     7
100
AcDbCircle
 10
6579.6857095282
 20
5202.5241280738
 30
0.0
 40
0.8500000000001349
100
AcDbArc
 50
14.9215148379
 51
85.583973324
  0
ARC
  5
94
330
1F
100
AcDbEntity
  8
0
  6
Continuous
 62
     7
100
AcDbCircle
 10
6586.6590948535
 20
5201.8912794832
 30
0.0
 40
0.8500000000003075
100
AcDbArc
 50
84.0450240671
 51
154.7074825535
  0
ARC
  5
95
330
1F
100
AcDbEntity
  8
0
  6
Continuous
 62
     7
100
AcDbCircle
 10
6667.833416372
 20
5082.2022979123
 30
0.0
 40
100.233412395874
100
AcDbArc
 50
87.8572205517
 51
92.1446011704
  0
ARC
  5
96
330
1F
100
AcDbEntity
  8
0
  6
Continuous
 62
     7
100
AcDbCircle
 10
6667.8317383424
 20
5079.8882082325
 30
0.0
 40
102.9015471206044
100
AcDbArc
 50
87.9115302545
 51
92.0884697455
  0
CIRCLE
  5
97
330
1F
100
AcDbEntity
  8
0
  6
Continuous
 62
     7
100
AcDbCircle
 10
6583.6317419677
 20
5207.2691765715
 30
0.0
 40
9.49999999999976
  0
CIRCLE
  5
98
330
1F
100
AcDbEntity
  8
0
  6
Continuous
 62
     7
100
AcDbCircle
 10
6583.6317419677
 20
5207.2691765715
 30
0.0
 40
5.499999999999326
  0
ARC
  5
99
330
1F
100
AcDbEntity
  8
0
  6
Continuous
 62
     7
100
AcDbCircle
 10
6583.6317419677
 20
5207.2691765715
 30
0.0
 40
13.22050092318201
100
AcDbArc
 50
3.1797702969
 51
93.1797409077
  0
CIRCLE
  5
9A
330
1F
100
AcDbEntity
  8
0
  6
Continuous
 62
     7
100
AcDbCircle
 10
6583.6317419677
 20
5207.2691765715
 30
0.0
 40
11.72049999999941
  0
CIRCLE
  5
9B
330
1F
100
AcDbEntity
  8
0
  6
Continuous
 62
     7
100
AcDbCircle
 10
6583.6317419677
 20
5207.2691765715
 30
0.0
 40
9.750000000000055
  0
ARC
  5
9C
330
1F
100
AcDbEntity
  8
0
  6
Continuous
 62
     7
100
AcDbCircle
 10
6566.6317409947
 20
5175.2691774421
 30
0.0
 40
1.0
100
AcDbArc
 50
180.0
 51
270.0
  0
ARC
  5
9D
330
1F
100
AcDbEntity
  8
0
  6
Continuous
 62
     7
100
AcDbCircle
 10
6566.6317409947
 20
5175.2691774421
 30
0.0
 40
1.999999637907436
100
AcDbArc
 50
179.9998394916
 51
269.9999930844
  0
ARC
  5
9E
330
1F
100
AcDbEntity
  8
0
  6
Continuous
 62
     7
100
AcDbCircle
 10
6566.6317409947
 20
5332.2691773471
 30
0.0
 40
1.999999637899327
100
AcDbArc
 50
90.000017289
 51
180.0
  0
ARC
  5
9F
330
1F
100
AcDbEntity
  8
0
  6
Continuous
 62
     7
100
AcDbCircle
 10
6566.6317409947
 20
5332.2691773471
 30
0.0
 40
1.000000181050382
100
AcDbArc
 50
90.0000207468
 51
180.0
  0
ARC
  5
A0
330
1F
100
AcDbEntity
  8
0
  6
Continuous
 62
     7
100
AcDbCircle
 10
6632.6317442849
 20
5175.2691774421
 30
0.0
 40
0.9999999999993248
100
AcDbArc
 50
269.9998114844
 51
0.0003210172
  0
ARC
  5
A1
330
1F
100
AcDbEntity
  8
0
  6
Continuous
 62
     7
100
AcDbCircle
 10
6632.6317442849
 20
5175.2691774421
 30
0.0
 40
1.999999637902537
100
AcDbArc
 50
269.9999419446
 51
0.0001605086
  0
ARC
  5
A2
330
1F
100
AcDbEntity
  8
0
  6
Continuous
 62
     7
100
AcDbCircle
 10
6632.6317388609
 20
5332.2691773471
 30
0.0
 40
1.999999637903786
100
AcDbArc
 50
359.9999972784
 51
89.9999026688
  0
ARC
  5
A3
330
1F
100
AcDbEntity
  8
0
  6
Continuous
 62
     7
100
AcDbCircle
 10
6632.6317388609
 20
5332.2691773471
 30
0.0
 40
1.000002712000881
100
AcDbArc
 50
359.9999945568
 51
89.9998777423
  0
ARC
  5
A4
330
1F
100
AcDbEntity
  8
0
  6
Continuous
 62
     7
100
AcDbCircle
 10
6247.0687584475
 20
4839.5886841538
 30
0.0
 40
1.500000000000119
100
AcDbArc
 50
180.0001684761
 51
269.9998315201
  0
ARC
  5
A5
330
1F
100
AcDbEntity
  8
0
  6
Continuous
 62
     7
100
AcDbCircle
 10
6300.9687567845
 20
4839.5886841538
 30
0.0
 40
1.500000000000352
100
AcDbArc
 50
269.9998838879
 51
359.9998315238
  0
ARC
  5
A6
330
1F
100
AcDbEntity
  8
0
  6
Continuous
 62
     7
100
AcDbCircle
 10
6273.0585251301
 20
4827.769125599
 30
0.0
 40
31.09527461368418
100
AcDbArc
 50
271.7695899642
 51
325.1237780018
  0
ARC
  5
A7
330
1F
100
AcDbEntity
  8
0
  6
Continuous
 62
     7
100
AcDbCircle
 10
6274.9789863949
 20
4827.7691255727
 30
0.0
 40
31.09527461368521
100
AcDbArc
 50
214.876221939
 51
268.2304084638
  0
ARC
  5
A8
330
1F
100
AcDbEntity
  8
0
  6
Continuous
 62
     7
100
AcDbCircle
 10
6349.0187557161
 20
4849.8886773708
 30
0.0
 40
10.00000000000092
100
AcDbArc
 50
269.9999972784
 51
0.0000307363
  0
ARC
  5
A9
330
1F
100
AcDbEntity
  8
0
  6
Continuous
 62
     7
100
AcDbCircle
 10
6199.0187548593
 20
4849.8886773708
 30
0.0
 40
10.00000000000053
100
AcDbArc
 50
179.9999692637
 51
270.0000307358
  0
ARC
  5
AA
330
1F
100
AcDbEntity
  8
0
  6
Continuous
 62
     7
100
AcDbCircle
 10
6350.7689458665
 20
4882.685716255
 30
0.0
 40
1.643323037045667
100
AcDbArc
 50
321.191781531
 51
40.488355549
  0
CIRCLE
  5
AB
330
1F
100
AcDbEntity
  8
0
  6
Continuous
 62
     7
100
AcDbCircle
 10
6274.0187535205
 20
4900.8886809814
 30
0.0
 40
6.999999999999087
  0
CIRCLE
  5
AC
330
1F
100
AcDbEntity
  8
0
  6
Continuous
 62
     7
100
AcDbCircle
 10
6274.0187535205
 20
4900.8886809814
 30
0.0
 40
4.000000000000434
  0
CIRCLE
  5
AD
330
1F
100
AcDbEntity
  8
0
  6
Continuous
 62
     7
100
AcDbCircle
 10
6274.0187535205
 20
4900.8886809814
 30
0.0
 40
9.299999999999844
  0
CIRCLE
  5
AE
330
1F
100
AcDbEntity
  8
0
  6
Continuous
 62
     7
100
AcDbCircle
 10
6274.0187535205
 20
4900.8886809814
 30
0.0
 40
7.800000000000952
  0
ARC
  5
AF
330
1F
100
AcDbEntity
  8
0
  6
Continuous
 62
     7
100
AcDbCircle
 10
6274.0187535205
 20
4900.8886809814
 30
0.0
 40
13.22049868838099
100
AcDbArc
 50
33.1797363306
 51
123.1797312224
  0
CIRCLE
  5
B0
330
1F
100
AcDbEntity
  8
0
  6
Continuous
 62
     7
100
AcDbCircle
 10
6274.0187535205
 20
4900.8886809814
 30
0.0
 40
11.72050000000054
  0
CIRCLE
  5
B1
330
1F
100
AcDbEntity
  8
0
  6
Continuous
 62
     7
100
AcDbCircle
 10
6274.0187535205
 20
4900.8886809814
 30
0.0
 40
9.749999999999451
  0
ARC
  5
B2
330
1F
100
AcDbEntity
  8
0
  6
Continuous
 62
     7
100
AcDbCircle
 10
6198.018755541
 20
4917.8886802393
 30
0.0
 40
2.000001397001233
100
AcDbArc
 50
89.9998838874
 51
179.9999827111
  0
ARC
  5
B3
330
1F
100
AcDbEntity
  8
0
  6
Continuous
 62
     7
100
AcDbCircle
 10
6198.018755541
 20
4917.8886802393
 30
0.0
 40
0.999999370402321
100
AcDbArc
 50
89.9997677746
 51
179.9999654222
  0
ARC
  5
B4
330
1F
100
AcDbEntity
  8
0
  6
Continuous
 62
     7
100
AcDbCircle
 10
6350.0187553361
 20
4917.8886824037
 30
0.0
 40
1.000000000000001
100
AcDbArc
 50
359.9999906092
 51
90.0000027217
  0
ARC
  5
B5
330
1F
100
AcDbEntity
  8
0
  6
Continuous
 62
     7
100
AcDbCircle
 10
6350.0187553361
 20
4917.8886824037
 30
0.0
 40
1.9999992325993
100
AcDbArc
 50
359.9999953046
 51
90.0000013608
  0
LINE
  5
B6
330
1F
100
AcDbEntity
  8
0
  6
Continuous
 62
     7
100
AcDbLine
 10
6270.4916583493
 20
5182.9738731437
 30
0.0
 11
6270.4915912941
 21
5182.9686279349
 31
0.0
  0
LINE
  5
B7
330
1F
100
AcDbEntity
  8
0
  6
Continuous
 62
     7
100
AcDbLine
 10
6269.9388923243
 20
5182.7718432002
 30
0.0
 11
6269.9341239527
 21
5182.4169720464
 31
0.0
  0
LINE
  5
B8
330
1F
100
AcDbEntity
  8
0
  6
Continuous
 62
     7
100
AcDbLine
 10
6277.4334387973
 20
5182.3160911851
 30
0.0
 11
6277.4382146195
 21
5182.6709623389
 31
0.0
  0
LINE
  5
B9
330
1F
100
AcDbEntity
  8
0
  6
Continuous
 62
     7
100
AcDbLine
 10
6370.5346180245
 20
5194.5645327621
 30
0.0
 11
6371.5187559023
 21
5195.5486799531
 31
0.0
  0
LINE
  5
BA
330
1F
100
AcDbEntity
  8
0
  6
Continuous
 62
     7
100
AcDbLine
 10
6371.5187559023
 20
5218.9896742754
 30
0.0
 11
6370.0187547252
 21
5220.4896773152
 31
0.0
  0
LINE
  5
BB
330
1F
100
AcDbEntity
  8
0
  6
Continuous
 62
     7
100
AcDbLine
 10
6370.2929696187
 20
5194.9157829337
 30
0.0
 11
6370.4966163382
 21
5194.5632661634
 31
0.0
  0
LINE
  5
BC
330
1F
100
AcDbEntity
  8
0
  6
Continuous
 62
     7
100
AcDbLine
 10
6369.2109162107
 20
5194.0486843639
 30
0.0
 11
6369.6076316878
 21
5194.0486843639
 31
0.0
  0
LINE
  5
BD
330
1F
100
AcDbEntity
  8
0
  6
Continuous
 62
     7
100
AcDbLine
 10
6367.6234172776
 20
5194.0486843639
 30
0.0
 11
6368.0201308921
 21
5194.0486843639
 31
0.0
  0
LINE
  5
BE
330
1F
100
AcDbEntity
  8
0
  6
Continuous
 62
     7
100
AcDbLine
 10
6366.0359174132
 20
5194.0486843639
 30
0.0
 11
6366.432631959
 21
5194.0486843639
 31
0.0
  0
LINE
  5
BF
330
1F
100
AcDbEntity
  8
0
  6
Continuous
 62
     7
100
AcDbLine
 10
6364.4484175488
 20
5194.0486843639
 30
0.0
 11
6364.8451320946
 21
5194.0486843639
 31
0.0
  0
LINE
  5
C0
330
1F
100
AcDbEntity
  8
0
  6
Continuous
 62
     7
100
AcDbLine
 10
6362.8609167531
 20
5194.0486843639
 30
0.0
 11
6363.2576312989
 21
5194.0486843639
 31
0.0
  0
LINE
  5
C1
330
1F
100
AcDbEntity
  8
0
  6
Continuous
 62
     7
100
AcDbLine
 10
6364.0513630703
 20
5220.4896773152
 30
0.0
 11
6363.654488337
 21
5220.4896773152
 31
0.0
  0
LINE
  5
C2
330
1F
100
AcDbEntity
  8
0
  6
Continuous
 62
     7
100
AcDbLine
 10
6365.6388629347
 20
5220.4896773152
 30
0.0
 11
6365.2419882014
 21
5220.4896773152
 31
0.0
  0
LINE
  5
C3
330
1F
100
AcDbEntity
  8
0
  6
Continuous
 62
     7
100
AcDbLine
 10
6367.2263627991
 20
5220.4896773152
 30
0.0
 11
6366.8294889972
 21
5220.4896773152
 31
0.0
  0
LINE
  5
C4
330
1F
100
AcDbEntity
  8
0
  6
Continuous
 62
     7
100
AcDbLine
 10
6368.8138635948
 20
5220.4896773152
 30
0.0
 11
6368.4169879302
 21
5220.4896773152
 31
0.0
  0
LINE
  5
C5
330
1F
100
AcDbEntity
  8
0
  6
Continuous
 62
     7
100
AcDbLine
 10
6369.4769187018
 20
5219.5361147575
 30
0.0
 11
6369.2784799382
 21
5219.5361147575
 31
0.0
  0
LINE
  5
C6
330
1F
100
AcDbEntity
  8
0
  6
Continuous
 62
     7
100
AcDbLine
 10
6368.5156559691
 20
5194.9079598241
 30
0.0
 11
6368.7099838749
 21
5194.9079598241
 31
0.0
  0
LINE
  5
C7
330
1F
100
AcDbEntity
  8
0
  6
Continuous
 62
     7
100
AcDbLine
 10
6366.9281551734
 20
5194.9079598241
 30
0.0
 11
6367.1224849418
 21
5194.9079598241
 31
0.0
  0
LINE
  5
C8
330
1F
100
AcDbEntity
  8
0
  6
Continuous
 62
     7
100
AcDbLine
 10
6365.340655309
 20
5194.9079598241
 30
0.0
 11
6365.5349841461
 21
5194.9079598241
 31
0.0
  0
LINE
  5
C9
330
1F
100
AcDbEntity
  8
0
  6
Continuous
 62
     7
100
AcDbLine
 10
6363.7531554446
 20
5194.9079598241
 30
0.0
 11
6363.9474842817
 21
5194.9079598241
 31
0.0
  0
LINE
  5
CA
330
1F
100
AcDbEntity
  8
0
  6
Continuous
 62
     7
100
AcDbLine
 10
6370.1031549022
 20
5194.9079598241
 30
0.0
 11
6370.2974846706
 21
5194.9079598241
 31
0.0
  0
LINE
  5
CB
330
1F
100
AcDbEntity
  8
0
  6
Continuous
 62
     7
100
AcDbLine
 10
6286.5534188345
 20
5352.9550100618
 30
0.0
 11
6285.7392566398
 21
5353.7691778444
 31
0.0
  0
LINE
  5
CC
330
1F
100
AcDbEntity
  8
0
  6
Continuous
 62
     7
100
AcDbLine
 10
6262.2982548669
 20
5353.7691778444
 30
0.0
 11
6260.9581487373
 21
5352.4290717147
 31
0.0
  0
LINE
  5
CD
330
1F
100
AcDbEntity
  8
0
  6
Continuous
 62
     7
100
AcDbLine
 10
6287.239252229
 20
5351.7270202689
 30
0.0
 11
6287.239252229
 21
5352.2691766672
 31
0.0
  0
LINE
  5
CE
330
1F
100
AcDbEntity
  8
0
  6
Continuous
 62
     7
100
AcDbLine
 10
6287.239252229
 20
5350.1395213359
 30
0.0
 11
6287.239252229
 21
5350.5365944408
 31
0.0
  0
LINE
  5
CF
330
1F
100
AcDbEntity
  8
0
  6
Continuous
 62
     7
100
AcDbLine
 10
6287.239252229
 20
5348.5520205401
 30
0.0
 11
6287.239252229
 21
5348.9490955078
 31
0.0
  0
LINE
  5
D0
330
1F
100
AcDbEntity
  8
0
  6
Continuous
 62
     7
100
AcDbLine
 10
6287.239252229
 20
5346.9645206757
 30
0.0
 11
6287.239252229
 21
5347.361594712
 31
0.0
  0
LINE
  5
D1
330
1F
100
AcDbEntity
  8
0
  6
Continuous
 62
     7
100
AcDbLine
 10
6287.239252229
 20
5345.3770208113
 30
0.0
 11
6287.239252229
 21
5345.7740948476
 31
0.0
  0
LINE
  5
D2
330
1F
100
AcDbEntity
  8
0
  6
Continuous
 62
     7
100
AcDbLine
 10
6260.7982518271
 20
5344.9802447983
 30
0.0
 11
6260.7982518271
 21
5344.7691773005
 31
0.0
  0
LINE
  5
D3
330
1F
100
AcDbEntity
  8
0
  6
Continuous
 62
     7
100
AcDbLine
 10
6260.7982518271
 20
5346.567745594
 30
0.0
 11
6260.7982518271
 21
5346.1707656213
 31
0.0
  0
LINE
  5
D4
330
1F
100
AcDbEntity
  8
0
  6
Continuous
 62
     7
100
AcDbLine
 10
6260.7982518271
 20
5348.1552454584
 30
0.0
 11
6260.7982518271
 21
5347.7582654857
 31
0.0
  0
LINE
  5
D5
330
1F
100
AcDbEntity
  8
0
  6
Continuous
 62
     7
100
AcDbLine
 10
6260.7982518271
 20
5349.7427453228
 30
0.0
 11
6260.7982518271
 21
5349.3457653501
 31
0.0
  0
LINE
  5
D6
330
1F
100
AcDbEntity
  8
0
  6
Continuous
 62
     7
100
AcDbLine
 10
6260.7982518271
 20
5351.3302451872
 30
0.0
 11
6260.7982518271
 21
5350.9332652145
 31
0.0
  0
LINE
  5
D7
330
1F
100
AcDbEntity
  8
0
  6
Continuous
 62
     7
100
AcDbLine
 10
6286.3721313074
 20
5352.8094555192
 30
0.0
 11
6286.543710728
 21
5352.9085799061
 31
0.0
  0
LINE
  5
D8
330
1F
100
AcDbEntity
  8
0
  6
Continuous
 62
     7
100
AcDbLine
 10
6261.6575421885
 20
5350.4379040502
 30
0.0
 11
6261.6575421885
 21
5350.2435742818
 31
0.0
  0
LINE
  5
D9
330
1F
100
AcDbEntity
  8
0
  6
Continuous
 62
     7
100
AcDbLine
 10
6261.6575421885
 20
5348.8504041858
 30
0.0
 11
6261.6575421885
 21
5348.6560734861
 31
0.0
  0
LINE
  5
DA
330
1F
100
AcDbEntity
  8
0
  6
Continuous
 62
     7
100
AcDbLine
 10
6261.6575421885
 20
5347.2629043214
 30
0.0
 11
6261.6575421885
 21
5347.0685736217
 31
0.0
  0
LINE
  5
DB
330
1F
100
AcDbEntity
  8
0
  6
Continuous
 62
     7
100
AcDbLine
 10
6261.6575421885
 20
5345.675404457
 30
0.0
 11
6261.6575421885
 21
5345.4810737573
 31
0.0
  0
LINE
  5
DC
330
1F
100
AcDbEntity
  8
0
  6
Continuous
 62
     7
100
AcDbLine
 10
6286.3799693182
 20
5351.0332166158
 30
0.0
 11
6286.3799693182
 21
5351.2264846765
 31
0.0
  0
LINE
  5
DD
330
1F
100
AcDbEntity
  8
0
  6
Continuous
 62
     7
100
AcDbLine
 10
6286.3799693182
 20
5349.4457167514
 30
0.0
 11
6286.3799693182
 21
5349.6389838808
 31
0.0
  0
LINE
  5
DE
330
1F
100
AcDbEntity
  8
0
  6
Continuous
 62
     7
100
AcDbLine
 10
6286.3799693182
 20
5347.858216887
 30
0.0
 11
6286.3799693182
 21
5348.0514840164
 31
0.0
  0
LINE
  5
DF
330
1F
100
AcDbEntity
  8
0
  6
Continuous
 62
     7
100
AcDbLine
 10
6286.3799693182
 20
5346.2707170226
 30
0.0
 11
6286.3799693182
 21
5346.463984152
 31
0.0
  0
LINE
  5
E0
330
1F
100
AcDbEntity
  8
0
  6
Continuous
 62
     7
100
AcDbLine
 10
6286.3799693182
 20
5344.7691773005
 30
0.0
 11
6286.3799693182
 21
5344.8764842876
 31
0.0
  0
LINE
  5
E1
330
1F
100
AcDbEntity
  8
0
  6
Continuous
 62
     7
100
AcDbLine
 10
6286.3799693182
 20
5352.6207174115
 30
0.0
 11
6286.3799693182
 21
5352.8139836096
 31
0.0
  0
LINE
  5
E2
330
1F
100
AcDbEntity
  8
0
  6
Continuous
 62
     7
100
AcDbLine
 10
6261.6575421885
 20
5352.025404846
 30
0.0
 11
6261.6575421885
 21
5351.8310732149
 31
0.0
  0
LINE
  5
E3
330
1F
100
AcDbEntity
  8
0
  6
Continuous
 62
     7
100
AcDbLine
 10
6178.0187623694
 20
5220.4896773152
 30
0.0
 11
6176.518751879
 21
5218.9896742754
 31
0.0
  0
LINE
  5
E4
330
1F
100
AcDbEntity
  8
0
  6
Continuous
 62
     7
100
AcDbLine
 10
6176.518751879
 20
5195.5486799531
 30
0.0
 11
6177.5028990701
 21
5194.5645327621
 31
0.0
  0
LINE
  5
E5
330
1F
100
AcDbEntity
  8
0
  6
Continuous
 62
     7
100
AcDbLine
 10
6179.6205179885
 20
5220.4896773152
 30
0.0
 11
6179.2236404613
 21
5220.4896773152
 31
0.0
  0
LINE
  5
E6
330
1F
100
AcDbEntity
  8
0
  6
Continuous
 62
     7
100
AcDbLine
 10
6181.2080280974
 20
5220.4896773152
 30
0.0
 11
6180.8111505702
 21
5220.4896773152
 31
0.0
  0
LINE
  5
E7
330
1F
100
AcDbEntity
  8
0
  6
Continuous
 62
     7
100
AcDbLine
 10
6182.7955233052
 20
5220.4896773152
 30
0.0
 11
6182.398645778
 21
5220.4896773152
 31
0.0
  0
LINE
  5
E8
330
1F
100
AcDbEntity
  8
0
  6
Continuous
 62
     7
100
AcDbLine
 10
6184.383018513
 20
5220.4896773152
 30
0.0
 11
6183.9861409858
 21
5220.4896773152
 31
0.0
  0
LINE
  5
E9
330
1F
100
AcDbEntity
  8
0
  6
Continuous
 62
     7
100
AcDbLine
 10
6184.7798811391
 20
5194.0486843639
 30
0.0
 11
6185.1765947536
 21
5194.0486843639
 31
0.0
  0
LINE
  5
EA
330
1F
100
AcDbEntity
  8
0
  6
Continuous
 62
     7
100
AcDbLine
 10
6183.1923859313
 20
5194.0486843639
 30
0.0
 11
6183.5890995458
 21
5194.0486843639
 31
0.0
  0
LINE
  5
EB
330
1F
100
AcDbEntity
  8
0
  6
Continuous
 62
     7
100
AcDbLine
 10
6181.6048758224
 20
5194.0486843639
 30
0.0
 11
6182.0015894368
 21
5194.0486843639
 31
0.0
  0
LINE
  5
EC
330
1F
100
AcDbEntity
  8
0
  6
Continuous
 62
     7
100
AcDbLine
 10
6180.0173806146
 20
5194.0486843639
 30
0.0
 11
6180.414094229
 21
5194.0486843639
 31
0.0
  0
LINE
  5
ED
330
1F
100
AcDbEntity
  8
0
  6
Continuous
 62
     7
100
AcDbLine
 10
6178.4298854068
 20
5194.0486843639
 30
0.0
 11
6178.8265990213
 21
5194.0486843639
 31
0.0
  0
LINE
  5
EE
330
1F
100
AcDbEntity
  8
0
  6
Continuous
 62
     7
100
AcDbLine
 10
6177.5408970311
 20
5194.5632661634
 30
0.0
 11
6177.7445363
 21
5194.9157829337
 31
0.0
  0
LINE
  5
EF
330
1F
100
AcDbEntity
  8
0
  6
Continuous
 62
     7
100
AcDbLine
 10
6179.3234186366
 20
5194.9079598241
 30
0.0
 11
6179.5166866973
 21
5194.9079598241
 31
0.0
  0
LINE
  5
F0
330
1F
100
AcDbEntity
  8
0
  6
Continuous
 62
     7
100
AcDbLine
 10
6180.9109138444
 20
5194.9079598241
 30
0.0
 11
6181.1041819051
 21
5194.9079598241
 31
0.0
  0
LINE
  5
F1
330
1F
100
AcDbEntity
  8
0
  6
Continuous
 62
     7
100
AcDbLine
 10
6182.4984239533
 20
5194.9079598241
 30
0.0
 11
6182.691692014
 21
5194.9079598241
 31
0.0
  0
LINE
  5
F2
330
1F
100
AcDbEntity
  8
0
  6
Continuous
 62
     7
100
AcDbLine
 10
6184.0859191611
 20
5194.9079598241
 30
0.0
 11
6184.2791872218
 21
5194.9079598241
 31
0.0
  0
LINE
  5
F3
330
1F
100
AcDbEntity
  8
0
  6
Continuous
 62
     7
100
AcDbLine
 10
6178.7590371564
 20
5219.5361147575
 30
0.0
 11
6178.5605983928
 21
5219.5361147575
 31
0.0
  0
LINE
  5
F4
330
1F
100
AcDbEntity
  8
0
  6
Continuous
 62
     7
100
AcDbLine
 10
6180.3465323642
 20
5219.5361147575
 30
0.0
 11
6180.1480936006
 21
5219.5361147575
 31
0.0
  0
LINE
  5
F5
330
1F
100
AcDbEntity
  8
0
  6
Continuous
 62
     7
100
AcDbLine
 10
6181.934027572
 20
5219.5361147575
 30
0.0
 11
6181.7355888084
 21
5219.5361147575
 31
0.0
  0
LINE
  5
F6
330
1F
100
AcDbEntity
  8
0
  6
Continuous
 62
     7
100
AcDbLine
 10
6183.5215227798
 20
5219.5361147575
 30
0.0
 11
6183.3230989173
 21
5219.5361147575
 31
0.0
  0
LINE
  5
F7
330
1F
100
AcDbEntity
  8
0
  6
Continuous
 62
     7
100
AcDbLine
 10
6185.1090328887
 20
5219.5361147575
 30
0.0
 11
6184.9105941251
 21
5219.5361147575
 31
0.0
  0
LINE
  5
F8
330
1F
100
AcDbEntity
  8
0
  6
Continuous
 62
     7
100
AcDbLine
 10
6177.7359234288
 20
5194.9079598241
 30
0.0
 11
6177.9291914895
 21
5194.9079598241
 31
0.0
  0
LINE
  5
F9
330
1F
100
AcDbEntity
  8
0
  6
Continuous
 62
     7
100
AcDbLine
 10
6257.3187543199
 20
5277.251284843
 30
0.0
 11
6257.3187543199
 21
5277.8191792719
 31
0.0
  0
LINE
  5
FA
330
1F
100
AcDbEntity
  8
0
  6
Continuous
 62
     7
100
AcDbLine
 10
6257.3187543199
 20
5290.7191778474
 30
0.0
 11
6257.3187543199
 21
5291.2870685511
 31
0.0
  0
LINE
  5
FB
330
1F
100
AcDbEntity
  8
0
  6
Continuous
 62
     7
100
AcDbLine
 10
6257.7508656427
 20
5291.7191761487
 30
0.0
 11
6258.3187563464
 21
5291.7191761487
 31
0.0
  0
LINE
  5
FC
330
1F
100
AcDbEntity
  8
0
  6
Continuous
 62
     7
100
AcDbLine
 10
6289.7187551603
 20
5291.7191761487
 30
0.0
 11
6290.286645864
 21
5291.7191761487
 31
0.0
  0
LINE
  5
FD
330
1F
100
AcDbEntity
  8
0
  6
Continuous
 62
     7
100
AcDbLine
 10
6258.3187563464
 20
5276.8191772454
 30
0.0
 11
6289.7187551603
 21
5276.8191772454
 31
0.0
  0
LINE
  5
FE
330
1F
100
AcDbEntity
  8
0
  6
Continuous
 62
     7
100
AcDbLine
 10
6257.3187543199
 20
5290.7191778474
 30
0.0
 11
6257.3187543199
 21
5277.8191792719
 31
0.0
  0
LINE
  5
FF
330
1F
100
AcDbEntity
  8
0
  6
Continuous
 62
     7
100
AcDbLine
 10
6289.7187551603
 20
5291.7191761487
 30
0.0
 11
6258.3187563464
 21
5291.7191761487
 31
0.0
  0
LINE
  5
100
330
1F
100
AcDbEntity
  8
0
  6
Continuous
 62
     7
100
AcDbLine
 10
6290.7187534616
 20
5277.8191792719
 30
0.0
 11
6290.7187534616
 21
5290.7191778474
 31
0.0
  0
LINE
  5
101
330
1F
100
AcDbEntity
  8
0
  6
Continuous
 62
     7
100
AcDbLine
 10
6290.8187527891
 20
5290.7191778474
 30
0.0
 11
6290.8187527891
 21
5277.8191792719
 31
0.0
  0
LINE
  5
102
330
1F
100
AcDbEntity
  8
0
  6
Continuous
 62
     7
100
AcDbLine
 10
6289.7187551603
 20
5276.7191779179
 30
0.0
 11
6258.3187563464
 21
5276.7191779179
 31
0.0
  0
LINE
  5
103
330
1F
100
AcDbEntity
  8
0
  6
Continuous
 62
     7
100
AcDbLine
 10
6264.0394182995
 20
5276.8191772454
 30
0.0
 11
6264.2352866128
 21
5276.6691784315
 31
0.0
  0
LINE
  5
104
330
1F
100
AcDbEntity
  8
0
  6
Continuous
 62
     7
100
AcDbLine
 10
6199.0187548593
 20
5329.2691773303
 30
0.0
 11
6199.0187548593
 21
5179.2691708856
 31
0.0
  0
LINE
  5
105
330
1F
100
AcDbEntity
  8
0
  6
Continuous
 62
     7
100
AcDbLine
 10
6349.0187557161
 20
5329.2691773303
 30
0.0
 11
6199.0187548593
 21
5329.2691773303
 31
0.0
  0
LINE
  5
106
330
1F
100
AcDbEntity
  8
0
  6
Continuous
 62
     7
100
AcDbLine
 10
6199.0187548593
 20
5179.2691708856
 30
0.0
 11
6268.9786689475
 21
5179.26917625
 31
0.0
  0
LINE
  5
107
330
1F
100
AcDbEntity
  8
0
  6
Continuous
 62
     7
100
AcDbLine
 10
6279.0588425592
 20
5179.26917625
 30
0.0
 11
6349.0187557161
 21
5179.2691708856
 31
0.0
  0
LINE
  5
108
330
1F
100
AcDbEntity
  8
0
  6
Continuous
 62
     7
100
AcDbLine
 10
6289.7187551602
 20
5291.8691768253
 30
0.0
 11
6258.3187563463
 21
5291.8691768253
 31
0.0
  0
LINE
  5
109
330
1F
100
AcDbEntity
  8
0
  6
Continuous
 62
     7
100
AcDbLine
 10
6258.3187563464
 20
5276.6691765689
 30
0.0
 11
6289.7187551603
 21
5276.6691765689
 31
0.0
  0
LINE
  5
10A
330
1F
100
AcDbEntity
  8
0
  6
Continuous
 62
     7
100
AcDbLine
 10
6290.8687541381
 20
5277.8191792719
 30
0.0
 11
6290.8687541381
 21
5290.7191778474
 31
0.0
  0
LINE
  5
10B
330
1F
100
AcDbEntity
  8
0
  6
Continuous
 62
     7
100
AcDbLine
 10
6349.0187557161
 20
5179.2691708856
 30
0.0
 11
6349.0187557161
 21
5329.2691773303
 31
0.0
  0
LINE
  5
10C
330
1F
100
AcDbEntity
  8
0
  6
Continuous
 62
     7
100
AcDbLine
 10
6257.1687536433
 20
5290.7191778474
 30
0.0
 11
6257.1687536433
 21
5277.8191792719
 31
0.0
  0
LINE
  5
10D
330
1F
100
AcDbEntity
  8
0
  6
Continuous
 62
     7
100
AcDbLine
 10
6349.0187552411
 20
5339.2691773303
 30
0.0
 11
6349.0187557161
 21
5329.2691773303
 31
0.0
  0
LINE
  5
10E
330
1F
100
AcDbEntity
  8
0
  6
Continuous
 62
     7
100
AcDbLine
 10
6349.0187557161
 20
5329.2691773303
 30
0.0
 11
6359.0187557161
 21
5329.2691775538
 31
0.0
  0
LINE
  5
10F
330
1F
100
AcDbEntity
  8
0
  6
Continuous
 62
     7
100
AcDbLine
 10
6199.0187548593
 20
5179.2691708856
 30
0.0
 11
6199.0187602237
 21
5169.2691708856
 31
0.0
  0
LINE
  5
110
330
1F
100
AcDbEntity
  8
0
  6
Continuous
 62
     7
100
AcDbLine
 10
6189.0187548593
 20
5179.26917625
 30
0.0
 11
6199.0187548593
 21
5179.2691708856
 31
0.0
  0
LINE
  5
111
330
1F
100
AcDbEntity
  8
0
  6
Continuous
 62
     7
100
AcDbLine
 10
6349.0187557161
 20
5179.2691708856
 30
0.0
 11
6349.0187552411
 21
5169.2691708856
 31
0.0
  0
LINE
  5
112
330
1F
100
AcDbEntity
  8
0
  6
Continuous
 62
     7
100
AcDbLine
 10
6199.0187602237
 20
5169.2691708856
 30
0.0
 11
6349.0187552411
 21
5169.2691708856
 31
0.0
  0
LINE
  5
113
330
1F
100
AcDbEntity
  8
0
  6
Continuous
 62
     7
100
AcDbLine
 10
6189.0187548593
 20
5329.2691775538
 30
0.0
 11
6189.0187548593
 21
5179.26917625
 31
0.0
  0
LINE
  5
114
330
1F
100
AcDbEntity
  8
0
  6
Continuous
 62
     7
100
AcDbLine
 10
6189.0187548593
 20
5329.2691775538
 30
0.0
 11
6199.0187548593
 21
5329.2691773303
 31
0.0
  0
LINE
  5
115
330
1F
100
AcDbEntity
  8
0
  6
Continuous
 62
     7
100
AcDbLine
 10
6349.0187557161
 20
5179.2691708856
 30
0.0
 11
6359.0187557161
 21
5179.26917625
 31
0.0
  0
LINE
  5
116
330
1F
100
AcDbEntity
  8
0
  6
Continuous
 62
     7
100
AcDbLine
 10
6199.0187602237
 20
5339.2691773303
 30
0.0
 11
6199.0187548593
 21
5329.2691773303
 31
0.0
  0
LINE
  5
117
330
1F
100
AcDbEntity
  8
0
  6
Continuous
 62
     7
100
AcDbLine
 10
6359.0187557161
 20
5179.26917625
 30
0.0
 11
6359.0187557161
 21
5329.2691775538
 31
0.0
  0
LINE
  5
118
330
1F
100
AcDbEntity
  8
0
  6
Continuous
 62
     7
100
AcDbLine
 10
6349.0187552411
 20
5339.2691773303
 30
0.0
 11
6199.0187602237
 21
5339.2691773303
 31
0.0
  0
LINE
  5
119
330
1F
100
AcDbEntity
  8
0
  6
Continuous
 62
     7
100
AcDbLine
 10
6313.6844659343
 20
5194.1111500316
 30
0.0
 11
6313.9549927905
 21
5194.1111500316
 31
0.0
  0
LINE
  5
11A
330
1F
100
AcDbEntity
  8
0
  6
Continuous
 62
     7
100
AcDbLine
 10
6313.2609525815
 20
5192.1964998298
 30
0.0
 11
6313.2609525815
 21
5191.9287408643
 31
0.0
  0
LINE
  5
11B
330
1F
100
AcDbEntity
  8
0
  6
Continuous
 62
     7
100
AcDbLine
 10
6313.2609525815
 20
5191.9287408643
 30
0.0
 11
6314.3790351346
 21
5191.9287408643
 31
0.0
  0
LINE
  5
11C
330
1F
100
AcDbEntity
  8
0
  6
Continuous
 62
     7
100
AcDbLine
 10
6314.3790351346
 20
5191.9287408643
 30
0.0
 11
6314.3790351346
 21
5192.2030563407
 31
0.0
  0
LINE
  5
11D
330
1F
100
AcDbEntity
  8
0
  6
Continuous
 62
     7
100
AcDbLine
 10
6313.9549927905
 20
5193.406593328
 30
0.0
 11
6313.6844659343
 21
5193.406593328
 31
0.0
  0
LINE
  5
11E
330
1F
100
AcDbEntity
  8
0
  6
Continuous
 62
     7
100
AcDbLine
 10
6315.0786446527
 20
5192.8145701938
 30
0.0
 11
6315.0786446527
 21
5188.8891722016
 31
0.0
  0
LINE
  5
11F
330
1F
100
AcDbEntity
  8
0
  6
Continuous
 62
     7
100
AcDbLine
 10
6315.0786446527
 20
5188.8891722016
 30
0.0
 11
6314.3790351346
 21
5188.8891722016
 31
0.0
  0
LINE
  5
120
330
1F
100
AcDbEntity
  8
0
  6
Continuous
 62
     7
100
AcDbLine
 10
6314.3790351346
 20
5188.8891722016
 30
0.0
 11
6314.3790351346
 21
5191.1962742858
 31
0.0
  0
LINE
  5
121
330
1F
100
AcDbEntity
  8
0
  6
Continuous
 62
     7
100
AcDbLine
 10
6314.3790351346
 20
5191.1962742858
 30
0.0
 11
6313.2612059012
 21
5191.1962742858
 31
0.0
  0
LINE
  5
122
330
1F
100
AcDbEntity
  8
0
  6
Continuous
 62
     7
100
AcDbLine
 10
6313.2612059012
 20
5191.1962742858
 30
0.0
 11
6313.2609525815
 21
5188.8891722016
 31
0.0
  0
LINE
  5
123
330
1F
100
AcDbEntity
  8
0
  6
Continuous
 62
     7
100
AcDbLine
 10
6313.2609525815
 20
5188.8891722016
 30
0.0
 11
6312.5749701753
 21
5188.8891722016
 31
0.0
  0
LINE
  5
124
330
1F
100
AcDbEntity
  8
0
  6
Continuous
 62
     7
100
AcDbLine
 10
6312.0322587088
 20
5191.9285620504
 30
0.0
 11
6312.5749701753
 21
5191.9285620504
 31
0.0
  0
LINE
  5
125
330
1F
100
AcDbEntity
  8
0
  6
Continuous
 62
     7
100
AcDbLine
 10
6312.5749701753
 20
5191.9285620504
 30
0.0
 11
6312.5749701753
 21
5192.8240324311
 31
0.0
  0
LINE
  5
126
330
1F
100
AcDbEntity
  8
0
  6
Continuous
 62
     7
100
AcDbLine
 10
6312.5749701753
 20
5188.8891722016
 30
0.0
 11
6312.5749701753
 21
5191.1962742858
 31
0.0
  0
LINE
  5
127
330
1F
100
AcDbEntity
  8
0
  6
Continuous
 62
     7
100
AcDbLine
 10
6312.5749701753
 20
5191.1962742858
 30
0.0
 11
6312.2744472817
 21
5191.1962742858
 31
0.0
  0
LINE
  5
128
330
1F
100
AcDbEntity
  8
0
  6
Continuous
 62
     7
100
AcDbLine
 10
6312.2744472817
 20
5191.1962742858
 30
0.0
 11
6312.0322587088
 21
5191.9285620504
 31
0.0
  0
LINE
  5
129
330
1F
100
AcDbEntity
  8
0
  6
Continuous
 62
     7
100
AcDbLine
 10
6309.0258302286
 20
5188.8891722016
 30
0.0
 11
6310.5879785612
 21
5188.8891722016
 31
0.0
  0
LINE
  5
12A
330
1F
100
AcDbEntity
  8
0
  6
Continuous
 62
     7
100
AcDbLine
 10
6309.0258302286
 20
5189.6669830136
 30
0.0
 11
6309.0258302286
 21
5188.8891722016
 31
0.0
  0
LINE
  5
12B
330
1F
100
AcDbEntity
  8
0
  6
Continuous
 62
     7
100
AcDbLine
 10
6309.8459752396
 20
5192.3397744947
 30
0.0
 11
6310.7903102532
 21
5191.2711973243
 31
0.0
  0
LINE
  5
12C
330
1F
100
AcDbEntity
  8
0
  6
Continuous
 62
     7
100
AcDbLine
 10
6327.3139676198
 20
5195.2882970624
 30
0.0
 11
6310.9558211759
 21
5195.2882225566
 31
0.0
  0
LINE
  5
12D
330
1F
100
AcDbEntity
  8
0
  6
Continuous
 62
     7
100
AcDbLine
 10
6327.3139676198
 20
5194.5233459525
 30
0.0
 11
6327.3139676198
 21
5195.2882970624
 31
0.0
  0
LINE
  5
12E
330
1F
100
AcDbEntity
  8
0
  6
Continuous
 62
     7
100
AcDbLine
 10
6311.0063733652
 20
5194.5233459525
 30
0.0
 11
6327.3139676198
 21
5194.5233459525
 31
0.0
  0
LINE
  5
12F
330
1F
100
AcDbEntity
  8
0
  6
Continuous
 62
     7
100
AcDbLine
 10
6311.5290800229
 20
5191.6147584968
 30
0.0
 11
6310.8364442483
 21
5192.4056674295
 31
0.0
  0
LINE
  5
130
330
1F
100
AcDbEntity
  8
0
  6
Continuous
 62
     7
100
AcDbLine
 10
6310.52264442
 20
5189.6669830136
 30
0.0
 11
6309.0258302286
 21
5189.6669830136
 31
0.0
  0
LINE
  5
131
330
1F
100
AcDbEntity
  8
0
  6
Continuous
 62
     7
100
AcDbLine
 10
6315.6734170511
 20
5194.1111500316
 30
0.0
 11
6317.9545799389
 21
5192.2684128337
 31
0.0
  0
LINE
  5
132
330
1F
100
AcDbEntity
  8
0
  6
Continuous
 62
     7
100
AcDbLine
 10
6317.9545799389
 20
5192.2684128337
 30
0.0
 11
6317.9545799389
 21
5194.020223146
 31
0.0
  0
LINE
  5
133
330
1F
100
AcDbEntity
  8
0
  6
Continuous
 62
     7
100
AcDbLine
 10
6317.9545799389
 20
5194.020223146
 30
0.0
 11
6318.7456565097
 21
5194.0203274541
 31
0.0
  0
LINE
  5
134
330
1F
100
AcDbEntity
  8
0
  6
Continuous
 62
     7
100
AcDbLine
 10
6318.7456565097
 20
5194.0203274541
 30
0.0
 11
6318.7456565097
 21
5191.9287408643
 31
0.0
  0
LINE
  5
135
330
1F
100
AcDbEntity
  8
0
  6
Continuous
 62
     7
100
AcDbLine
 10
6318.7456565097
 20
5191.9287408643
 30
0.0
 11
6319.3401755884
 21
5191.9287408643
 31
0.0
  0
LINE
  5
136
330
1F
100
AcDbEntity
  8
0
  6
Continuous
 62
     7
100
AcDbLine
 10
6319.3401755884
 20
5191.9287408643
 30
0.0
 11
6319.3401755884
 21
5194.0203274541
 31
0.0
  0
LINE
  5
137
330
1F
100
AcDbEntity
  8
0
  6
Continuous
 62
     7
100
AcDbLine
 10
6319.3401755884
 20
5194.0203274541
 30
0.0
 11
6321.3012373194
 21
5194.0203274541
 31
0.0
  0
LINE
  5
138
330
1F
100
AcDbEntity
  8
0
  6
Continuous
 62
     7
100
AcDbLine
 10
6321.3012373194
 20
5194.0203274541
 30
0.0
 11
6321.3012373194
 21
5193.406593328
 31
0.0
  0
LINE
  5
139
330
1F
100
AcDbEntity
  8
0
  6
Continuous
 62
     7
100
AcDbLine
 10
6321.3012373194
 20
5193.406593328
 30
0.0
 11
6319.9811769769
 21
5193.406593328
 31
0.0
  0
LINE
  5
13A
330
1F
100
AcDbEntity
  8
0
  6
Continuous
 62
     7
100
AcDbLine
 10
6319.9811769769
 20
5193.406593328
 30
0.0
 11
6319.9811769769
 21
5191.9287408643
 31
0.0
  0
LINE
  5
13B
330
1F
100
AcDbEntity
  8
0
  6
Continuous
 62
     7
100
AcDbLine
 10
6319.9811769769
 20
5191.9287408643
 30
0.0
 11
6321.3113514826
 21
5191.9287408643
 31
0.0
  0
LINE
  5
13C
330
1F
100
AcDbEntity
  8
0
  6
Continuous
 62
     7
100
AcDbLine
 10
6321.3113514826
 20
5191.9287408643
 30
0.0
 11
6321.5530650809
 21
5191.1962742858
 31
0.0
  0
LINE
  5
13D
330
1F
100
AcDbEntity
  8
0
  6
Continuous
 62
     7
100
AcDbLine
 10
6321.5530650809
 20
5191.1962742858
 30
0.0
 11
6319.9809273824
 21
5191.1962742858
 31
0.0
  0
LINE
  5
13E
330
1F
100
AcDbEntity
  8
0
  6
Continuous
 62
     7
100
AcDbLine
 10
6319.9809273824
 20
5191.1962742858
 30
0.0
 11
6319.9811769769
 21
5189.5494873576
 31
0.0
  0
LINE
  5
13F
330
1F
100
AcDbEntity
  8
0
  6
Continuous
 62
     7
100
AcDbLine
 10
6319.9811769769
 20
5189.5494873576
 30
0.0
 11
6321.3012373194
 21
5189.5494873576
 31
0.0
  0
LINE
  5
140
330
1F
100
AcDbEntity
  8
0
  6
Continuous
 62
     7
100
AcDbLine
 10
6321.3012373194
 20
5189.5494873576
 30
0.0
 11
6321.3012373194
 21
5188.8891722016
 31
0.0
  0
LINE
  5
141
330
1F
100
AcDbEntity
  8
0
  6
Continuous
 62
     7
100
AcDbLine
 10
6321.3012373194
 20
5188.8891722016
 30
0.0
 11
6319.3401755884
 21
5188.8891722016
 31
0.0
  0
LINE
  5
142
330
1F
100
AcDbEntity
  8
0
  6
Continuous
 62
     7
100
AcDbLine
 10
6319.3401755884
 20
5188.8891722016
 30
0.0
 11
6319.3402500942
 21
5191.1962742858
 31
0.0
  0
LINE
  5
143
330
1F
100
AcDbEntity
  8
0
  6
Continuous
 62
     7
100
AcDbLine
 10
6319.3402500942
 20
5191.1962742858
 30
0.0
 11
6318.7456565097
 21
5191.1962742858
 31
0.0
  0
LINE
  5
144
330
1F
100
AcDbEntity
  8
0
  6
Continuous
 62
     7
100
AcDbLine
 10
6318.7456565097
 20
5191.1962742858
 30
0.0
 11
6318.7456565097
 21
5188.8891722016
 31
0.0
  0
LINE
  5
145
330
1F
100
AcDbEntity
  8
0
  6
Continuous
 62
     7
100
AcDbLine
 10
6318.7456565097
 20
5188.8891722016
 30
0.0
 11
6317.9545799389
 21
5188.8891722016
 31
0.0
  0
LINE
  5
146
330
1F
100
AcDbEntity
  8
0
  6
Continuous
 62
     7
100
AcDbLine
 10
6317.9545799389
 20
5188.8891722016
 30
0.0
 11
6317.9545799389
 21
5191.1962742858
 31
0.0
  0
LINE
  5
147
330
1F
100
AcDbEntity
  8
0
  6
Continuous
 62
     7
100
AcDbLine
 10
6317.9545799389
 20
5191.1962742858
 30
0.0
 11
6316.4051795497
 21
5192.372989183
 31
0.0
  0
LINE
  5
148
330
1F
100
AcDbEntity
  8
0
  6
Continuous
 62
     7
100
AcDbLine
 10
6316.4051795497
 20
5192.372989183
 30
0.0
 11
6316.4054552212
 21
5188.8891722016
 31
0.0
  0
LINE
  5
149
330
1F
100
AcDbEntity
  8
0
  6
Continuous
 62
     7
100
AcDbLine
 10
6316.4054552212
 20
5188.8891722016
 30
0.0
 11
6315.67333882
 21
5188.8891722016
 31
0.0
  0
LINE
  5
14A
330
1F
100
AcDbEntity
  8
0
  6
Continuous
 62
     7
100
AcDbLine
 10
6315.67333882
 20
5188.8891722016
 30
0.0
 11
6315.6734170511
 21
5194.1111500316
 31
0.0
  0
LINE
  5
14B
330
1F
100
AcDbEntity
  8
0
  6
Continuous
 62
     7
100
AcDbLine
 10
6328.5486610725
 20
5194.4322849565
 30
0.0
 11
6328.6018731192
 21
5194.5077444368
 31
0.0
  0
LINE
  5
14C
330
1F
100
AcDbEntity
  8
0
  6
Continuous
 62
     7
100
AcDbLine
 10
6330.0609352186
 20
5193.1327844911
 30
0.0
 11
6330.1585247859
 21
5193.1327844911
 31
0.0
  0
LINE
  5
14D
330
1F
100
AcDbEntity
  8
0
  6
Continuous
 62
     7
100
AcDbLine
 10
6330.4690612599
 20
5193.2392085843
 30
0.0
 11
6330.0609352186
 21
5193.2392085843
 31
0.0
  0
LINE
  5
14E
330
1F
100
AcDbEntity
  8
0
  6
Continuous
 62
     7
100
AcDbLine
 10
6330.367055361
 20
5193.1327844911
 30
0.0
 11
6330.4690612599
 21
5193.1327844911
 31
0.0
  0
LINE
  5
14F
330
1F
100
AcDbEntity
  8
0
  6
Continuous
 62
     7
100
AcDbLine
 10
6333.3287561431
 20
5195.7280750327
 30
0.0
 11
6333.4132159248
 21
5195.7280750327
 31
0.0
  0
LINE
  5
150
330
1F
100
AcDbEntity
  8
0
  6
Continuous
 62
     7
100
AcDbLine
 10
6333.6194628969
 20
5195.1170082145
 30
0.0
 11
6333.7124088898
 21
5195.1170082145
 31
0.0
  0
LINE
  5
151
330
1F
100
AcDbEntity
  8
0
  6
Continuous
 62
     7
100
AcDbLine
 10
6333.3287561431
 20
5195.3942741208
 30
0.0
 11
6333.457869117
 21
5195.3942741208
 31
0.0
  0
LINE
  5
152
330
1F
100
AcDbEntity
  8
0
  6
Continuous
 62
     7
100
AcDbLine
 10
6333.3287561431
 20
5195.1170082145
 30
0.0
 11
6333.3287561431
 21
5195.3942741208
 31
0.0
  0
LINE
  5
153
330
1F
100
AcDbEntity
  8
0
  6
Continuous
 62
     7
100
AcDbLine
 10
6333.2511210933
 20
5195.1170082145
 30
0.0
 11
6333.3287561431
 21
5195.1170082145
 31
0.0
  0
LINE
  5
154
330
1F
100
AcDbEntity
  8
0
  6
Continuous
 62
     7
100
AcDbLine
 10
6333.2511210933
 20
5195.7942361884
 30
0.0
 11
6333.2511210933
 21
5195.1170082145
 31
0.0
  0
LINE
  5
155
330
1F
100
AcDbEntity
  8
0
  6
Continuous
 62
     7
100
AcDbLine
 10
6333.4132159248
 20
5195.7942361884
 30
0.0
 11
6333.2511210933
 21
5195.7942361884
 31
0.0
  0
LINE
  5
156
330
1F
100
AcDbEntity
  8
0
  6
Continuous
 62
     7
100
AcDbLine
 10
6333.3287561431
 20
5195.4556371026
 30
0.0
 11
6333.3287561431
 21
5195.7280750327
 31
0.0
  0
LINE
  5
157
330
1F
100
AcDbEntity
  8
0
  6
Continuous
 62
     7
100
AcDbLine
 10
6333.4148233876
 20
5195.4556371026
 30
0.0
 11
6333.3287561431
 21
5195.4556371026
 31
0.0
  0
LINE
  5
158
330
1F
100
AcDbEntity
  8
0
  6
Continuous
 62
     7
100
AcDbLine
 10
6333.7124088898
 20
5195.1170082145
 30
0.0
 11
6333.5302831724
 21
5195.4194123798
 31
0.0
  0
LINE
  5
159
330
1F
100
AcDbEntity
  8
0
  6
Continuous
 62
     7
100
AcDbLine
 10
6333.457869117
 20
5195.3942741208
 30
0.0
 11
6333.6194628969
 21
5195.1170082145
 31
0.0
  0
LINE
  5
15A
330
1F
100
AcDbEntity
  8
0
  6
Continuous
 62
     7
100
AcDbLine
 10
6321.8955552325
 20
5194.0203274541
 30
0.0
 11
6322.6403972253
 21
5194.0203274541
 31
0.0
  0
LINE
  5
15B
330
1F
100
AcDbEntity
  8
0
  6
Continuous
 62
     7
100
AcDbLine
 10
6322.6403972253
 20
5194.0203274541
 30
0.0
 11
6322.6403972253
 21
5189.5494873576
 31
0.0
  0
LINE
  5
15C
330
1F
100
AcDbEntity
  8
0
  6
Continuous
 62
     7
100
AcDbLine
 10
6322.6403972253
 20
5189.5494873576
 30
0.0
 11
6324.2155728981
 21
5189.5494873576
 31
0.0
  0
LINE
  5
15D
330
1F
100
AcDbEntity
  8
0
  6
Continuous
 62
     7
100
AcDbLine
 10
6324.2155728981
 20
5189.5494873576
 30
0.0
 11
6324.2155728981
 21
5188.8891722016
 31
0.0
  0
LINE
  5
15E
330
1F
100
AcDbEntity
  8
0
  6
Continuous
 62
     7
100
AcDbLine
 10
6324.2155728981
 20
5188.8891722016
 30
0.0
 11
6321.8955552325
 21
5188.8891722016
 31
0.0
  0
LINE
  5
15F
330
1F
100
AcDbEntity
  8
0
  6
Continuous
 62
     7
100
AcDbLine
 10
6321.8955552325
 20
5188.8891722016
 30
0.0
 11
6321.8955552325
 21
5194.0203274541
 31
0.0
  0
LINE
  5
160
330
1F
100
AcDbEntity
  8
0
  6
Continuous
 62
     7
100
AcDbLine
 10
6325.4964264229
 20
5191.1962742858
 30
0.0
 11
6325.4961749658
 21
5188.8891722016
 31
0.0
  0
LINE
  5
161
330
1F
100
AcDbEntity
  8
0
  6
Continuous
 62
     7
100
AcDbLine
 10
6325.4961749658
 20
5188.8891722016
 30
0.0
 11
6324.8101925597
 21
5188.8891722016
 31
0.0
  0
LINE
  5
162
330
1F
100
AcDbEntity
  8
0
  6
Continuous
 62
     7
100
AcDbLine
 10
6324.8101925597
 20
5188.8891722016
 30
0.0
 11
6324.8101925597
 21
5191.1962742858
 31
0.0
  0
LINE
  5
163
330
1F
100
AcDbEntity
  8
0
  6
Continuous
 62
     7
100
AcDbLine
 10
6324.8101925597
 20
5191.1962742858
 30
0.0
 11
6324.5097441718
 21
5191.1962742858
 31
0.0
  0
LINE
  5
164
330
1F
100
AcDbEntity
  8
0
  6
Continuous
 62
     7
100
AcDbLine
 10
6324.5097441718
 20
5191.1962742858
 30
0.0
 11
6324.2675798133
 21
5191.9285620504
 31
0.0
  0
LINE
  5
165
330
1F
100
AcDbEntity
  8
0
  6
Continuous
 62
     7
100
AcDbLine
 10
6324.2675798133
 20
5191.9285620504
 30
0.0
 11
6324.8101925597
 21
5191.9285620504
 31
0.0
  0
LINE
  5
166
330
1F
100
AcDbEntity
  8
0
  6
Continuous
 62
     7
100
AcDbLine
 10
6324.8101925597
 20
5191.9285620504
 30
0.0
 11
6324.8101925597
 21
5192.8240324311
 31
0.0
  0
LINE
  5
167
330
1F
100
AcDbEntity
  8
0
  6
Continuous
 62
     7
100
AcDbLine
 10
6325.4961749658
 20
5192.1964998298
 30
0.0
 11
6325.4961749658
 21
5191.9287408643
 31
0.0
  0
LINE
  5
168
330
1F
100
AcDbEntity
  8
0
  6
Continuous
 62
     7
100
AcDbLine
 10
6325.4961749658
 20
5191.9287408643
 30
0.0
 11
6326.6142295793
 21
5191.9287408643
 31
0.0
  0
LINE
  5
169
330
1F
100
AcDbEntity
  8
0
  6
Continuous
 62
     7
100
AcDbLine
 10
6326.6142295793
 20
5191.9287408643
 30
0.0
 11
6326.6142295793
 21
5192.2030563407
 31
0.0
  0
LINE
  5
16A
330
1F
100
AcDbEntity
  8
0
  6
Continuous
 62
     7
100
AcDbLine
 10
6326.1901890978
 20
5193.406593328
 30
0.0
 11
6325.919686456
 21
5193.406593328
 31
0.0
  0
LINE
  5
16B
330
1F
100
AcDbEntity
  8
0
  6
Continuous
 62
     7
100
AcDbLine
 10
6327.3139415428
 20
5192.8145701938
 30
0.0
 11
6327.3139415428
 21
5188.8891722016
 31
0.0
  0
LINE
  5
16C
330
1F
100
AcDbEntity
  8
0
  6
Continuous
 62
     7
100
AcDbLine
 10
6327.3139415428
 20
5188.8891722016
 30
0.0
 11
6326.6142295793
 21
5188.8891722016
 31
0.0
  0
LINE
  5
16D
330
1F
100
AcDbEntity
  8
0
  6
Continuous
 62
     7
100
AcDbLine
 10
6326.6142295793
 20
5188.8891722016
 30
0.0
 11
6326.6142295793
 21
5191.1962742858
 31
0.0
  0
LINE
  5
16E
330
1F
100
AcDbEntity
  8
0
  6
Continuous
 62
     7
100
AcDbLine
 10
6326.6142295793
 20
5191.1962742858
 30
0.0
 11
6325.4964264229
 21
5191.1962742858
 31
0.0
  0
LINE
  5
16F
330
1F
100
AcDbEntity
  8
0
  6
Continuous
 62
     7
100
AcDbLine
 10
6325.919686456
 20
5194.1111500316
 30
0.0
 11
6326.1901890978
 21
5194.1111500316
 31
0.0
  0
LINE
  5
170
330
1F
100
AcDbEntity
  8
0
  6
Continuous
 62
     7
100
AcDbLine
 10
6269.9341239527
 20
5182.4169720464
 30
0.0
 11
6269.9904056385
 21
5182.4162120872
 31
0.0
  0
LINE
  5
171
330
1F
100
AcDbEntity
  8
0
  6
Continuous
 62
     7
100
AcDbLine
 10
6269.9904056385
 20
5182.4162120872
 30
0.0
 11
6270.3452767923
 21
5182.4114437156
 31
0.0
  0
LINE
  5
172
330
1F
100
AcDbEntity
  8
0
  6
Continuous
 62
     7
100
AcDbLine
 10
6270.3452767923
 20
5182.4114437156
 30
0.0
 11
6270.9967779115
 21
5182.4026818328
 31
0.0
  0
LINE
  5
173
330
1F
100
AcDbEntity
  8
0
  6
Continuous
 62
     7
100
AcDbLine
 10
6270.9967779115
 20
5182.4026818328
 30
0.0
 11
6271.8870403364
 21
5182.3907012992
 31
0.0
  0
LINE
  5
174
330
1F
100
AcDbEntity
  8
0
  6
Continuous
 62
     7
100
AcDbLine
 10
6271.8870403364
 20
5182.3907012992
 30
0.0
 11
6272.9369463518
 21
5182.3765749984
 31
0.0
  0
LINE
  5
175
330
1F
100
AcDbEntity
  8
0
  6
Continuous
 62
     7
100
AcDbLine
 10
6272.9369463518
 20
5182.3765749984
 30
0.0
 11
6274.0532146886
 21
5182.3615695291
 31
0.0
  0
LINE
  5
176
330
1F
100
AcDbEntity
  8
0
  6
Continuous
 62
     7
100
AcDbLine
 10
6274.0532146886
 20
5182.3615695291
 30
0.0
 11
6275.1366557673
 21
5182.3469961934
 31
0.0
  0
LINE
  5
177
330
1F
100
AcDbEntity
  8
0
  6
Continuous
 62
     7
100
AcDbLine
 10
6275.1366557673
 20
5182.3469961934
 30
0.0
 11
6276.0910080865
 21
5182.3341513925
 31
0.0
  0
LINE
  5
178
330
1F
100
AcDbEntity
  8
0
  6
Continuous
 62
     7
100
AcDbLine
 10
6276.0910080865
 20
5182.3341513925
 30
0.0
 11
6276.8314616874
 21
5182.3241974168
 31
0.0
  0
LINE
  5
179
330
1F
100
AcDbEntity
  8
0
  6
Continuous
 62
     7
100
AcDbLine
 10
6276.8314616874
 20
5182.3241974168
 30
0.0
 11
6277.2922279432
 21
5182.3179985337
 31
0.0
  0
LINE
  5
17A
330
1F
100
AcDbEntity
  8
0
  6
Continuous
 62
     7
100
AcDbLine
 10
6277.2922279432
 20
5182.3179985337
 30
0.0
 11
6277.4334387973
 21
5182.3160911851
 31
0.0
  0
LINE
  5
17B
330
1F
100
AcDbEntity
  8
0
  6
Continuous
 62
     7
100
AcDbLine
 10
6269.9388923243
 20
5182.7718432002
 30
0.0
 11
6269.9951814607
 21
5182.771083241
 31
0.0
  0
LINE
  5
17C
330
1F
100
AcDbEntity
  8
0
  6
Continuous
 62
     7
100
AcDbLine
 10
6269.9951814607
 20
5182.771083241
 30
0.0
 11
6270.3500451639
 21
5182.7662999683
 31
0.0
  0
LINE
  5
17D
330
1F
100
AcDbEntity
  8
0
  6
Continuous
 62
     7
100
AcDbLine
 10
6270.3500451639
 20
5182.7662999683
 30
0.0
 11
6271.0015537336
 21
5182.7575380855
 31
0.0
  0
LINE
  5
17E
330
1F
100
AcDbEntity
  8
0
  6
Continuous
 62
     7
100
AcDbLine
 10
6271.0015537336
 20
5182.7575380855
 30
0.0
 11
6271.8918161586
 21
5182.745572453
 31
0.0
  0
LINE
  5
17F
330
1F
100
AcDbEntity
  8
0
  6
Continuous
 62
     7
100
AcDbLine
 10
6271.8918161586
 20
5182.745572453
 30
0.0
 11
6272.941722174
 21
5182.7314461522
 31
0.0
  0
LINE
  5
180
330
1F
100
AcDbEntity
  8
0
  6
Continuous
 62
     7
100
AcDbLine
 10
6272.941722174
 20
5182.7314461522
 30
0.0
 11
6274.0579905108
 21
5182.7164257817
 31
0.0
  0
LINE
  5
181
330
1F
100
AcDbEntity
  8
0
  6
Continuous
 62
     7
100
AcDbLine
 10
6274.0579905108
 20
5182.7164257817
 30
0.0
 11
6275.1414315894
 21
5182.7018524461
 31
0.0
  0
LINE
  5
182
330
1F
100
AcDbEntity
  8
0
  6
Continuous
 62
     7
100
AcDbLine
 10
6275.1414315894
 20
5182.7018524461
 30
0.0
 11
6276.0957764581
 21
5182.6890225463
 31
0.0
  0
LINE
  5
183
330
1F
100
AcDbEntity
  8
0
  6
Continuous
 62
     7
100
AcDbLine
 10
6276.0957764581
 20
5182.6890225463
 30
0.0
 11
6276.836230059
 21
5182.6790536695
 31
0.0
  0
LINE
  5
184
330
1F
100
AcDbEntity
  8
0
  6
Continuous
 62
     7
100
AcDbLine
 10
6276.836230059
 20
5182.6790536695
 30
0.0
 11
6277.2970037654
 21
5182.6728547864
 31
0.0
  0
LINE
  5
185
330
1F
100
AcDbEntity
  8
0
  6
Continuous
 62
     7
100
AcDbLine
 10
6277.2970037654
 20
5182.6728547864
 30
0.0
 11
6277.4382146195
 21
5182.6709623389
 31
0.0
  0
LINE
  5
186
330
1F
100
AcDbEntity
  8
0
  6
Continuous
 62
     7
100
AcDbLine
 10
6270.7530917719
 20
5182.9373503976
 30
0.0
 11
6270.7507224873
 21
5182.7609206491
 31
0.0
  0
LINE
  5
187
330
1F
100
AcDbEntity
  8
0
  6
Continuous
 62
     7
100
AcDbLine
 10
6276.6621248916
 20
5182.6813931518
 30
0.0
 11
6276.6645537808
 21
5182.8621591382
 31
0.0
  0
LINE
  5
188
330
1F
100
AcDbEntity
  8
0
  6
Continuous
 62
     7
100
AcDbLine
 10
6270.7149895027
 20
5182.7613974862
 30
0.0
 11
6270.717418392
 21
5182.9421634727
 31
0.0
  0
LINE
  5
189
330
1F
100
AcDbEntity
  8
0
  6
Continuous
 62
     7
100
AcDbLine
 10
6362.5187553585
 20
5215.0634045653
 30
0.0
 11
6362.5187553585
 21
5199.4749422126
 31
0.0
  0
LINE
  5
18A
330
1F
100
AcDbEntity
  8
0
  6
Continuous
 62
     7
100
AcDbLine
 10
6362.5187553585
 20
5199.4749422126
 30
0.0
 11
6359.0187557161
 21
5199.4749422126
 31
0.0
  0
LINE
  5
18B
330
1F
100
AcDbEntity
  8
0
  6
Continuous
 62
     7
100
AcDbLine
 10
6362.5187553585
 20
5215.0634045653
 30
0.0
 11
6359.0187557161
 21
5215.0634045653
 31
0.0
  0
LINE
  5
18C
330
1F
100
AcDbEntity
  8
0
  6
Continuous
 62
     7
100
AcDbLine
 10
6370.0187547252
 20
5220.4693223291
 30
0.0
 11
6370.0187547252
 21
5220.4896773152
 31
0.0
  0
LINE
  5
18D
330
1F
100
AcDbEntity
  8
0
  6
Continuous
 62
     7
100
AcDbLine
 10
6371.5187559023
 20
5217.4194271617
 30
0.0
 11
6371.5187559023
 21
5195.5486799531
 31
0.0
  0
LINE
  5
18E
330
1F
100
AcDbEntity
  8
0
  6
Continuous
 62
     7
100
AcDbLine
 10
6371.5187559023
 20
5218.9896742754
 30
0.0
 11
6371.5187559023
 21
5217.4194271617
 31
0.0
  0
LINE
  5
18F
330
1F
100
AcDbEntity
  8
0
  6
Continuous
 62
     7
100
AcDbLine
 10
6362.5187553585
 20
5222.8576357417
 30
0.0
 11
6359.0187557161
 21
5222.8576357417
 31
0.0
  0
LINE
  5
190
330
1F
100
AcDbEntity
  8
0
  6
Continuous
 62
     7
100
AcDbLine
 10
6362.5187553585
 20
5222.8576357417
 30
0.0
 11
6362.5187553585
 21
5215.0634045653
 31
0.0
  0
LINE
  5
191
330
1F
100
AcDbEntity
  8
0
  6
Continuous
 62
     7
100
AcDbLine
 10
6362.5187553585
 20
5191.6807259374
 30
0.0
 11
6359.0187557161
 21
5191.6807259374
 31
0.0
  0
LINE
  5
192
330
1F
100
AcDbEntity
  8
0
  6
Continuous
 62
     7
100
AcDbLine
 10
6362.5187553585
 20
5199.4749422126
 30
0.0
 11
6362.5187553585
 21
5191.6807259374
 31
0.0
  0
LINE
  5
193
330
1F
100
AcDbEntity
  8
0
  6
Continuous
 62
     7
100
AcDbLine
 10
6266.224524577
 20
5344.7691773005
 30
0.0
 11
6281.8129869297
 21
5344.7691773005
 31
0.0
  0
LINE
  5
194
330
1F
100
AcDbEntity
  8
0
  6
Continuous
 62
     7
100
AcDbLine
 10
6281.8129869297
 20
5344.7691773005
 30
0.0
 11
6281.8129869297
 21
5339.2691773303
 31
0.0
  0
LINE
  5
195
330
1F
100
AcDbEntity
  8
0
  6
Continuous
 62
     7
100
AcDbLine
 10
6266.224524577
 20
5344.7691773005
 30
0.0
 11
6266.224524577
 21
5339.2691773303
 31
0.0
  0
LINE
  5
196
330
1F
100
AcDbEntity
  8
0
  6
Continuous
 62
     7
100
AcDbLine
 10
6262.2982548669
 20
5353.7691778444
 30
0.0
 11
6285.7392566398
 21
5353.7691778444
 31
0.0
  0
LINE
  5
197
330
1F
100
AcDbEntity
  8
0
  6
Continuous
 62
     7
100
AcDbLine
 10
6289.6072143808
 20
5344.7691773005
 30
0.0
 11
6289.6072143808
 21
5339.2691773303
 31
0.0
  0
LINE
  5
198
330
1F
100
AcDbEntity
  8
0
  6
Continuous
 62
     7
100
AcDbLine
 10
6281.8129869297
 20
5344.7691773005
 30
0.0
 11
6289.6072143808
 21
5344.7691773005
 31
0.0
  0
LINE
  5
199
330
1F
100
AcDbEntity
  8
0
  6
Continuous
 62
     7
100
AcDbLine
 10
6258.4303008512
 20
5344.7691773005
 30
0.0
 11
6258.4303008512
 21
5339.2691773303
 31
0.0
  0
LINE
  5
19A
330
1F
100
AcDbEntity
  8
0
  6
Continuous
 62
     7
100
AcDbLine
 10
6258.4303008512
 20
5344.7691773005
 30
0.0
 11
6266.224524577
 21
5344.7691773005
 31
0.0
  0
LINE
  5
19B
330
1F
100
AcDbEntity
  8
0
  6
Continuous
 62
     7
100
AcDbLine
 10
6185.5187552169
 20
5215.0634045653
 30
0.0
 11
6189.0187548593
 21
5215.0634045653
 31
0.0
  0
LINE
  5
19C
330
1F
100
AcDbEntity
  8
0
  6
Continuous
 62
     7
100
AcDbLine
 10
6185.5187552169
 20
5199.4749422126
 30
0.0
 11
6189.0187548593
 21
5199.4749422126
 31
0.0
  0
LINE
  5
19D
330
1F
100
AcDbEntity
  8
0
  6
Continuous
 62
     7
100
AcDbLine
 10
6185.5187552169
 20
5199.4749422126
 30
0.0
 11
6185.5187552169
 21
5215.0634045653
 31
0.0
  0
LINE
  5
19E
330
1F
100
AcDbEntity
  8
0
  6
Continuous
 62
     7
100
AcDbLine
 10
6178.0187623694
 20
5220.4693223291
 30
0.0
 11
6178.0187623694
 21
5208.0025042348
 31
0.0
  0
LINE
  5
19F
330
1F
100
AcDbEntity
  8
0
  6
Continuous
 62
     7
100
AcDbLine
 10
6176.518751879
 20
5195.5486799531
 30
0.0
 11
6176.518751879
 21
5218.9896742754
 31
0.0
  0
LINE
  5
1A0
330
1F
100
AcDbEntity
  8
0
  6
Continuous
 62
     7
100
AcDbLine
 10
6185.5187552169
 20
5191.6807259374
 30
0.0
 11
6189.0187548593
 21
5191.6807259374
 31
0.0
  0
LINE
  5
1A1
330
1F
100
AcDbEntity
  8
0
  6
Continuous
 62
     7
100
AcDbLine
 10
6185.5187552169
 20
5191.6807259374
 30
0.0
 11
6185.5187552169
 21
5199.4749422126
 31
0.0
  0
LINE
  5
1A2
330
1F
100
AcDbEntity
  8
0
  6
Continuous
 62
     7
100
AcDbLine
 10
6185.5187552169
 20
5222.8576357417
 30
0.0
 11
6189.0187548593
 21
5222.8576357417
 31
0.0
  0
LINE
  5
1A3
330
1F
100
AcDbEntity
  8
0
  6
Continuous
 62
     7
100
AcDbLine
 10
6185.5187552169
 20
5215.0634045653
 30
0.0
 11
6185.5187552169
 21
5222.8576357417
 31
0.0
  0
LINE
  5
1A4
330
1F
100
AcDbEntity
  8
0
  6
Continuous
 62
     7
100
AcDbLine
 10
6199.0187548593
 20
5179.2691708856
 30
0.0
 11
6268.9786689475
 21
5179.26917625
 31
0.0
  0
LINE
  5
1A5
330
1F
100
AcDbEntity
  8
0
  6
Continuous
 62
     7
100
AcDbLine
 10
6279.0588425592
 20
5179.26917625
 30
0.0
 11
6349.0187557161
 21
5179.2691708856
 31
0.0
  0
LINE
  5
1A6
330
1F
100
AcDbEntity
  8
0
  6
Continuous
 62
     7
100
AcDbLine
 10
6630.9356473878
 20
5271.1744571977
 30
0.0
 11
6630.9356473878
 21
5269.1746096068
 31
0.0
  0
LINE
  5
1A7
330
1F
100
AcDbEntity
  8
0
  6
Continuous
 62
     7
100
AcDbLine
 10
6630.9356473878
 20
5269.1746096068
 30
0.0
 11
6630.9356473878
 21
5268.9128185563
 31
0.0
  0
LINE
  5
1A8
330
1F
100
AcDbEntity
  8
0
  6
Continuous
 62
     7
100
AcDbLine
 10
6592.7817419663
 20
5173.2691789918
 30
0.0
 11
6592.7817419663
 21
5172.369178658
 31
0.0
  0
LINE
  5
1A9
330
1F
100
AcDbEntity
  8
0
  6
Continuous
 62
     7
100
AcDbLine
 10
6605.9817418948
 20
5172.369178658
 30
0.0
 11
6605.9817418948
 21
5173.2691789918
 31
0.0
  0
LINE
  5
1AA
330
1F
100
AcDbEntity
  8
0
  6
Continuous
 62
     7
100
AcDbLine
 10
6644.6216114357
 20
5178.8191760831
 30
0.0
 11
6644.9317418531
 21
5178.8191760831
 31
0.0
  0
LINE
  5
1AB
330
1F
100
AcDbEntity
  8
0
  6
Continuous
 62
     7
100
AcDbLine
 10
6644.9317418531
 20
5235.7191781454
 30
0.0
 11
6644.6317442253
 21
5235.7191781454
 31
0.0
  0
LINE
  5
1AC
330
1F
100
AcDbEntity
  8
0
  6
Continuous
 62
     7
100
AcDbLine
 10
6671.5817384914
 20
5182.7191824966
 30
0.0
 11
6674.5317437246
 21
5182.7191824966
 31
0.0
  0
LINE
  5
1AD
330
1F
100
AcDbEntity
  8
0
  6
Continuous
 62
     7
100
AcDbLine
 10
6652.3317404583
 20
5182.7191824966
 30
0.0
 11
6664.0817381933
 21
5182.7191824966
 31
0.0
  0
LINE
  5
1AE
330
1F
100
AcDbEntity
  8
0
  6
Continuous
 62
     7
100
AcDbLine
 10
6674.5317437246
 20
5231.8191791825
 30
0.0
 11
6652.3317404583
 21
5231.8191791825
 31
0.0
  0
LINE
  5
1AF
330
1F
100
AcDbEntity
  8
0
  6
Continuous
 62
     7
100
AcDbLine
 10
6664.0817381933
 20
5182.7214027696
 30
0.0
 11
6664.0817381933
 21
5182.3665316157
 31
0.0
  0
LINE
  5
1B0
330
1F
100
AcDbEntity
  8
0
  6
Continuous
 62
     7
100
AcDbLine
 10
6671.5811275438
 20
5182.3656226449
 30
0.0
 11
6671.5817384914
 21
5182.7214027696
 31
0.0
  0
LINE
  5
1B1
330
1F
100
AcDbEntity
  8
0
  6
Continuous
 62
     7
100
AcDbLine
 10
6646.4317374423
 20
5183.8691796117
 30
0.0
 11
6652.3317404583
 21
5183.8691796117
 31
0.0
  0
LINE
  5
1B2
330
1F
100
AcDbEntity
  8
0
  6
Continuous
 62
     7
100
AcDbLine
 10
6652.3317404583
 20
5230.6691746168
 30
0.0
 11
6646.4317374423
 21
5230.6691746168
 31
0.0
  0
LINE
  5
1B3
330
1F
100
AcDbEntity
  8
0
  6
Continuous
 62
     7
100
AcDbLine
 10
6634.6317388609
 20
5230.6691746168
 30
0.0
 11
6630.6317382052
 21
5230.6691746168
 31
0.0
  0
LINE
  5
1B4
330
1F
100
AcDbEntity
  8
0
  6
Continuous
 62
     7
100
AcDbLine
 10
6596.4235485092
 20
5352.6978700363
 30
0.0
 11
6595.352240701
 21
5353.7691778444
 31
0.0
  0
LINE
  5
1B5
330
1F
100
AcDbEntity
  8
0
  6
Continuous
 62
     7
100
AcDbLine
 10
6571.0280675933
 20
5352.8860027843
 30
0.0
 11
6570.4112414762
 21
5352.2691766672
 31
0.0
  0
LINE
  5
1B6
330
1F
100
AcDbEntity
  8
0
  6
Continuous
 62
     7
100
AcDbLine
 10
6571.9112407908
 20
5353.7691778444
 30
0.0
 11
6571.2751251206
 21
5353.1330621742
 31
0.0
  0
LINE
  5
1B7
330
1F
100
AcDbEntity
  8
0
  6
Continuous
 62
     7
100
AcDbLine
 10
6596.4941911891
 20
5344.7691773005
 30
0.0
 11
6596.8448974684
 21
5344.9717772134
 31
0.0
  0
LINE
  5
1B8
330
1F
100
AcDbEntity
  8
0
  6
Continuous
 62
     7
100
AcDbLine
 10
6596.8522400156
 20
5351.3301259779
 30
0.0
 11
6596.8522400156
 21
5351.7271767311
 31
0.0
  0
LINE
  5
1B9
330
1F
100
AcDbEntity
  8
0
  6
Continuous
 62
     7
100
AcDbLine
 10
6596.8522400156
 20
5349.7426261135
 30
0.0
 11
6596.8522400156
 21
5350.1396759354
 31
0.0
  0
LINE
  5
1BA
330
1F
100
AcDbEntity
  8
0
  6
Continuous
 62
     7
100
AcDbLine
 10
6596.8522400156
 20
5348.1551253178
 30
0.0
 11
6596.8522400156
 21
5348.552176071
 31
0.0
  0
LINE
  5
1BB
330
1F
100
AcDbEntity
  8
0
  6
Continuous
 62
     7
100
AcDbLine
 10
6596.8522400156
 20
5346.5676254534
 30
0.0
 11
6596.8522400156
 21
5346.9646762066
 31
0.0
  0
LINE
  5
1BC
330
1F
100
AcDbEntity
  8
0
  6
Continuous
 62
     7
100
AcDbLine
 10
6596.8522400156
 20
5344.980125589
 30
0.0
 11
6596.8522400156
 21
5345.3771763422
 31
0.0
  0
LINE
  5
1BD
330
1F
100
AcDbEntity
  8
0
  6
Continuous
 62
     7
100
AcDbLine
 10
6570.4112414762
 20
5346.1708149814
 30
0.0
 11
6570.4112414762
 21
5345.7739393168
 31
0.0
  0
LINE
  5
1BE
330
1F
100
AcDbEntity
  8
0
  6
Continuous
 62
     7
100
AcDbLine
 10
6570.4112414762
 20
5347.7583148458
 30
0.0
 11
6570.4112414762
 21
5347.3614391812
 31
0.0
  0
LINE
  5
1BF
330
1F
100
AcDbEntity
  8
0
  6
Continuous
 62
     7
100
AcDbLine
 10
6570.4112414762
 20
5349.3458147102
 30
0.0
 11
6570.4112414762
 21
5348.9489399769
 31
0.0
  0
LINE
  5
1C0
330
1F
100
AcDbEntity
  8
0
  6
Continuous
 62
     7
100
AcDbLine
 10
6570.4112414762
 20
5350.9333136432
 30
0.0
 11
6570.4112414762
 21
5350.5364398413
 31
0.0
  0
LINE
  5
1C1
330
1F
100
AcDbEntity
  8
0
  6
Continuous
 62
     7
100
AcDbLine
 10
6570.4112414762
 20
5352.2691766672
 30
0.0
 11
6570.4112414762
 21
5352.1239387744
 31
0.0
  0
LINE
  5
1C2
330
1F
100
AcDbEntity
  8
0
  6
Continuous
 62
     7
100
AcDbLine
 10
6571.2783437714
 20
5353.0262152605
 30
0.0
 11
6571.0692339137
 21
5352.9054115467
 31
0.0
  0
LINE
  5
1C3
330
1F
100
AcDbEntity
  8
0
  6
Continuous
 62
     7
100
AcDbLine
 10
6571.2705243871
 20
5351.6285291814
 30
0.0
 11
6571.2705243871
 21
5351.434199413
 31
0.0
  0
LINE
  5
1C4
330
1F
100
AcDbEntity
  8
0
  6
Continuous
 62
     7
100
AcDbLine
 10
6571.2705243871
 20
5350.0410283856
 30
0.0
 11
6571.2705243871
 21
5349.8466986172
 31
0.0
  0
LINE
  5
1C5
330
1F
100
AcDbEntity
  8
0
  6
Continuous
 62
     7
100
AcDbLine
 10
6571.2705243871
 20
5348.4535294526
 30
0.0
 11
6571.2705243871
 21
5348.2591987528
 31
0.0
  0
LINE
  5
1C6
330
1F
100
AcDbEntity
  8
0
  6
Continuous
 62
     7
100
AcDbLine
 10
6571.2705243871
 20
5346.8660295882
 30
0.0
 11
6571.2705243871
 21
5346.6716988884
 31
0.0
  0
LINE
  5
1C7
330
1F
100
AcDbEntity
  8
0
  6
Continuous
 62
     7
100
AcDbLine
 10
6571.2705243871
 20
5345.2785287925
 30
0.0
 11
6571.2705243871
 21
5345.084199024
 31
0.0
  0
LINE
  5
1C8
330
1F
100
AcDbEntity
  8
0
  6
Continuous
 62
     7
100
AcDbLine
 10
6595.9929571047
 20
5350.6363409512
 30
0.0
 11
6595.9929571047
 21
5350.8296090119
 31
0.0
  0
LINE
  5
1C9
330
1F
100
AcDbEntity
  8
0
  6
Continuous
 62
     7
100
AcDbLine
 10
6595.9929571047
 20
5349.0488420181
 30
0.0
 11
6595.9929571047
 21
5349.2421091475
 31
0.0
  0
LINE
  5
1CA
330
1F
100
AcDbEntity
  8
0
  6
Continuous
 62
     7
100
AcDbLine
 10
6595.9929571047
 20
5347.4613421537
 30
0.0
 11
6595.9929571047
 21
5347.6546092831
 31
0.0
  0
LINE
  5
1CB
330
1F
100
AcDbEntity
  8
0
  6
Continuous
 62
     7
100
AcDbLine
 10
6595.9929571047
 20
5345.873841358
 30
0.0
 11
6595.9929571047
 21
5346.0671094187
 31
0.0
  0
LINE
  5
1CC
330
1F
100
AcDbEntity
  8
0
  6
Continuous
 62
     7
100
AcDbLine
 10
6595.9929571047
 20
5352.2238417469
 30
0.0
 11
6595.9929571047
 21
5352.4171098076
 31
0.0
  0
LINE
  5
1CD
330
1F
100
AcDbEntity
  8
0
  6
Continuous
 62
     7
100
AcDbLine
 10
6571.2705243871
 20
5353.2160299771
 30
0.0
 11
6571.2705243871
 21
5353.021698346
 31
0.0
  0
LINE
  5
1CE
330
1F
100
AcDbEntity
  8
0
  6
Continuous
 62
     7
100
AcDbLine
 10
6634.6317388609
 20
5266.7691747599
 30
0.0
 11
6630.6317382052
 21
5266.7691747599
 31
0.0
  0
LINE
  5
1CF
330
1F
100
AcDbEntity
  8
0
  6
Continuous
 62
     7
100
AcDbLine
 10
6634.6317388609
 20
5268.2691777997
 30
0.0
 11
6630.6317382052
 21
5268.2691777997
 31
0.0
  0
LINE
  5
1D0
330
1F
100
AcDbEntity
  8
0
  6
Continuous
 62
     7
100
AcDbLine
 10
6634.1052659348
 20
5269.2182551079
 30
0.0
 11
6634.6317388609
 21
5269.744728034
 31
0.0
  0
LINE
  5
1D1
330
1F
100
AcDbEntity
  8
0
  6
Continuous
 62
     7
100
AcDbLine
 10
6631.8356477216
 20
5269.2182551079
 30
0.0
 11
6634.1052659348
 21
5269.2182551079
 31
0.0
  0
LINE
  5
1D2
330
1F
100
AcDbEntity
  8
0
  6
Continuous
 62
     7
100
AcDbLine
 10
6631.8356477216
 20
5271.2182517104
 30
0.0
 11
6631.8356477216
 21
5269.2182551079
 31
0.0
  0
LINE
  5
1D3
330
1F
100
AcDbEntity
  8
0
  6
Continuous
 62
     7
100
AcDbLine
 10
6630.6317382052
 20
5271.2182517104
 30
0.0
 11
6631.8356477216
 21
5271.2182517104
 31
0.0
  0
LINE
  5
1D4
330
1F
100
AcDbEntity
  8
0
  6
Continuous
 62
     7
100
AcDbLine
 10
6631.8356477216
 20
5269.2182551079
 30
0.0
 11
6631.3356467083
 21
5269.2007983976
 31
0.0
  0
LINE
  5
1D5
330
1F
100
AcDbEntity
  8
0
  6
Continuous
 62
     7
100
AcDbLine
 10
6631.3356467083
 20
5269.2007983976
 30
0.0
 11
6631.3356467083
 21
5271.2007950001
 31
0.0
  0
LINE
  5
1D6
330
1F
100
AcDbEntity
  8
0
  6
Continuous
 62
     7
100
AcDbLine
 10
6631.3356467083
 20
5271.2007950001
 30
0.0
 11
6631.8356477216
 21
5271.2182517104
 31
0.0
  0
LINE
  5
1D7
330
1F
100
AcDbEntity
  8
0
  6
Continuous
 62
     7
100
AcDbLine
 10
6634.6317388609
 20
5269.2510600143
 30
0.0
 11
6634.2498593524
 21
5268.8691805058
 31
0.0
  0
LINE
  5
1D8
330
1F
100
AcDbEntity
  8
0
  6
Continuous
 62
     7
100
AcDbLine
 10
6634.1052659348
 20
5269.2182551079
 30
0.0
 11
6634.2498593524
 21
5268.8691805058
 31
0.0
  0
LINE
  5
1D9
330
1F
100
AcDbEntity
  8
0
  6
Continuous
 62
     7
100
AcDbLine
 10
6634.2498593524
 20
5268.8691805058
 30
0.0
 11
6631.8356477216
 21
5268.8691805058
 31
0.0
  0
LINE
  5
1DA
330
1F
100
AcDbEntity
  8
0
  6
Continuous
 62
     7
100
AcDbLine
 10
6631.3356467083
 20
5268.8866297655
 30
0.0
 11
6631.8356477216
 21
5268.8691805058
 31
0.0
  0
LINE
  5
1DB
330
1F
100
AcDbEntity
  8
0
  6
Continuous
 62
     7
100
AcDbLine
 10
6631.3356467083
 20
5268.9084525161
 30
0.0
 11
6631.3356467083
 21
5268.8866297655
 31
0.0
  0
LINE
  5
1DC
330
1F
100
AcDbEntity
  8
0
  6
Continuous
 62
     7
100
AcDbLine
 10
6631.3356467083
 20
5268.9084525161
 30
0.0
 11
6631.1764874056
 21
5268.9090262108
 31
0.0
  0
LINE
  5
1DD
330
1F
100
AcDbEntity
  8
0
  6
Continuous
 62
     7
100
AcDbLine
 10
6631.1764874056
 20
5268.9090262108
 30
0.0
 11
6631.0479499891
 21
5268.9100245886
 31
0.0
  0
LINE
  5
1DE
330
1F
100
AcDbEntity
  8
0
  6
Continuous
 62
     7
100
AcDbLine
 10
6631.0479499891
 20
5268.9100245886
 30
0.0
 11
6630.9645332888
 21
5268.9113358908
 31
0.0
  0
LINE
  5
1DF
330
1F
100
AcDbEntity
  8
0
  6
Continuous
 62
     7
100
AcDbLine
 10
6630.9645332888
 20
5268.9113358908
 30
0.0
 11
6630.9356473878
 21
5268.9128185563
 31
0.0
  0
LINE
  5
1E0
330
1F
100
AcDbEntity
  8
0
  6
Continuous
 62
     7
100
AcDbLine
 10
6630.9356473878
 20
5268.9128185563
 30
0.0
 11
6630.9645332888
 21
5268.9142937713
 31
0.0
  0
LINE
  5
1E1
330
1F
100
AcDbEntity
  8
0
  6
Continuous
 62
     7
100
AcDbLine
 10
6630.9645332888
 20
5268.9142937713
 30
0.0
 11
6631.0479499891
 21
5268.915612524
 31
0.0
  0
LINE
  5
1E2
330
1F
100
AcDbEntity
  8
0
  6
Continuous
 62
     7
100
AcDbLine
 10
6631.0479499891
 20
5268.915612524
 30
0.0
 11
6631.1764874056
 21
5268.9166109018
 31
0.0
  0
LINE
  5
1E3
330
1F
100
AcDbEntity
  8
0
  6
Continuous
 62
     7
100
AcDbLine
 10
6631.1764874056
 20
5268.9166109018
 30
0.0
 11
6631.3356467083
 21
5268.917177146
 31
0.0
  0
LINE
  5
1E4
330
1F
100
AcDbEntity
  8
0
  6
Continuous
 62
     7
100
AcDbLine
 10
6631.3356467083
 20
5269.1702510171
 30
0.0
 11
6631.3356467083
 21
5268.917177146
 31
0.0
  0
LINE
  5
1E5
330
1F
100
AcDbEntity
  8
0
  6
Continuous
 62
     7
100
AcDbLine
 10
6631.3356467083
 20
5269.1702510171
 30
0.0
 11
6631.1764874056
 21
5269.1708172612
 31
0.0
  0
LINE
  5
1E6
330
1F
100
AcDbEntity
  8
0
  6
Continuous
 62
     7
100
AcDbLine
 10
6631.1764874056
 20
5269.1708172612
 30
0.0
 11
6631.0479499891
 21
5269.171815639
 31
0.0
  0
LINE
  5
1E7
330
1F
100
AcDbEntity
  8
0
  6
Continuous
 62
     7
100
AcDbLine
 10
6631.0479499891
 20
5269.171815639
 30
0.0
 11
6630.9645332888
 21
5269.1731343918
 31
0.0
  0
LINE
  5
1E8
330
1F
100
AcDbEntity
  8
0
  6
Continuous
 62
     7
100
AcDbLine
 10
6630.9645332888
 20
5269.1731343918
 30
0.0
 11
6630.9356473878
 21
5269.1746096068
 31
0.0
  0
LINE
  5
1E9
330
1F
100
AcDbEntity
  8
0
  6
Continuous
 62
     7
100
AcDbLine
 10
6630.9356473878
 20
5269.1746096068
 30
0.0
 11
6630.9645332888
 21
5269.1760922723
 31
0.0
  0
LINE
  5
1EA
330
1F
100
AcDbEntity
  8
0
  6
Continuous
 62
     7
100
AcDbLine
 10
6630.9645332888
 20
5269.1760922723
 30
0.0
 11
6631.0479499891
 21
5269.1774035745
 31
0.0
  0
LINE
  5
1EB
330
1F
100
AcDbEntity
  8
0
  6
Continuous
 62
     7
100
AcDbLine
 10
6631.0479499891
 20
5269.1774035745
 30
0.0
 11
6631.1764874056
 21
5269.1784019523
 31
0.0
  0
LINE
  5
1EC
330
1F
100
AcDbEntity
  8
0
  6
Continuous
 62
     7
100
AcDbLine
 10
6631.1764874056
 20
5269.1784019523
 30
0.0
 11
6631.3356467083
 21
5269.178975647
 31
0.0
  0
LINE
  5
1ED
330
1F
100
AcDbEntity
  8
0
  6
Continuous
 62
     7
100
AcDbLine
 10
6631.3356467083
 20
5269.2007983976
 30
0.0
 11
6631.3356467083
 21
5269.178975647
 31
0.0
  0
LINE
  5
1EE
330
1F
100
AcDbEntity
  8
0
  6
Continuous
 62
     7
100
AcDbLine
 10
6630.9356473878
 20
5270.8691771083
 30
0.0
 11
6630.6317382052
 21
5270.8691771083
 31
0.0
  0
LINE
  5
1EF
330
1F
100
AcDbEntity
  8
0
  6
Continuous
 62
     7
100
AcDbLine
 10
6644.6317442253
 20
5329.2691775538
 30
0.0
 11
6644.6317442253
 21
5179.26917625
 31
0.0
  0
LINE
  5
1F0
330
1F
100
AcDbEntity
  8
0
  6
Continuous
 62
     7
100
AcDbLine
 10
6634.6317442253
 20
5329.2691773303
 30
0.0
 11
6634.6317442253
 21
5179.2691708856
 31
0.0
  0
LINE
  5
1F1
330
1F
100
AcDbEntity
  8
0
  6
Continuous
 62
     7
100
AcDbLine
 10
6634.6317442253
 20
5329.2691773303
 30
0.0
 11
6644.6317442253
 21
5329.2691775538
 31
0.0
  0
LINE
  5
1F2
330
1F
100
AcDbEntity
  8
0
  6
Continuous
 62
     7
100
AcDbLine
 10
6634.6317442253
 20
5179.2691708856
 30
0.0
 11
6644.6317442253
 21
5179.26917625
 31
0.0
  0
LINE
  5
1F3
330
1F
100
AcDbEntity
  8
0
  6
Continuous
 62
     7
100
AcDbLine
 10
6634.6317388609
 20
5339.2691773303
 30
0.0
 11
6634.6317442253
 21
5329.2691773303
 31
0.0
  0
LINE
  5
1F4
330
1F
100
AcDbEntity
  8
0
  6
Continuous
 62
     7
100
AcDbLine
 10
6634.6317442253
 20
5179.2691708856
 30
0.0
 11
6634.6317388609
 21
5169.2691708856
 31
0.0
  0
LINE
  5
1F5
330
1F
100
AcDbEntity
  8
0
  6
Continuous
 62
     7
100
AcDbLine
 10
6593.5817406073
 20
5171.569180017
 30
0.0
 11
6605.1817395285
 21
5171.569180017
 31
0.0
  0
LINE
  5
1F6
330
1F
100
AcDbEntity
  8
0
  6
Continuous
 62
     7
100
AcDbLine
 10
6587.5596970811
 20
5208.8920439534
 30
0.0
 11
6587.6082338884
 21
5208.7691838794
 31
0.0
  0
LINE
  5
1F7
330
1F
100
AcDbEntity
  8
0
  6
Continuous
 62
     7
100
AcDbLine
 10
6587.8522255018
 20
5207.7691818528
 30
0.0
 11
6587.8577985361
 21
5207.7196652942
 31
0.0
  0
LINE
  5
1F8
330
1F
100
AcDbEntity
  8
0
  6
Continuous
 62
     7
100
AcDbLine
 10
6587.8577985361
 20
5207.7196652942
 30
0.0
 11
6587.8522255018
 21
5206.7691798263
 31
0.0
  0
LINE
  5
1F9
330
1F
100
AcDbEntity
  8
0
  6
Continuous
 62
     7
100
AcDbLine
 10
6587.6082338884
 20
5205.7691777997
 30
0.0
 11
6587.4304779366
 21
5205.3633744769
 31
0.0
  0
LINE
  5
1FA
330
1F
100
AcDbEntity
  8
0
  6
Continuous
 62
     7
100
AcDbLine
 10
6587.4304779366
 20
5205.3633744769
 30
0.0
 11
6587.1317394569
 21
5204.8582698159
 31
0.0
  0
LINE
  5
1FB
330
1F
100
AcDbEntity
  8
0
  6
Continuous
 62
     7
100
AcDbLine
 10
6586.0426545635
 20
5203.7691737466
 30
0.0
 11
6585.7970871523
 21
5203.6121602111
 31
0.0
  0
LINE
  5
1FC
330
1F
100
AcDbEntity
  8
0
  6
Continuous
 62
     7
100
AcDbLine
 10
6585.7970871523
 20
5203.6121602111
 30
0.0
 11
6585.1317428544
 21
5203.2926793151
 31
0.0
  0
LINE
  5
1FD
330
1F
100
AcDbEntity
  8
0
  6
Continuous
 62
     7
100
AcDbLine
 10
6584.1317408279
 20
5203.0486877017
 30
0.0
 11
6583.4762145325
 21
5203.0220295243
 31
0.0
  0
LINE
  5
1FE
330
1F
100
AcDbEntity
  8
0
  6
Continuous
 62
     7
100
AcDbLine
 10
6583.4762145325
 20
5203.0220295243
 30
0.0
 11
6583.1317406639
 21
5203.0486877017
 31
0.0
  0
LINE
  5
1FF
330
1F
100
AcDbEntity
  8
0
  6
Continuous
 62
     7
100
AcDbLine
 10
6582.1317405
 20
5203.2926793151
 30
0.0
 11
6581.220828791
 21
5203.7691737466
 31
0.0
  0
LINE
  5
200
330
1F
100
AcDbEntity
  8
0
  6
Continuous
 62
     7
100
AcDbLine
 10
6580.1317401722
 20
5204.8582698159
 30
0.0
 11
6579.7037862733
 21
5205.6463177257
 31
0.0
  0
LINE
  5
201
330
1F
100
AcDbEntity
  8
0
  6
Continuous
 62
     7
100
AcDbLine
 10
6579.7037862733
 20
5205.6463177257
 30
0.0
 11
6579.6552476034
 21
5205.7691777997
 31
0.0
  0
LINE
  5
202
330
1F
100
AcDbEntity
  8
0
  6
Continuous
 62
     7
100
AcDbLine
 10
6579.41125599
 20
5206.7691798263
 30
0.0
 11
6579.4056829557
 21
5206.8186814838
 31
0.0
  0
LINE
  5
203
330
1F
100
AcDbEntity
  8
0
  6
Continuous
 62
     7
100
AcDbLine
 10
6579.4056829557
 20
5206.8186814838
 30
0.0
 11
6579.41125599
 21
5207.7691818528
 31
0.0
  0
LINE
  5
204
330
1F
100
AcDbEntity
  8
0
  6
Continuous
 62
     7
100
AcDbLine
 10
6579.6552476034
 20
5208.7691838794
 30
0.0
 11
6579.8330016926
 21
5209.1749872022
 31
0.0
  0
LINE
  5
205
330
1F
100
AcDbEntity
  8
0
  6
Continuous
 62
     7
100
AcDbLine
 10
6579.8330016926
 20
5209.1749872022
 30
0.0
 11
6580.1317401722
 21
5209.6800918632
 31
0.0
  0
LINE
  5
206
330
1F
100
AcDbEntity
  8
0
  6
Continuous
 62
     7
100
AcDbLine
 10
6581.220828791
 20
5210.7691804819
 30
0.0
 11
6581.4663943395
 21
5210.9261940174
 31
0.0
  0
LINE
  5
207
330
1F
100
AcDbEntity
  8
0
  6
Continuous
 62
     7
100
AcDbLine
 10
6581.4663943395
 20
5210.9261940174
 30
0.0
 11
6582.1317405
 21
5211.2456674628
 31
0.0
  0
LINE
  5
208
330
1F
100
AcDbEntity
  8
0
  6
Continuous
 62
     7
100
AcDbLine
 10
6583.1317406639
 20
5211.4896665268
 30
0.0
 11
6583.7872669592
 21
5211.5163321548
 31
0.0
  0
LINE
  5
209
330
1F
100
AcDbEntity
  8
0
  6
Continuous
 62
     7
100
AcDbLine
 10
6583.7872669592
 20
5211.5163321548
 30
0.0
 11
6584.1317408279
 21
5211.4896665268
 31
0.0
  0
LINE
  5
20A
330
1F
100
AcDbEntity
  8
0
  6
Continuous
 62
     7
100
AcDbLine
 10
6585.1317428544
 20
5211.2456674628
 30
0.0
 11
6586.0426545635
 21
5210.7691804819
 31
0.0
  0
LINE
  5
20B
330
1F
100
AcDbEntity
  8
0
  6
Continuous
 62
     7
100
AcDbLine
 10
6587.1317394569
 20
5209.6800918632
 30
0.0
 11
6587.5596970811
 21
5208.8920439534
 31
0.0
  0
LINE
  5
20C
330
1F
100
AcDbEntity
  8
0
  6
Continuous
 62
     7
100
AcDbLine
 10
6585.3087910011
 20
5207.7691818528
 30
0.0
 11
6585.3817396358
 21
5207.2675938659
 31
0.0
  0
LINE
  5
20D
330
1F
100
AcDbEntity
  8
0
  6
Continuous
 62
     7
100
AcDbLine
 10
6585.3817396358
 20
5207.2675938659
 30
0.0
 11
6585.3087910011
 21
5206.7691798263
 31
0.0
  0
LINE
  5
20E
330
1F
100
AcDbEntity
  8
0
  6
Continuous
 62
     7
100
AcDbLine
 10
6584.1317408279
 20
5205.5921222024
 30
0.0
 11
6583.6301621541
 21
5205.5191810184
 31
0.0
  0
LINE
  5
20F
330
1F
100
AcDbEntity
  8
0
  6
Continuous
 62
     7
100
AcDbLine
 10
6583.6301621541
 20
5205.5191810184
 30
0.0
 11
6583.1317406639
 21
5205.5921222024
 31
0.0
  0
LINE
  5
210
330
1F
100
AcDbEntity
  8
0
  6
Continuous
 62
     7
100
AcDbLine
 10
6581.9546904907
 20
5206.7691798263
 30
0.0
 11
6581.881741856
 21
5207.2707529121
 31
0.0
  0
LINE
  5
211
330
1F
100
AcDbEntity
  8
0
  6
Continuous
 62
     7
100
AcDbLine
 10
6581.881741856
 20
5207.2707529121
 30
0.0
 11
6581.9546904907
 21
5207.7691818528
 31
0.0
  0
LINE
  5
212
330
1F
100
AcDbEntity
  8
0
  6
Continuous
 62
     7
100
AcDbLine
 10
6583.1317406639
 20
5208.9462245755
 30
0.0
 11
6583.6333212003
 21
5209.0191806607
 31
0.0
  0
LINE
  5
213
330
1F
100
AcDbEntity
  8
0
  6
Continuous
 62
     7
100
AcDbLine
 10
6583.6333212003
 20
5209.0191806607
 30
0.0
 11
6584.1317408279
 21
5208.9462245755
 31
0.0
  0
LINE
  5
214
330
1F
100
AcDbEntity
  8
0
  6
Continuous
 62
     7
100
AcDbLine
 10
6646.4317374423
 20
5187.1587152534
 30
0.0
 11
6646.4317374423
 21
5234.2191751056
 31
0.0
  0
LINE
  5
215
330
1F
100
AcDbEntity
  8
0
  6
Continuous
 62
     7
100
AcDbLine
 10
6646.4317374423
 20
5180.3191716724
 30
0.0
 11
6646.4317374423
 21
5187.1587152534
 31
0.0
  0
LINE
  5
216
330
1F
100
AcDbEntity
  8
0
  6
Continuous
 62
     7
100
AcDbLine
 10
6674.5317437246
 20
5182.7191824966
 30
0.0
 11
6674.5317437246
 21
5231.8191791825
 31
0.0
  0
LINE
  5
217
330
1F
100
AcDbEntity
  8
0
  6
Continuous
 62
     7
100
AcDbLine
 10
6652.3317404583
 20
5182.7191824966
 30
0.0
 11
6652.3317404583
 21
5231.8191791825
 31
0.0
  0
LINE
  5
218
330
1F
100
AcDbEntity
  8
0
  6
Continuous
 62
     7
100
AcDbLine
 10
6667.154402335
 20
5182.7710087352
 30
0.0
 11
6667.154402335
 21
5182.9583014302
 31
0.0
  0
LINE
  5
219
330
1F
100
AcDbEntity
  8
0
  6
Continuous
 62
     7
100
AcDbLine
 10
6668.6503150061
 20
5182.9564089828
 30
0.0
 11
6668.6503150061
 21
5182.770621305
 31
0.0
  0
LINE
  5
21A
330
1F
100
AcDbEntity
  8
0
  6
Continuous
 62
     7
100
AcDbLine
 10
6668.5090818003
 20
5182.7710087352
 30
0.0
 11
6668.5090818003
 21
5182.9628015809
 31
0.0
  0
LINE
  5
21B
330
1F
100
AcDbEntity
  8
0
  6
Continuous
 62
     7
100
AcDbLine
 10
6668.6252810553
 20
5182.9577798896
 30
0.0
 11
6668.6252810553
 21
5182.7706958108
 31
0.0
  0
LINE
  5
21C
330
1F
100
AcDbEntity
  8
0
  6
Continuous
 62
     7
100
AcDbLine
 10
6668.5341157511
 20
5182.7709491305
 30
0.0
 11
6668.5341157511
 21
5182.9626078658
 31
0.0
  0
LINE
  5
21D
330
1F
100
AcDbEntity
  8
0
  6
Continuous
 62
     7
100
AcDbLine
 10
6587.1317394569
 20
5206.7691798263
 30
0.0
 11
6587.1317394569
 21
5207.7691818528
 31
0.0
  0
LINE
  5
21E
330
1F
100
AcDbEntity
  8
0
  6
Continuous
 62
     7
100
AcDbLine
 10
6588.1317414835
 20
5206.7691798263
 30
0.0
 11
6587.1317394569
 21
5206.7691798263
 31
0.0
  0
LINE
  5
21F
330
1F
100
AcDbEntity
  8
0
  6
Continuous
 62
     7
100
AcDbLine
 10
6588.1317414835
 20
5207.7691818528
 30
0.0
 11
6588.1317414835
 21
5206.7691798263
 31
0.0
  0
LINE
  5
220
330
1F
100
AcDbEntity
  8
0
  6
Continuous
 62
     7
100
AcDbLine
 10
6587.1317394569
 20
5207.7691818528
 30
0.0
 11
6588.1317414835
 21
5207.7691818528
 31
0.0
  0
LINE
  5
221
330
1F
100
AcDbEntity
  8
0
  6
Continuous
 62
     7
100
AcDbLine
 10
6587.1317394569
 20
5204.7691757732
 30
0.0
 11
6587.1317394569
 21
5205.7691777997
 31
0.0
  0
LINE
  5
222
330
1F
100
AcDbEntity
  8
0
  6
Continuous
 62
     7
100
AcDbLine
 10
6588.1317414835
 20
5204.7691757732
 30
0.0
 11
6587.1317394569
 21
5204.7691757732
 31
0.0
  0
LINE
  5
223
330
1F
100
AcDbEntity
  8
0
  6
Continuous
 62
     7
100
AcDbLine
 10
6588.1317414835
 20
5205.7691777997
 30
0.0
 11
6588.1317414835
 21
5204.7691757732
 31
0.0
  0
LINE
  5
224
330
1F
100
AcDbEntity
  8
0
  6
Continuous
 62
     7
100
AcDbLine
 10
6587.1317394569
 20
5205.7691777997
 30
0.0
 11
6588.1317414835
 21
5205.7691777997
 31
0.0
  0
LINE
  5
225
330
1F
100
AcDbEntity
  8
0
  6
Continuous
 62
     7
100
AcDbLine
 10
6587.1317394569
 20
5203.2753939681
 30
0.0
 11
6587.1317394569
 21
5203.7691737466
 31
0.0
  0
LINE
  5
226
330
1F
100
AcDbEntity
  8
0
  6
Continuous
 62
     7
100
AcDbLine
 10
6587.1317394569
 20
5203.7691737466
 30
0.0
 11
6587.8743835285
 21
5203.7691737466
 31
0.0
  0
LINE
  5
227
330
1F
100
AcDbEntity
  8
0
  6
Continuous
 62
     7
100
AcDbLine
 10
6587.1317394569
 20
5210.7691804819
 30
0.0
 11
6587.1317394569
 21
5211.5118171029
 31
0.0
  0
LINE
  5
228
330
1F
100
AcDbEntity
  8
0
  6
Continuous
 62
     7
100
AcDbLine
 10
6587.8743835285
 20
5210.7691804819
 30
0.0
 11
6587.1317394569
 21
5210.7691804819
 31
0.0
  0
LINE
  5
229
330
1F
100
AcDbEntity
  8
0
  6
Continuous
 62
     7
100
AcDbLine
 10
6587.1317394569
 20
5209.7691784554
 30
0.0
 11
6588.1317414835
 21
5209.7691784554
 31
0.0
  0
LINE
  5
22A
330
1F
100
AcDbEntity
  8
0
  6
Continuous
 62
     7
100
AcDbLine
 10
6587.1317394569
 20
5208.7691838794
 30
0.0
 11
6587.1317394569
 21
5209.7691784554
 31
0.0
  0
LINE
  5
22B
330
1F
100
AcDbEntity
  8
0
  6
Continuous
 62
     7
100
AcDbLine
 10
6588.1317414835
 20
5208.7691838794
 30
0.0
 11
6587.1317394569
 21
5208.7691838794
 31
0.0
  0
LINE
  5
22C
330
1F
100
AcDbEntity
  8
0
  6
Continuous
 62
     7
100
AcDbLine
 10
6588.1317414835
 20
5209.7691784554
 30
0.0
 11
6588.1317414835
 21
5208.7691838794
 31
0.0
  0
LINE
  5
22D
330
1F
100
AcDbEntity
  8
0
  6
Continuous
 62
     7
100
AcDbLine
 10
6583.1317406639
 20
5202.76917172
 30
0.0
 11
6583.1317406639
 21
5203.7691737466
 31
0.0
  0
LINE
  5
22E
330
1F
100
AcDbEntity
  8
0
  6
Continuous
 62
     7
100
AcDbLine
 10
6584.1317408279
 20
5202.76917172
 30
0.0
 11
6583.1317406639
 21
5202.76917172
 31
0.0
  0
LINE
  5
22F
330
1F
100
AcDbEntity
  8
0
  6
Continuous
 62
     7
100
AcDbLine
 10
6584.1317408279
 20
5203.7691737466
 30
0.0
 11
6584.1317408279
 21
5202.76917172
 31
0.0
  0
LINE
  5
230
330
1F
100
AcDbEntity
  8
0
  6
Continuous
 62
     7
100
AcDbLine
 10
6583.1317406639
 20
5203.7691737466
 30
0.0
 11
6584.1317408279
 21
5203.7691737466
 31
0.0
  0
LINE
  5
231
330
1F
100
AcDbEntity
  8
0
  6
Continuous
 62
     7
100
AcDbLine
 10
6583.1317406639
 20
5204.7691757732
 30
0.0
 11
6583.1317406639
 21
5205.7691777997
 31
0.0
  0
LINE
  5
232
330
1F
100
AcDbEntity
  8
0
  6
Continuous
 62
     7
100
AcDbLine
 10
6584.1317408279
 20
5204.7691757732
 30
0.0
 11
6583.1317406639
 21
5204.7691757732
 31
0.0
  0
LINE
  5
233
330
1F
100
AcDbEntity
  8
0
  6
Continuous
 62
     7
100
AcDbLine
 10
6584.1317408279
 20
5205.7691777997
 30
0.0
 11
6584.1317408279
 21
5204.7691757732
 31
0.0
  0
LINE
  5
234
330
1F
100
AcDbEntity
  8
0
  6
Continuous
 62
     7
100
AcDbLine
 10
6583.1317406639
 20
5205.7691777997
 30
0.0
 11
6584.1317408279
 21
5205.7691777997
 31
0.0
  0
LINE
  5
235
330
1F
100
AcDbEntity
  8
0
  6
Continuous
 62
     7
100
AcDbLine
 10
6583.1317406639
 20
5206.7691798263
 30
0.0
 11
6583.1317406639
 21
5207.7691818528
 31
0.0
  0
LINE
  5
236
330
1F
100
AcDbEntity
  8
0
  6
Continuous
 62
     7
100
AcDbLine
 10
6584.1317408279
 20
5206.7691798263
 30
0.0
 11
6583.1317406639
 21
5206.7691798263
 31
0.0
  0
LINE
  5
237
330
1F
100
AcDbEntity
  8
0
  6
Continuous
 62
     7
100
AcDbLine
 10
6584.1317408279
 20
5207.7691818528
 30
0.0
 11
6584.1317408279
 21
5206.7691798263
 31
0.0
  0
LINE
  5
238
330
1F
100
AcDbEntity
  8
0
  6
Continuous
 62
     7
100
AcDbLine
 10
6583.1317406639
 20
5207.7691818528
 30
0.0
 11
6584.1317408279
 21
5207.7691818528
 31
0.0
  0
LINE
  5
239
330
1F
100
AcDbEntity
  8
0
  6
Continuous
 62
     7
100
AcDbLine
 10
6583.1317406639
 20
5208.7691838794
 30
0.0
 11
6583.1317406639
 21
5209.7691784554
 31
0.0
  0
LINE
  5
23A
330
1F
100
AcDbEntity
  8
0
  6
Continuous
 62
     7
100
AcDbLine
 10
6584.1317408279
 20
5208.7691838794
 30
0.0
 11
6583.1317406639
 21
5208.7691838794
 31
0.0
  0
LINE
  5
23B
330
1F
100
AcDbEntity
  8
0
  6
Continuous
 62
     7
100
AcDbLine
 10
6584.1317408279
 20
5209.7691784554
 30
0.0
 11
6584.1317408279
 21
5208.7691838794
 31
0.0
  0
LINE
  5
23C
330
1F
100
AcDbEntity
  8
0
  6
Continuous
 62
     7
100
AcDbLine
 10
6583.1317406639
 20
5209.7691784554
 30
0.0
 11
6584.1317408279
 21
5209.7691784554
 31
0.0
  0
LINE
  5
23D
330
1F
100
AcDbEntity
  8
0
  6
Continuous
 62
     7
100
AcDbLine
 10
6583.1317406639
 20
5210.7691804819
 30
0.0
 11
6583.1317406639
 21
5211.7691750579
 31
0.0
  0
LINE
  5
23E
330
1F
100
AcDbEntity
  8
0
  6
Continuous
 62
     7
100
AcDbLine
 10
6584.1317408279
 20
5210.7691804819
 30
0.0
 11
6583.1317406639
 21
5210.7691804819
 31
0.0
  0
LINE
  5
23F
330
1F
100
AcDbEntity
  8
0
  6
Continuous
 62
     7
100
AcDbLine
 10
6584.1317408279
 20
5211.7691750579
 30
0.0
 11
6584.1317408279
 21
5210.7691804819
 31
0.0
  0
LINE
  5
240
330
1F
100
AcDbEntity
  8
0
  6
Continuous
 62
     7
100
AcDbLine
 10
6583.1317406639
 20
5211.7691750579
 30
0.0
 11
6584.1317408279
 21
5211.7691750579
 31
0.0
  0
LINE
  5
241
330
1F
100
AcDbEntity
  8
0
  6
Continuous
 62
     7
100
AcDbLine
 10
6586.1317411557
 20
5211.7691750579
 30
0.0
 11
6586.1317411557
 21
5210.7691804819
 31
0.0
  0
LINE
  5
242
330
1F
100
AcDbEntity
  8
0
  6
Continuous
 62
     7
100
AcDbLine
 10
6585.1317428544
 20
5211.7691750579
 30
0.0
 11
6586.1317411557
 21
5211.7691750579
 31
0.0
  0
LINE
  5
243
330
1F
100
AcDbEntity
  8
0
  6
Continuous
 62
     7
100
AcDbLine
 10
6585.1317428544
 20
5210.7691804819
 30
0.0
 11
6585.1317428544
 21
5211.7691750579
 31
0.0
  0
LINE
  5
244
330
1F
100
AcDbEntity
  8
0
  6
Continuous
 62
     7
100
AcDbLine
 10
6586.1317411557
 20
5210.7691804819
 30
0.0
 11
6585.1317428544
 21
5210.7691804819
 31
0.0
  0
LINE
  5
245
330
1F
100
AcDbEntity
  8
0
  6
Continuous
 62
     7
100
AcDbLine
 10
6586.1317411557
 20
5209.7691784554
 30
0.0
 11
6586.1317411557
 21
5208.7691838794
 31
0.0
  0
LINE
  5
246
330
1F
100
AcDbEntity
  8
0
  6
Continuous
 62
     7
100
AcDbLine
 10
6585.1317428544
 20
5209.7691784554
 30
0.0
 11
6586.1317411557
 21
5209.7691784554
 31
0.0
  0
LINE
  5
247
330
1F
100
AcDbEntity
  8
0
  6
Continuous
 62
     7
100
AcDbLine
 10
6585.1317428544
 20
5208.7691838794
 30
0.0
 11
6585.1317428544
 21
5209.7691784554
 31
0.0
  0
LINE
  5
248
330
1F
100
AcDbEntity
  8
0
  6
Continuous
 62
     7
100
AcDbLine
 10
6586.1317411557
 20
5208.7691838794
 30
0.0
 11
6585.1317428544
 21
5208.7691838794
 31
0.0
  0
LINE
  5
249
330
1F
100
AcDbEntity
  8
0
  6
Continuous
 62
     7
100
AcDbLine
 10
6586.1317411557
 20
5207.7691818528
 30
0.0
 11
6586.1317411557
 21
5206.7691798263
 31
0.0
  0
LINE
  5
24A
330
1F
100
AcDbEntity
  8
0
  6
Continuous
 62
     7
100
AcDbLine
 10
6585.1317428544
 20
5207.7691818528
 30
0.0
 11
6586.1317411557
 21
5207.7691818528
 31
0.0
  0
LINE
  5
24B
330
1F
100
AcDbEntity
  8
0
  6
Continuous
 62
     7
100
AcDbLine
 10
6585.1317428544
 20
5206.7691798263
 30
0.0
 11
6585.1317428544
 21
5207.7691818528
 31
0.0
  0
LINE
  5
24C
330
1F
100
AcDbEntity
  8
0
  6
Continuous
 62
     7
100
AcDbLine
 10
6586.1317411557
 20
5206.7691798263
 30
0.0
 11
6585.1317428544
 21
5206.7691798263
 31
0.0
  0
LINE
  5
24D
330
1F
100
AcDbEntity
  8
0
  6
Continuous
 62
     7
100
AcDbLine
 10
6586.1317411557
 20
5205.7691777997
 30
0.0
 11
6586.1317411557
 21
5204.7691757732
 31
0.0
  0
LINE
  5
24E
330
1F
100
AcDbEntity
  8
0
  6
Continuous
 62
     7
100
AcDbLine
 10
6585.1317428544
 20
5205.7691777997
 30
0.0
 11
6586.1317411557
 21
5205.7691777997
 31
0.0
  0
LINE
  5
24F
330
1F
100
AcDbEntity
  8
0
  6
Continuous
 62
     7
100
AcDbLine
 10
6585.1317428544
 20
5204.7691757732
 30
0.0
 11
6585.1317428544
 21
5205.7691777997
 31
0.0
  0
LINE
  5
250
330
1F
100
AcDbEntity
  8
0
  6
Continuous
 62
     7
100
AcDbLine
 10
6586.1317411557
 20
5204.7691757732
 30
0.0
 11
6585.1317428544
 21
5204.7691757732
 31
0.0
  0
LINE
  5
251
330
1F
100
AcDbEntity
  8
0
  6
Continuous
 62
     7
100
AcDbLine
 10
6586.1317411557
 20
5203.7691737466
 30
0.0
 11
6586.1317411557
 21
5203.2473052793
 31
0.0
  0
LINE
  5
252
330
1F
100
AcDbEntity
  8
0
  6
Continuous
 62
     7
100
AcDbLine
 10
6585.1317428544
 20
5203.7691737466
 30
0.0
 11
6586.1317411557
 21
5203.7691737466
 31
0.0
  0
LINE
  5
253
330
1F
100
AcDbEntity
  8
0
  6
Continuous
 62
     7
100
AcDbLine
 10
6585.1317428544
 20
5202.76917172
 30
0.0
 11
6585.1317428544
 21
5203.7691737466
 31
0.0
  0
LINE
  5
254
330
1F
100
AcDbEntity
  8
0
  6
Continuous
 62
     7
100
AcDbLine
 10
6585.373607327
 20
5202.76917172
 30
0.0
 11
6585.1317428544
 21
5202.76917172
 31
0.0
  0
LINE
  5
255
330
1F
100
AcDbEntity
  8
0
  6
Continuous
 62
     7
100
AcDbLine
 10
6582.1317405
 20
5211.7691750579
 30
0.0
 11
6582.1317405
 21
5210.7691804819
 31
0.0
  0
LINE
  5
256
330
1F
100
AcDbEntity
  8
0
  6
Continuous
 62
     7
100
AcDbLine
 10
6581.1317403361
 20
5211.7691750579
 30
0.0
 11
6582.1317405
 21
5211.7691750579
 31
0.0
  0
LINE
  5
257
330
1F
100
AcDbEntity
  8
0
  6
Continuous
 62
     7
100
AcDbLine
 10
6581.1317403361
 20
5210.7691804819
 30
0.0
 11
6581.1317403361
 21
5211.7691750579
 31
0.0
  0
LINE
  5
258
330
1F
100
AcDbEntity
  8
0
  6
Continuous
 62
     7
100
AcDbLine
 10
6582.1317405
 20
5210.7691804819
 30
0.0
 11
6581.1317403361
 21
5210.7691804819
 31
0.0
  0
LINE
  5
259
330
1F
100
AcDbEntity
  8
0
  6
Continuous
 62
     7
100
AcDbLine
 10
6582.1317405
 20
5209.7691784554
 30
0.0
 11
6582.1317405
 21
5208.7691838794
 31
0.0
  0
LINE
  5
25A
330
1F
100
AcDbEntity
  8
0
  6
Continuous
 62
     7
100
AcDbLine
 10
6581.1317403361
 20
5209.7691784554
 30
0.0
 11
6582.1317405
 21
5209.7691784554
 31
0.0
  0
LINE
  5
25B
330
1F
100
AcDbEntity
  8
0
  6
Continuous
 62
     7
100
AcDbLine
 10
6581.1317403361
 20
5208.7691838794
 30
0.0
 11
6581.1317403361
 21
5209.7691784554
 31
0.0
  0
LINE
  5
25C
330
1F
100
AcDbEntity
  8
0
  6
Continuous
 62
     7
100
AcDbLine
 10
6582.1317405
 20
5208.7691838794
 30
0.0
 11
6581.1317403361
 21
5208.7691838794
 31
0.0
  0
LINE
  5
25D
330
1F
100
AcDbEntity
  8
0
  6
Continuous
 62
     7
100
AcDbLine
 10
6582.1317405
 20
5207.7691818528
 30
0.0
 11
6582.1317405
 21
5206.7691798263
 31
0.0
  0
LINE
  5
25E
330
1F
100
AcDbEntity
  8
0
  6
Continuous
 62
     7
100
AcDbLine
 10
6581.1317403361
 20
5207.7691818528
 30
0.0
 11
6582.1317405
 21
5207.7691818528
 31
0.0
  0
LINE
  5
25F
330
1F
100
AcDbEntity
  8
0
  6
Continuous
 62
     7
100
AcDbLine
 10
6581.1317403361
 20
5206.7691798263
 30
0.0
 11
6581.1317403361
 21
5207.7691818528
 31
0.0
  0
LINE
  5
260
330
1F
100
AcDbEntity
  8
0
  6
Continuous
 62
     7
100
AcDbLine
 10
6582.1317405
 20
5206.7691798263
 30
0.0
 11
6581.1317403361
 21
5206.7691798263
 31
0.0
  0
LINE
  5
261
330
1F
100
AcDbEntity
  8
0
  6
Continuous
 62
     7
100
AcDbLine
 10
6582.1317405
 20
5205.7691777997
 30
0.0
 11
6582.1317405
 21
5204.7691757732
 31
0.0
  0
LINE
  5
262
330
1F
100
AcDbEntity
  8
0
  6
Continuous
 62
     7
100
AcDbLine
 10
6581.1317403361
 20
5205.7691777997
 30
0.0
 11
6582.1317405
 21
5205.7691777997
 31
0.0
  0
LINE
  5
263
330
1F
100
AcDbEntity
  8
0
  6
Continuous
 62
     7
100
AcDbLine
 10
6581.1317403361
 20
5204.7691757732
 30
0.0
 11
6581.1317403361
 21
5205.7691777997
 31
0.0
  0
LINE
  5
264
330
1F
100
AcDbEntity
  8
0
  6
Continuous
 62
     7
100
AcDbLine
 10
6582.1317405
 20
5204.7691757732
 30
0.0
 11
6581.1317403361
 21
5204.7691757732
 31
0.0
  0
LINE
  5
265
330
1F
100
AcDbEntity
  8
0
  6
Continuous
 62
     7
100
AcDbLine
 10
6582.1317405
 20
5203.7691737466
 30
0.0
 11
6582.1317405
 21
5202.76917172
 31
0.0
  0
LINE
  5
266
330
1F
100
AcDbEntity
  8
0
  6
Continuous
 62
     7
100
AcDbLine
 10
6581.1317403361
 20
5203.7691737466
 30
0.0
 11
6582.1317405
 21
5203.7691737466
 31
0.0
  0
LINE
  5
267
330
1F
100
AcDbEntity
  8
0
  6
Continuous
 62
     7
100
AcDbLine
 10
6581.1317403361
 20
5203.1706686072
 30
0.0
 11
6581.1317403361
 21
5203.7691737466
 31
0.0
  0
LINE
  5
268
330
1F
100
AcDbEntity
  8
0
  6
Continuous
 62
     7
100
AcDbLine
 10
6582.1317405
 20
5202.76917172
 30
0.0
 11
6581.1317403361
 21
5202.76917172
 31
0.0
  0
LINE
  5
269
330
1F
100
AcDbEntity
  8
0
  6
Continuous
 62
     7
100
AcDbLine
 10
6580.1317401722
 20
5211.5118171029
 30
0.0
 11
6580.1317401722
 21
5210.7691804819
 31
0.0
  0
LINE
  5
26A
330
1F
100
AcDbEntity
  8
0
  6
Continuous
 62
     7
100
AcDbLine
 10
6580.1317401722
 20
5210.7691804819
 30
0.0
 11
6579.3890998259
 21
5210.7691804819
 31
0.0
  0
LINE
  5
26B
330
1F
100
AcDbEntity
  8
0
  6
Continuous
 62
     7
100
AcDbLine
 10
6580.1317401722
 20
5209.7691784554
 30
0.0
 11
6580.1317401722
 21
5208.7691838794
 31
0.0
  0
LINE
  5
26C
330
1F
100
AcDbEntity
  8
0
  6
Continuous
 62
     7
100
AcDbLine
 10
6579.1317418709
 20
5209.7691784554
 30
0.0
 11
6580.1317401722
 21
5209.7691784554
 31
0.0
  0
LINE
  5
26D
330
1F
100
AcDbEntity
  8
0
  6
Continuous
 62
     7
100
AcDbLine
 10
6579.1317418709
 20
5208.7691838794
 30
0.0
 11
6579.1317418709
 21
5209.7691784554
 31
0.0
  0
LINE
  5
26E
330
1F
100
AcDbEntity
  8
0
  6
Continuous
 62
     7
100
AcDbLine
 10
6580.1317401722
 20
5208.7691838794
 30
0.0
 11
6579.1317418709
 21
5208.7691838794
 31
0.0
  0
LINE
  5
26F
330
1F
100
AcDbEntity
  8
0
  6
Continuous
 62
     7
100
AcDbLine
 10
6580.1317401722
 20
5207.7691818528
 30
0.0
 11
6580.1317401722
 21
5206.7691798263
 31
0.0
  0
LINE
  5
270
330
1F
100
AcDbEntity
  8
0
  6
Continuous
 62
     7
100
AcDbLine
 10
6579.1317418709
 20
5207.7691818528
 30
0.0
 11
6580.1317401722
 21
5207.7691818528
 31
0.0
  0
LINE
  5
271
330
1F
100
AcDbEntity
  8
0
  6
Continuous
 62
     7
100
AcDbLine
 10
6579.1317418709
 20
5206.7691798263
 30
0.0
 11
6579.1317418709
 21
5207.7691818528
 31
0.0
  0
LINE
  5
272
330
1F
100
AcDbEntity
  8
0
  6
Continuous
 62
     7
100
AcDbLine
 10
6580.1317401722
 20
5206.7691798263
 30
0.0
 11
6579.1317418709
 21
5206.7691798263
 31
0.0
  0
LINE
  5
273
330
1F
100
AcDbEntity
  8
0
  6
Continuous
 62
     7
100
AcDbLine
 10
6580.1317401722
 20
5205.7691777997
 30
0.0
 11
6580.1317401722
 21
5204.7691757732
 31
0.0
  0
LINE
  5
274
330
1F
100
AcDbEntity
  8
0
  6
Continuous
 62
     7
100
AcDbLine
 10
6579.1317418709
 20
5205.7691777997
 30
0.0
 11
6580.1317401722
 21
5205.7691777997
 31
0.0
  0
LINE
  5
275
330
1F
100
AcDbEntity
  8
0
  6
Continuous
 62
     7
100
AcDbLine
 10
6579.1317418709
 20
5204.7691757732
 30
0.0
 11
6579.1317418709
 21
5205.7691777997
 31
0.0
  0
LINE
  5
276
330
1F
100
AcDbEntity
  8
0
  6
Continuous
 62
     7
100
AcDbLine
 10
6580.1317401722
 20
5204.7691757732
 30
0.0
 11
6579.1317418709
 21
5204.7691757732
 31
0.0
  0
LINE
  5
277
330
1F
100
AcDbEntity
  8
0
  6
Continuous
 62
     7
100
AcDbLine
 10
6580.1317401722
 20
5203.2476927095
 30
0.0
 11
6580.1317401722
 21
5203.026529675
 31
0.0
  0
LINE
  5
278
330
1F
100
AcDbEntity
  8
0
  6
Continuous
 62
     7
100
AcDbLine
 10
6583.6317416772
 20
5344.7691773005
 30
0.0
 11
6597.1317410961
 21
5344.7691773005
 31
0.0
  0
LINE
  5
279
330
1F
100
AcDbEntity
  8
0
  6
Continuous
 62
     7
100
AcDbLine
 10
6597.1317410961
 20
5344.7691773005
 30
0.0
 11
6597.1317410961
 21
5334.2691774421
 31
0.0
  0
LINE
  5
27A
330
1F
100
AcDbEntity
  8
0
  6
Continuous
 62
     7
100
AcDbLine
 10
6583.6317416772
 20
5344.7691773005
 30
0.0
 11
6583.6317416772
 21
5334.2691774421
 31
0.0
  0
LINE
  5
27B
330
1F
100
AcDbEntity
  8
0
  6
Continuous
 62
     7
100
AcDbLine
 10
6572.5667391464
 20
5352.2691766672
 30
0.0
 11
6570.4112414762
 21
5352.2691766672
 31
0.0
  0
LINE
  5
27C
330
1F
100
AcDbEntity
  8
0
  6
Continuous
 62
     7
100
AcDbLine
 10
6577.771491234
 20
5353.7691778444
 30
0.0
 11
6595.352240701
 21
5353.7691778444
 31
0.0
  0
LINE
  5
27D
330
1F
100
AcDbEntity
  8
0
  6
Continuous
 62
     7
100
AcDbLine
 10
6571.9112407908
 20
5353.7691778444
 30
0.0
 11
6577.771491234
 21
5353.7691778444
 31
0.0
  0
LINE
  5
27E
330
1F
100
AcDbEntity
  8
0
  6
Continuous
 62
     7
100
AcDbLine
 10
6570.1317403957
 20
5344.7691773005
 30
0.0
 11
6570.1317403957
 21
5334.2691774421
 31
0.0
  0
LINE
  5
27F
330
1F
100
AcDbEntity
  8
0
  6
Continuous
 62
     7
100
AcDbLine
 10
6570.1317403957
 20
5344.7691773005
 30
0.0
 11
6583.6317416772
 21
5344.7691773005
 31
0.0
  0
LINE
  5
280
330
1F
100
AcDbEntity
  8
0
  6
Continuous
 62
     7
100
AcDbLine
 10
6597.1317410961
 20
5199.4749422126
 30
0.0
 11
6597.1317410961
 21
5215.0634045653
 31
0.0
  0
LINE
  5
281
330
1F
100
AcDbEntity
  8
0
  6
Continuous
 62
     7
100
AcDbLine
 10
6583.6317416772
 20
5191.6807259374
 30
0.0
 11
6597.1317410961
 21
5199.4749422126
 31
0.0
  0
LINE
  5
282
330
1F
100
AcDbEntity
  8
0
  6
Continuous
 62
     7
100
AcDbLine
 10
6570.1317403957
 20
5199.4749422126
 30
0.0
 11
6583.6317416772
 21
5191.6807259374
 31
0.0
  0
LINE
  5
283
330
1F
100
AcDbEntity
  8
0
  6
Continuous
 62
     7
100
AcDbLine
 10
6570.1317403957
 20
5215.0634045653
 30
0.0
 11
6570.1317403957
 21
5199.4749422126
 31
0.0
  0
LINE
  5
284
330
1F
100
AcDbEntity
  8
0
  6
Continuous
 62
     7
100
AcDbLine
 10
6583.6317416772
 20
5222.8576357417
 30
0.0
 11
6570.1317403957
 21
5215.0634045653
 31
0.0
  0
LINE
  5
285
330
1F
100
AcDbEntity
  8
0
  6
Continuous
 62
     7
100
AcDbLine
 10
6597.1317410961
 20
5215.0634045653
 30
0.0
 11
6583.6317416772
 21
5222.8576357417
 31
0.0
  0
LINE
  5
286
330
1F
100
AcDbEntity
  8
0
  6
Continuous
 62
     7
100
AcDbLine
 10
6566.6317409947
 20
5332.2691773471
 30
0.0
 11
6566.6317409947
 21
5175.2691774421
 31
0.0
  0
LINE
  5
287
330
1F
100
AcDbEntity
  8
0
  6
Continuous
 62
     7
100
AcDbLine
 10
6566.6317409947
 20
5332.2691773471
 30
0.0
 11
6630.6317382052
 21
5332.2691773471
 31
0.0
  0
LINE
  5
288
330
1F
100
AcDbEntity
  8
0
  6
Continuous
 62
     7
100
AcDbLine
 10
6630.6317382052
 20
5332.2691773471
 30
0.0
 11
6630.6317382052
 21
5175.2691830449
 31
0.0
  0
LINE
  5
289
330
1F
100
AcDbEntity
  8
0
  6
Continuous
 62
     7
100
AcDbLine
 10
6566.6317409947
 20
5175.2691774421
 30
0.0
 11
6630.6317382052
 21
5175.2691830449
 31
0.0
  0
LINE
  5
28A
330
1F
100
AcDbEntity
  8
0
  6
Continuous
 62
     7
100
AcDbLine
 10
6564.6317413568
 20
5332.2691773471
 30
0.0
 11
6564.6317413568
 21
5175.2691830449
 31
0.0
  0
LINE
  5
28B
330
1F
100
AcDbEntity
  8
0
  6
Continuous
 62
     7
100
AcDbLine
 10
6564.6317413568
 20
5332.2691773471
 30
0.0
 11
6566.6317409947
 21
5332.2691773471
 31
0.0
  0
LINE
  5
28C
330
1F
100
AcDbEntity
  8
0
  6
Continuous
 62
     7
100
AcDbLine
 10
6564.6317413568
 20
5175.2691830449
 30
0.0
 11
6566.6317409947
 21
5175.2691774421
 31
0.0
  0
LINE
  5
28D
330
1F
100
AcDbEntity
  8
0
  6
Continuous
 62
     7
100
AcDbLine
 10
6632.6317442849
 20
5175.2691774421
 30
0.0
 11
6630.6317382052
 21
5177.2691721969
 31
0.0
  0
LINE
  5
28E
330
1F
100
AcDbEntity
  8
0
  6
Continuous
 62
     7
100
AcDbLine
 10
6566.6317407533
 20
5173.2691778042
 30
0.0
 11
6566.6317409947
 21
5175.2691774421
 31
0.0
  0
LINE
  5
28F
330
1F
100
AcDbEntity
  8
0
  6
Continuous
 62
     7
100
AcDbLine
 10
6632.6317442849
 20
5175.2691774421
 30
0.0
 11
6632.6317422584
 21
5173.2691778042
 31
0.0
  0
LINE
  5
290
330
1F
100
AcDbEntity
  8
0
  6
Continuous
 62
     7
100
AcDbLine
 10
6566.6317407533
 20
5173.2691778042
 30
0.0
 11
6632.6317422584
 21
5173.2691778042
 31
0.0
  0
LINE
  5
291
330
1F
100
AcDbEntity
  8
0
  6
Continuous
 62
     7
100
AcDbLine
 10
6632.6317388609
 20
5332.2691773471
 30
0.0
 11
6630.6317382052
 21
5330.2691771571
 31
0.0
  0
LINE
  5
292
330
1F
100
AcDbEntity
  8
0
  6
Continuous
 62
     7
100
AcDbLine
 10
6632.6317422584
 20
5334.269176985
 30
0.0
 11
6632.6317388609
 21
5332.2691773471
 31
0.0
  0
LINE
  5
293
330
1F
100
AcDbEntity
  8
0
  6
Continuous
 62
     7
100
AcDbLine
 10
6566.6317409947
 20
5332.2691773471
 30
0.0
 11
6566.6317403912
 21
5334.269176985
 31
0.0
  0
LINE
  5
294
330
1F
100
AcDbEntity
  8
0
  6
Continuous
 62
     7
100
AcDbLine
 10
6566.6317403912
 20
5334.269176985
 30
0.0
 11
6632.6317422584
 21
5334.269176985
 31
0.0
  0
LINE
  5
295
330
1F
100
AcDbEntity
  8
0
  6
Continuous
 62
     7
100
AcDbLine
 10
6632.6317473203
 20
5175.2791817241
 30
0.0
 11
6632.6317473203
 21
5221.269179409
 31
0.0
  0
LINE
  5
296
330
1F
100
AcDbEntity
  8
0
  6
Continuous
 62
     7
100
AcDbLine
 10
6630.6317432671
 20
5221.269179409
 30
0.0
 11
6632.6317473203
 21
5221.269179409
 31
0.0
  0
LINE
  5
297
330
1F
100
AcDbEntity
  8
0
  6
Continuous
 62
     7
100
AcDbLine
 10
6632.6317473203
 20
5175.2791817241
 30
0.0
 11
6630.6317432671
 21
5177.279170876
 31
0.0
  0
LINE
  5
298
330
1F
100
AcDbEntity
  8
0
  6
Continuous
 62
     7
100
AcDbLine
 10
6633.6317442849
 20
5175.2691830449
 30
0.0
 11
6634.6317439228
 21
5175.2691830449
 31
0.0
  0
LINE
  5
299
330
1F
100
AcDbEntity
  8
0
  6
Continuous
 62
     7
100
AcDbLine
 10
6632.6317473203
 20
5221.269179409
 30
0.0
 11
6634.6317439228
 21
5221.269179409
 31
0.0
  0
LINE
  5
29A
330
1F
100
AcDbEntity
  8
0
  6
Continuous
 62
     7
100
AcDbLine
 10
6632.6317418963
 20
5286.2691769299
 30
0.0
 11
6632.6317418963
 21
5332.2591774088
 31
0.0
  0
LINE
  5
29B
330
1F
100
AcDbEntity
  8
0
  6
Continuous
 62
     7
100
AcDbLine
 10
6630.6317378431
 20
5286.2691769299
 30
0.0
 11
6632.6317418963
 21
5286.2691769299
 31
0.0
  0
LINE
  5
29C
330
1F
100
AcDbEntity
  8
0
  6
Continuous
 62
     7
100
AcDbLine
 10
6632.6317418963
 20
5332.2591774088
 30
0.0
 11
6630.6317378431
 21
5330.2591775466
 31
0.0
  0
LINE
  5
29D
330
1F
100
AcDbEntity
  8
0
  6
Continuous
 62
     7
100
AcDbLine
 10
6634.6317384988
 20
5286.2691769299
 30
0.0
 11
6632.6317418963
 21
5286.2691769299
 31
0.0
  0
LINE
  5
29E
330
1F
100
AcDbEntity
  8
0
  6
Continuous
 62
     7
100
AcDbLine
 10
6633.6317415729
 20
5332.2691772521
 30
0.0
 11
6634.6317384988
 21
5332.2691772521
 31
0.0
  0
LINE
  5
29F
330
1F
100
AcDbEntity
  8
0
  6
Continuous
 62
     7
100
AcDbLine
 10
6592.7817419663
 20
5172.369178658
 30
0.0
 11
6605.9817418948
 21
5172.369178658
 31
0.0
  0
LINE
  5
2A0
330
1F
100
AcDbEntity
  8
0
  6
Continuous
 62
     7
100
AcDbLine
 10
6587.5448592499
 20
5203.7691737466
 30
0.0
 11
6587.1317394569
 21
5203.3560539537
 31
0.0
  0
LINE
  5
2A1
330
1F
100
AcDbEntity
  8
0
  6
Continuous
 62
     7
100
AcDbLine
 10
6579.7186222419
 20
5210.7691804819
 30
0.0
 11
6579.7518685952
 21
5210.8059938006
 31
0.0
  0
LINE
  5
2A2
330
1F
100
AcDbEntity
  8
0
  6
Continuous
 62
     7
100
AcDbLine
 10
6579.7518685952
 20
5210.8059938006
 30
0.0
 11
6580.1317401722
 21
5211.1822928243
 31
0.0
  0
LINE
  5
2A3
330
1F
100
AcDbEntity
  8
0
  6
Continuous
 62
     7
100
AcDbLine
 10
6587.1317394569
 20
5211.1822928243
 30
0.0
 11
6587.5448592499
 21
5210.7691804819
 31
0.0
  0
LINE
  5
2A4
330
1F
100
AcDbEntity
  8
0
  6
Continuous
 62
     7
100
AcDbLine
 10
6644.9317418531
 20
5186.0393996291
 30
0.0
 11
6644.9317418531
 21
5235.7191781454
 31
0.0
  0
LINE
  5
2A5
330
1F
100
AcDbEntity
  8
0
  6
Continuous
 62
     7
100
AcDbLine
 10
6644.9317418531
 20
5178.8191760831
 30
0.0
 11
6644.9317418531
 21
5186.0393996291
 31
0.0
  0
LINE
  5
2A6
330
1F
100
AcDbEntity
  8
0
  6
Continuous
 62
     7
100
AcDbLine
 10
6632.6317442849
 20
5175.2691774421
 30
0.0
 11
6630.6317382052
 21
5175.2691830449
 31
0.0
  0
LINE
  5
2A7
330
1F
100
AcDbEntity
  8
0
  6
Continuous
 62
     7
100
AcDbLine
 10
6630.6317382052
 20
5332.2691773471
 30
0.0
 11
6632.6317388609
 21
5332.2691773471
 31
0.0
  0
LINE
  5
2A8
330
1F
100
AcDbEntity
  8
0
  6
Continuous
 62
     7
100
AcDbLine
 10
6271.4687572911
 20
4901.5386797461
 30
0.0
 11
6270.0719224408
 21
4901.5386797461
 31
0.0
  0
LINE
  5
2A9
330
1F
100
AcDbEntity
  8
0
  6
Continuous
 62
     7
100
AcDbLine
 10
6270.0719224408
 20
4900.2386800918
 30
0.0
 11
6271.4687572911
 21
4900.2386800918
 31
0.0
  0
LINE
  5
2AA
330
1F
100
AcDbEntity
  8
0
  6
Continuous
 62
     7
100
AcDbLine
 10
6245.5687584475
 20
4839.8886773708
 30
0.0
 11
6245.5687584475
 21
4839.5886797431
 31
0.0
  0
LINE
  5
2AB
330
1F
100
AcDbEntity
  8
0
  6
Continuous
 62
     7
100
AcDbLine
 10
6302.4687567845
 20
4839.5886797431
 30
0.0
 11
6302.4687567845
 21
4839.8886773708
 31
0.0
  0
LINE
  5
2AC
330
1F
100
AcDbEntity
  8
0
  6
Continuous
 62
     7
100
AcDbLine
 10
6249.4687574103
 20
4832.1886811379
 30
0.0
 11
6249.4687574103
 21
4809.9886778715
 31
0.0
  0
LINE
  5
2AD
330
1F
100
AcDbEntity
  8
0
  6
Continuous
 62
     7
100
AcDbLine
 10
6298.5687540963
 20
4809.9886778715
 30
0.0
 11
6298.5687540963
 21
4832.1886811379
 31
0.0
  0
LINE
  5
2AE
330
1F
100
AcDbEntity
  8
0
  6
Continuous
 62
     7
100
AcDbLine
 10
6250.6187545255
 20
4851.8886793378
 30
0.0
 11
6250.6187545255
 21
4849.8886827353
 31
0.0
  0
LINE
  5
2AF
330
1F
100
AcDbEntity
  8
0
  6
Continuous
 62
     7
100
AcDbLine
 10
6250.6187545255
 20
4838.0886841538
 30
0.0
 11
6250.6187545255
 21
4832.1886811379
 31
0.0
  0
LINE
  5
2B0
330
1F
100
AcDbEntity
  8
0
  6
Continuous
 62
     7
100
AcDbLine
 10
6297.4187569812
 20
4832.1886811379
 30
0.0
 11
6297.4187569812
 21
4838.0886841538
 31
0.0
  0
LINE
  5
2B1
330
1F
100
AcDbEntity
  8
0
  6
Continuous
 62
     7
100
AcDbLine
 10
6297.4187569812
 20
4849.8886827353
 30
0.0
 11
6297.4187569812
 21
4850.3742445233
 31
0.0
  0
LINE
  5
2B2
330
1F
100
AcDbEntity
  8
0
  6
Continuous
 62
     7
100
AcDbLine
 10
6351.0087553364
 20
4888.6286806288
 30
0.0
 11
6351.0187553361
 21
4888.638679308
 31
0.0
  0
LINE
  5
2B3
330
1F
100
AcDbEntity
  8
0
  6
Continuous
 62
     7
100
AcDbLine
 10
6351.0187553361
 20
4913.1386805299
 30
0.0
 11
6351.0087553364
 21
4913.1486810717
 31
0.0
  0
LINE
  5
2B4
330
1F
100
AcDbEntity
  8
0
  6
Continuous
 62
     7
100
AcDbLine
 10
6197.0287548497
 20
4913.1486810717
 30
0.0
 11
6197.0187561706
 21
4913.1386805299
 31
0.0
  0
LINE
  5
2B5
330
1F
100
AcDbEntity
  8
0
  6
Continuous
 62
     7
100
AcDbLine
 10
6197.0187561706
 20
4888.638679308
 30
0.0
 11
6197.0287548497
 21
4888.6286806288
 31
0.0
  0
LINE
  5
2B6
330
1F
100
AcDbEntity
  8
0
  6
Continuous
 62
     7
100
AcDbLine
 10
6370.2674122646
 20
4887.9168372574
 30
0.0
 11
6371.5187559023
 21
4889.1681808951
 31
0.0
  0
LINE
  5
2B7
330
1F
100
AcDbEntity
  8
0
  6
Continuous
 62
     7
100
AcDbLine
 10
6371.5187559023
 20
4912.6091808054
 30
0.0
 11
6370.7848942026
 21
4913.3430406424
 31
0.0
  0
LINE
  5
2B8
330
1F
100
AcDbEntity
  8
0
  6
Continuous
 62
     7
100
AcDbLine
 10
6368.8140573099
 20
4887.6681815806
 30
0.0
 11
6369.2107131824
 21
4887.6681815806
 31
0.0
  0
LINE
  5
2B9
330
1F
100
AcDbEntity
  8
0
  6
Continuous
 62
     7
100
AcDbLine
 10
6367.2265565142
 20
4887.6681815806
 30
0.0
 11
6367.6232123867
 21
4887.6681815806
 31
0.0
  0
LINE
  5
2BA
330
1F
100
AcDbEntity
  8
0
  6
Continuous
 62
     7
100
AcDbLine
 10
6365.6390566498
 20
4887.6681815806
 30
0.0
 11
6366.0357125223
 21
4887.6681815806
 31
0.0
  0
LINE
  5
2BB
330
1F
100
AcDbEntity
  8
0
  6
Continuous
 62
     7
100
AcDbLine
 10
6364.0515567854
 20
4887.6681815806
 30
0.0
 11
6364.4482126579
 21
4887.6681815806
 31
0.0
  0
LINE
  5
2BC
330
1F
100
AcDbEntity
  8
0
  6
Continuous
 62
     7
100
AcDbLine
 10
6362.5187553585
 20
4887.6681815806
 30
0.0
 11
6362.8607127935
 21
4887.6681815806
 31
0.0
  0
LINE
  5
2BD
330
1F
100
AcDbEntity
  8
0
  6
Continuous
 62
     7
100
AcDbLine
 10
6363.6545106888
 20
4914.1091801199
 30
0.0
 11
6363.2577309504
 21
4914.1091801199
 31
0.0
  0
LINE
  5
2BE
330
1F
100
AcDbEntity
  8
0
  6
Continuous
 62
     7
100
AcDbLine
 10
6365.2420105532
 20
4914.1091801199
 30
0.0
 11
6364.8452308148
 21
4914.1091801199
 31
0.0
  0
LINE
  5
2BF
330
1F
100
AcDbEntity
  8
0
  6
Continuous
 62
     7
100
AcDbLine
 10
6366.8295113489
 20
4914.1091801199
 30
0.0
 11
6366.4327306792
 21
4914.1091801199
 31
0.0
  0
LINE
  5
2C0
330
1F
100
AcDbEntity
  8
0
  6
Continuous
 62
     7
100
AcDbLine
 10
6368.417010282
 20
4914.1091801199
 30
0.0
 11
6368.0202314749
 21
4914.1091801199
 31
0.0
  0
LINE
  5
2C1
330
1F
100
AcDbEntity
  8
0
  6
Continuous
 62
     7
100
AcDbLine
 10
6370.0187547252
 20
4914.1091801199
 30
0.0
 11
6369.607730408
 21
4914.1091801199
 31
0.0
  0
LINE
  5
2C2
330
1F
100
AcDbEntity
  8
0
  6
Continuous
 62
     7
100
AcDbLine
 10
6369.1109685346
 20
4913.2498972091
 30
0.0
 11
6368.9176986113
 21
4913.2498972091
 31
0.0
  0
LINE
  5
2C3
330
1F
100
AcDbEntity
  8
0
  6
Continuous
 62
     7
100
AcDbLine
 10
6367.5234677389
 20
4913.2498972091
 30
0.0
 11
6367.3301978156
 21
4913.2498972091
 31
0.0
  0
LINE
  5
2C4
330
1F
100
AcDbEntity
  8
0
  6
Continuous
 62
     7
100
AcDbLine
 10
6365.9359678745
 20
4913.2498972091
 30
0.0
 11
6365.7426988825
 21
4913.2498972091
 31
0.0
  0
LINE
  5
2C5
330
1F
100
AcDbEntity
  8
0
  6
Continuous
 62
     7
100
AcDbLine
 10
6364.3484680101
 20
4913.2498972091
 30
0.0
 11
6364.1551990181
 21
4913.2498972091
 31
0.0
  0
LINE
  5
2C6
330
1F
100
AcDbEntity
  8
0
  6
Continuous
 62
     7
100
AcDbLine
 10
6362.7609681457
 20
4913.2498972091
 30
0.0
 11
6362.5625303134
 21
4913.2498972091
 31
0.0
  0
LINE
  5
2C7
330
1F
100
AcDbEntity
  8
0
  6
Continuous
 62
     7
100
AcDbLine
 10
6368.1187803045
 20
4888.5274644914
 30
0.0
 11
6368.3131100729
 21
4888.5274644914
 31
0.0
  0
LINE
  5
2C8
330
1F
100
AcDbEntity
  8
0
  6
Continuous
 62
     7
100
AcDbLine
 10
6366.5312804401
 20
4888.5274644914
 30
0.0
 11
6366.7256092772
 21
4888.5274644914
 31
0.0
  0
LINE
  5
2C9
330
1F
100
AcDbEntity
  8
0
  6
Continuous
 62
     7
100
AcDbLine
 10
6364.9437805757
 20
4888.5274644914
 30
0.0
 11
6365.1381094128
 21
4888.5274644914
 31
0.0
  0
LINE
  5
2CA
330
1F
100
AcDbEntity
  8
0
  6
Continuous
 62
     7
100
AcDbLine
 10
6363.3562807113
 20
4888.5274644914
 30
0.0
 11
6363.5506095484
 21
4888.5274644914
 31
0.0
  0
LINE
  5
2CB
330
1F
100
AcDbEntity
  8
0
  6
Continuous
 62
     7
100
AcDbLine
 10
6369.7062811002
 20
4888.5274644914
 30
0.0
 11
6369.900609006
 21
4888.5274644914
 31
0.0
  0
LINE
  5
2CC
330
1F
100
AcDbEntity
  8
0
  6
Continuous
 62
     7
100
AcDbLine
 10
6370.6984674677
 20
4913.2498972091
 30
0.0
 11
6370.505199407
 21
4913.2498972091
 31
0.0
  0
LINE
  5
2CD
330
1F
100
AcDbEntity
  8
0
  6
Continuous
 62
     7
100
AcDbLine
 10
6177.7700917914
 20
4913.8605244431
 30
0.0
 11
6176.518751879
 21
4912.6091808054
 31
0.0
  0
LINE
  5
2CE
330
1F
100
AcDbEntity
  8
0
  6
Continuous
 62
     7
100
AcDbLine
 10
6176.518751879
 20
4889.1681808951
 30
0.0
 11
6177.2526191667
 21
4888.4343210581
 31
0.0
  0
LINE
  5
2CF
330
1F
100
AcDbEntity
  8
0
  6
Continuous
 62
     7
100
AcDbLine
 10
6179.2234467462
 20
4914.1091801199
 30
0.0
 11
6178.8267927363
 21
4914.1091801199
 31
0.0
  0
LINE
  5
2D0
330
1F
100
AcDbEntity
  8
0
  6
Continuous
 62
     7
100
AcDbLine
 10
6180.8109568551
 20
4914.1091801199
 30
0.0
 11
6180.4143028453
 21
4914.1091801199
 31
0.0
  0
LINE
  5
2D1
330
1F
100
AcDbEntity
  8
0
  6
Continuous
 62
     7
100
AcDbLine
 10
6182.3984520629
 20
4914.1091801199
 30
0.0
 11
6182.0017980531
 21
4914.1091801199
 31
0.0
  0
LINE
  5
2D2
330
1F
100
AcDbEntity
  8
0
  6
Continuous
 62
     7
100
AcDbLine
 10
6183.9859472707
 20
4914.1091801199
 30
0.0
 11
6183.5892932609
 21
4914.1091801199
 31
0.0
  0
LINE
  5
2D3
330
1F
100
AcDbEntity
  8
0
  6
Continuous
 62
     7
100
AcDbLine
 10
6185.5187552169
 20
4914.1091801199
 30
0.0
 11
6185.1768033698
 21
4914.1091801199
 31
0.0
  0
LINE
  5
2D4
330
1F
100
AcDbEntity
  8
0
  6
Continuous
 62
     7
100
AcDbLine
 10
6184.3830036119
 20
4887.6681815806
 30
0.0
 11
6184.779776831
 21
4887.6681815806
 31
0.0
  0
LINE
  5
2D5
330
1F
100
AcDbEntity
  8
0
  6
Continuous
 62
     7
100
AcDbLine
 10
6182.7954935029
 20
4887.6681815806
 30
0.0
 11
6183.1922816232
 21
4887.6681815806
 31
0.0
  0
LINE
  5
2D6
330
1F
100
AcDbEntity
  8
0
  6
Continuous
 62
     7
100
AcDbLine
 10
6181.2079982951
 20
4887.6681815806
 30
0.0
 11
6181.6047864154
 21
4887.6681815806
 31
0.0
  0
LINE
  5
2D7
330
1F
100
AcDbEntity
  8
0
  6
Continuous
 62
     7
100
AcDbLine
 10
6179.6205030873
 20
4887.6681815806
 30
0.0
 11
6180.0172763064
 21
4887.6681815806
 31
0.0
  0
LINE
  5
2D8
330
1F
100
AcDbEntity
  8
0
  6
Continuous
 62
     7
100
AcDbLine
 10
6178.0187623694
 20
4887.6681815806
 30
0.0
 11
6178.4297810987
 21
4887.6681815806
 31
0.0
  0
LINE
  5
2D9
330
1F
100
AcDbEntity
  8
0
  6
Continuous
 62
     7
100
AcDbLine
 10
6178.9265411094
 20
4888.5274644914
 30
0.0
 11
6179.1198091701
 21
4888.5274644914
 31
0.0
  0
LINE
  5
2DA
330
1F
100
AcDbEntity
  8
0
  6
Continuous
 62
     7
100
AcDbLine
 10
6180.5140363172
 20
4888.5274644914
 30
0.0
 11
6180.707319279
 21
4888.5274644914
 31
0.0
  0
LINE
  5
2DB
330
1F
100
AcDbEntity
  8
0
  6
Continuous
 62
     7
100
AcDbLine
 10
6182.1015464261
 20
4888.5274644914
 30
0.0
 11
6182.2948144868
 21
4888.5274644914
 31
0.0
  0
LINE
  5
2DC
330
1F
100
AcDbEntity
  8
0
  6
Continuous
 62
     7
100
AcDbLine
 10
6183.6890416339
 20
4888.5274644914
 30
0.0
 11
6183.8823096946
 21
4888.5274644914
 31
0.0
  0
LINE
  5
2DD
330
1F
100
AcDbEntity
  8
0
  6
Continuous
 62
     7
100
AcDbLine
 10
6185.2765368417
 20
4888.5274644914
 30
0.0
 11
6185.4749756053
 21
4888.5274644914
 31
0.0
  0
LINE
  5
2DE
330
1F
100
AcDbEntity
  8
0
  6
Continuous
 62
     7
100
AcDbLine
 10
6179.9187349275
 20
4913.2498972091
 30
0.0
 11
6179.7244088843
 21
4913.2498972091
 31
0.0
  0
LINE
  5
2DF
330
1F
100
AcDbEntity
  8
0
  6
Continuous
 62
     7
100
AcDbLine
 10
6181.5062301353
 20
4913.2498972091
 30
0.0
 11
6181.3119040921
 21
4913.2498972091
 31
0.0
  0
LINE
  5
2E0
330
1F
100
AcDbEntity
  8
0
  6
Continuous
 62
     7
100
AcDbLine
 10
6183.093725343
 20
4913.2498972091
 30
0.0
 11
6182.8993992999
 21
4913.2498972091
 31
0.0
  0
LINE
  5
2E1
330
1F
100
AcDbEntity
  8
0
  6
Continuous
 62
     7
100
AcDbLine
 10
6184.681235452
 20
4913.2498972091
 30
0.0
 11
6184.4868945077
 21
4913.2498972091
 31
0.0
  0
LINE
  5
2E2
330
1F
100
AcDbEntity
  8
0
  6
Continuous
 62
     7
100
AcDbLine
 10
6178.3312248185
 20
4913.2498972091
 30
0.0
 11
6178.1368987754
 21
4913.2498972091
 31
0.0
  0
LINE
  5
2E3
330
1F
100
AcDbEntity
  8
0
  6
Continuous
 62
     7
100
AcDbLine
 10
6177.3390459016
 20
4888.5274644914
 30
0.0
 11
6177.5323139623
 21
4888.5274644914
 31
0.0
  0
LINE
  5
2E4
330
1F
100
AcDbEntity
  8
0
  6
Continuous
 62
     7
100
AcDbLine
 10
6265.5187534288
 20
4851.8886793378
 30
0.0
 11
6265.5187534288
 21
4849.8886827353
 31
0.0
  0
LINE
  5
2E5
330
1F
100
AcDbEntity
  8
0
  6
Continuous
 62
     7
100
AcDbLine
 10
6282.5187580779
 20
4851.8886793378
 30
0.0
 11
6282.5187580779
 21
4849.8886827353
 31
0.0
  0
LINE
  5
2E6
330
1F
100
AcDbEntity
  8
0
  6
Continuous
 62
     7
100
AcDbLine
 10
6254.7712238625
 20
4850.4151556614
 30
0.0
 11
6265.5187534288
 21
4850.3763008836
 31
0.0
  0
LINE
  5
2E7
330
1F
100
AcDbEntity
  8
0
  6
Continuous
 62
     7
100
AcDbLine
 10
6282.5187580779
 20
4850.3148484948
 30
0.0
 11
6294.7712266937
 21
4850.2705622438
 31
0.0
  0
LINE
  5
2E8
330
1F
100
AcDbEntity
  8
0
  6
Continuous
 62
     7
100
AcDbLine
 10
6254.7712238625
 20
4850.4151556614
 30
0.0
 11
6254.7712238625
 21
4851.8886793378
 31
0.0
  0
LINE
  5
2E9
330
1F
100
AcDbEntity
  8
0
  6
Continuous
 62
     7
100
AcDbLine
 10
6294.7712266937
 20
4850.2705622438
 30
0.0
 11
6294.7712266937
 21
4851.8886793378
 31
0.0
  0
LINE
  5
2EA
330
1F
100
AcDbEntity
  8
0
  6
Continuous
 62
     7
100
AcDbLine
 10
6254.7712238625
 20
4849.8886827353
 30
0.0
 11
6254.7712238625
 21
4850.4151556614
 31
0.0
  0
LINE
  5
2EB
330
1F
100
AcDbEntity
  8
0
  6
Continuous
 62
     7
100
AcDbLine
 10
6294.7712266937
 20
4849.8886827353
 30
0.0
 11
6294.7712266937
 21
4850.2705622438
 31
0.0
  0
LINE
  5
2EC
330
1F
100
AcDbEntity
  8
0
  6
Continuous
 62
     7
100
AcDbLine
 10
6295.2187569931
 20
4850.6886813763
 30
0.0
 11
6295.2187569931
 21
4851.8886793378
 31
0.0
  0
LINE
  5
2ED
330
1F
100
AcDbEntity
  8
0
  6
Continuous
 62
     7
100
AcDbLine
 10
6294.7712266937
 20
4850.6925854805
 30
0.0
 11
6295.2187569931
 21
4850.6886813763
 31
0.0
  0
LINE
  5
2EE
330
1F
100
AcDbEntity
  8
0
  6
Continuous
 62
     7
100
AcDbLine
 10
6295.2187569931
 20
4849.8886827353
 30
0.0
 11
6295.2187569931
 21
4850.6886813763
 31
0.0
  0
LINE
  5
2EF
330
1F
100
AcDbEntity
  8
0
  6
Continuous
 62
     7
100
AcDbLine
 10
6349.0187552411
 20
4839.8886773708
 30
0.0
 11
6199.0187602237
 21
4839.8886773708
 31
0.0
  0
LINE
  5
2F0
330
1F
100
AcDbEntity
  8
0
  6
Continuous
 62
     7
100
AcDbLine
 10
6349.0187557161
 20
4849.8886773708
 30
0.0
 11
6349.0187552411
 21
4839.8886773708
 31
0.0
  0
LINE
  5
2F1
330
1F
100
AcDbEntity
  8
0
  6
Continuous
 62
     7
100
AcDbLine
 10
6359.0187557161
 20
4849.8886827353
 30
0.0
 11
6349.0187557161
 21
4849.8886773708
 31
0.0
  0
LINE
  5
2F2
330
1F
100
AcDbEntity
  8
0
  6
Continuous
 62
     7
100
AcDbLine
 10
6199.0187548593
 20
4849.8886773708
 30
0.0
 11
6199.0187602237
 21
4839.8886773708
 31
0.0
  0
LINE
  5
2F3
330
1F
100
AcDbEntity
  8
0
  6
Continuous
 62
     7
100
AcDbLine
 10
6349.0187557161
 20
4849.8886773708
 30
0.0
 11
6199.0187548593
 21
4849.8886773708
 31
0.0
  0
LINE
  5
2F4
330
1F
100
AcDbEntity
  8
0
  6
Continuous
 62
     7
100
AcDbLine
 10
6199.0187548593
 20
4849.8886773708
 30
0.0
 11
6189.0187548593
 21
4849.8886827353
 31
0.0
  0
LINE
  5
2F5
330
1F
100
AcDbEntity
  8
0
  6
Continuous
 62
     7
100
AcDbLine
 10
6327.3139676198
 20
4839.8636806729
 30
0.0
 11
6327.3139676198
 21
4839.8886773708
 31
0.0
  0
LINE
  5
2F6
330
1F
100
AcDbEntity
  8
0
  6
Continuous
 62
     7
100
AcDbLine
 10
6327.3139676198
 20
4839.8636806729
 30
0.0
 11
6310.9558211759
 21
4839.8636806729
 31
0.0
  0
LINE
  5
2F7
330
1F
100
AcDbEntity
  8
0
  6
Continuous
 62
     7
100
AcDbLine
 10
6310.9558211759
 20
4839.8636806729
 30
0.0
 11
6310.9558211759
 21
4839.8886773708
 31
0.0
  0
LINE
  5
2F8
330
1F
100
AcDbEntity
  8
0
  6
Continuous
 62
     7
100
AcDbLine
 10
6309.2937717333
 20
4839.8636806729
 30
0.0
 11
6309.2937717333
 21
4839.8886773708
 31
0.0
  0
LINE
  5
2F9
330
1F
100
AcDbEntity
  8
0
  6
Continuous
 62
     7
100
AcDbLine
 10
6309.0258302286
 20
4839.8636806729
 30
0.0
 11
6309.0258302286
 21
4839.8886773708
 31
0.0
  0
LINE
  5
2FA
330
1F
100
AcDbEntity
  8
0
  6
Continuous
 62
     7
100
AcDbLine
 10
6309.1358119741
 20
4839.8636806729
 30
0.0
 11
6309.0258302286
 21
4839.8636806729
 31
0.0
  0
LINE
  5
2FB
330
1F
100
AcDbEntity
  8
0
  6
Continuous
 62
     7
100
AcDbLine
 10
6332.4071584389
 20
4839.8636806729
 30
0.0
 11
6332.4071584389
 21
4839.8886773708
 31
0.0
  0
LINE
  5
2FC
330
1F
100
AcDbEntity
  8
0
  6
Continuous
 62
     7
100
AcDbLine
 10
6330.5356266096
 20
4839.8636806729
 30
0.0
 11
6330.5356266096
 21
4839.8886773708
 31
0.0
  0
LINE
  5
2FD
330
1F
100
AcDbEntity
  8
0
  6
Continuous
 62
     7
100
AcDbLine
 10
6329.8303416118
 20
4839.8636806729
 30
0.0
 11
6329.8303416118
 21
4839.8886773708
 31
0.0
  0
LINE
  5
2FE
330
1F
100
AcDbEntity
  8
0
  6
Continuous
 62
     7
100
AcDbLine
 10
6328.0652357385
 20
4839.8636806729
 30
0.0
 11
6328.0652357385
 21
4839.8886773708
 31
0.0
  0
LINE
  5
2FF
330
1F
100
AcDbEntity
  8
0
  6
Continuous
 62
     7
100
AcDbLine
 10
6333.4132159248
 20
4839.8636806729
 30
0.0
 11
6333.4132159248
 21
4839.8886773708
 31
0.0
  0
LINE
  5
300
330
1F
100
AcDbEntity
  8
0
  6
Continuous
 62
     7
100
AcDbLine
 10
6333.2511210933
 20
4839.8636806729
 30
0.0
 11
6333.2511210933
 21
4839.8886773708
 31
0.0
  0
LINE
  5
301
330
1F
100
AcDbEntity
  8
0
  6
Continuous
 62
     7
100
AcDbLine
 10
6333.5841471448
 20
4839.8636806729
 30
0.0
 11
6333.5841471448
 21
4839.8886773708
 31
0.0
  0
LINE
  5
302
330
1F
100
AcDbEntity
  8
0
  6
Continuous
 62
     7
100
AcDbLine
 10
6333.6446141943
 20
4839.8636806729
 30
0.0
 11
6333.6446141943
 21
4839.8886773708
 31
0.0
  0
LINE
  5
303
330
1F
100
AcDbEntity
  8
0
  6
Continuous
 62
     7
100
AcDbLine
 10
6333.7124088898
 20
4839.8636806729
 30
0.0
 11
6333.7124088898
 21
4839.8886773708
 31
0.0
  0
LINE
  5
304
330
1F
100
AcDbEntity
  8
0
  6
Continuous
 62
     7
100
AcDbLine
 10
6333.4386931851
 20
4839.8636806729
 30
0.0
 11
6332.857251738
 21
4839.8636806729
 31
0.0
  0
LINE
  5
305
330
1F
100
AcDbEntity
  8
0
  6
Continuous
 62
     7
100
AcDbLine
 10
6333.4386931851
 20
4839.8636806729
 30
0.0
 11
6334.0201346323
 21
4839.8636806729
 31
0.0
  0
LINE
  5
306
330
1F
100
AcDbEntity
  8
0
  6
Continuous
 62
     7
100
AcDbLine
 10
6271.4687572911
 20
4901.5386797461
 30
0.0
 11
6271.4687572911
 21
4900.2386800918
 31
0.0
  0
LINE
  5
307
330
1F
100
AcDbEntity
  8
0
  6
Continuous
 62
     7
100
AcDbLine
 10
6247.0687540367
 20
4838.0886841538
 30
0.0
 11
6300.9687537447
 21
4838.0886841538
 31
0.0
  0
LINE
  5
308
330
1F
100
AcDbEntity
  8
0
  6
Continuous
 62
     7
100
AcDbLine
 10
6274.3489580348
 20
4809.9886778715
 30
0.0
 11
6298.5687540963
 21
4809.9886778715
 31
0.0
  0
LINE
  5
309
330
1F
100
AcDbEntity
  8
0
  6
Continuous
 62
     7
100
AcDbLine
 10
6249.4687574103
 20
4809.9886778715
 30
0.0
 11
6274.3489580348
 21
4809.9886778715
 31
0.0
  0
LINE
  5
30A
330
1F
100
AcDbEntity
  8
0
  6
Continuous
 62
     7
100
AcDbLine
 10
6274.3489580348
 20
4832.1886811379
 30
0.0
 11
6298.5687540963
 21
4832.1886811379
 31
0.0
  0
LINE
  5
30B
330
1F
100
AcDbEntity
  8
0
  6
Continuous
 62
     7
100
AcDbLine
 10
6249.4687574103
 20
4832.1886811379
 30
0.0
 11
6274.3489580348
 21
4832.1886811379
 31
0.0
  0
LINE
  5
30C
330
1F
100
AcDbEntity
  8
0
  6
Continuous
 62
     7
100
AcDbLine
 10
6362.5187553585
 20
4900.8886799189
 30
0.0
 11
6352.0187553836
 21
4900.8886799189
 31
0.0
  0
LINE
  5
30D
330
1F
100
AcDbEntity
  8
0
  6
Continuous
 62
     7
100
AcDbLine
 10
6362.5187553585
 20
4914.3886812004
 30
0.0
 11
6352.0187553836
 21
4914.3886812004
 31
0.0
  0
LINE
  5
30E
330
1F
100
AcDbEntity
  8
0
  6
Continuous
 62
     7
100
AcDbLine
 10
6362.5187553585
 20
4914.3886812004
 30
0.0
 11
6362.5187553585
 21
4900.8886799189
 31
0.0
  0
LINE
  5
30F
330
1F
100
AcDbEntity
  8
0
  6
Continuous
 62
     7
100
AcDbLine
 10
6370.0187547252
 20
4900.155360249
 30
0.0
 11
6370.0187547252
 21
4914.0888269964
 31
0.0
  0
LINE
  5
310
330
1F
100
AcDbEntity
  8
0
  6
Continuous
 62
     7
100
AcDbLine
 10
6371.5187559023
 20
4895.0284313384
 30
0.0
 11
6371.5187559023
 21
4889.1681808951
 31
0.0
  0
LINE
  5
311
330
1F
100
AcDbEntity
  8
0
  6
Continuous
 62
     7
100
AcDbLine
 10
6371.5187559023
 20
4912.6091808054
 30
0.0
 11
6371.5187559023
 21
4895.0284313384
 31
0.0
  0
LINE
  5
312
330
1F
100
AcDbEntity
  8
0
  6
Continuous
 62
     7
100
AcDbLine
 10
6370.0187547252
 20
4914.0888269964
 30
0.0
 11
6370.0045110777
 21
4914.08447772
 31
0.0
  0
LINE
  5
313
330
1F
100
AcDbEntity
  8
0
  6
Continuous
 62
     7
100
AcDbLine
 10
6362.5187553585
 20
4887.3886805001
 30
0.0
 11
6352.0187553836
 21
4887.3886805001
 31
0.0
  0
LINE
  5
314
330
1F
100
AcDbEntity
  8
0
  6
Continuous
 62
     7
100
AcDbLine
 10
6362.5187553585
 20
4900.8886799189
 30
0.0
 11
6362.5187553585
 21
4887.3886805001
 31
0.0
  0
LINE
  5
315
330
1F
100
AcDbEntity
  8
0
  6
Continuous
 62
     7
100
AcDbLine
 10
6289.6072143808
 20
4900.8886799189
 30
0.0
 11
6281.8129869297
 21
4914.3886812004
 31
0.0
  0
LINE
  5
316
330
1F
100
AcDbEntity
  8
0
  6
Continuous
 62
     7
100
AcDbLine
 10
6281.8129869297
 20
4887.3886805001
 30
0.0
 11
6289.6072143808
 21
4900.8886799189
 31
0.0
  0
LINE
  5
317
330
1F
100
AcDbEntity
  8
0
  6
Continuous
 62
     7
100
AcDbLine
 10
6266.224524577
 20
4887.3886805001
 30
0.0
 11
6281.8129869297
 21
4887.3886805001
 31
0.0
  0
LINE
  5
318
330
1F
100
AcDbEntity
  8
0
  6
Continuous
 62
     7
100
AcDbLine
 10
6258.4303008512
 20
4900.8886799189
 30
0.0
 11
6266.224524577
 21
4887.3886805001
 31
0.0
  0
LINE
  5
319
330
1F
100
AcDbEntity
  8
0
  6
Continuous
 62
     7
100
AcDbLine
 10
6266.224524577
 20
4914.3886812004
 30
0.0
 11
6258.4303008512
 21
4900.8886799189
 31
0.0
  0
LINE
  5
31A
330
1F
100
AcDbEntity
  8
0
  6
Continuous
 62
     7
100
AcDbLine
 10
6281.8129869297
 20
4914.3886812004
 30
0.0
 11
6266.224524577
 21
4914.3886812004
 31
0.0
  0
LINE
  5
31B
330
1F
100
AcDbEntity
  8
0
  6
Continuous
 62
     7
100
AcDbLine
 10
6185.5187552169
 20
4900.8886799189
 30
0.0
 11
6196.018754144
 21
4900.8886799189
 31
0.0
  0
LINE
  5
31C
330
1F
100
AcDbEntity
  8
0
  6
Continuous
 62
     7
100
AcDbLine
 10
6185.5187552169
 20
4887.3886805001
 30
0.0
 11
6196.018754144
 21
4887.3886805001
 31
0.0
  0
LINE
  5
31D
330
1F
100
AcDbEntity
  8
0
  6
Continuous
 62
     7
100
AcDbLine
 10
6185.5187552169
 20
4887.3886805001
 30
0.0
 11
6185.5187552169
 21
4900.8886799189
 31
0.0
  0
LINE
  5
31E
330
1F
100
AcDbEntity
  8
0
  6
Continuous
 62
     7
100
AcDbLine
 10
6178.0187623694
 20
4901.6220014515
 30
0.0
 11
6178.0187623694
 21
4887.6885328415
 31
0.0
  0
LINE
  5
31F
330
1F
100
AcDbEntity
  8
0
  6
Continuous
 62
     7
100
AcDbLine
 10
6176.518751879
 20
4906.7489303622
 30
0.0
 11
6176.518751879
 21
4912.6091808054
 31
0.0
  0
LINE
  5
320
330
1F
100
AcDbEntity
  8
0
  6
Continuous
 62
     7
100
AcDbLine
 10
6176.518751879
 20
4889.1681808951
 30
0.0
 11
6176.518751879
 21
4906.7489303622
 31
0.0
  0
LINE
  5
321
330
1F
100
AcDbEntity
  8
0
  6
Continuous
 62
     7
100
AcDbLine
 10
6178.0187623694
 20
4887.6885328415
 30
0.0
 11
6178.0329929784
 21
4887.6928839806
 31
0.0
  0
LINE
  5
322
330
1F
100
AcDbEntity
  8
0
  6
Continuous
 62
     7
100
AcDbLine
 10
6185.5187552169
 20
4914.3886812004
 30
0.0
 11
6196.018754144
 21
4914.3886812004
 31
0.0
  0
LINE
  5
323
330
1F
100
AcDbEntity
  8
0
  6
Continuous
 62
     7
100
AcDbLine
 10
6185.5187552169
 20
4900.8886799189
 30
0.0
 11
6185.5187552169
 21
4914.3886812004
 31
0.0
  0
LINE
  5
324
330
1F
100
AcDbEntity
  8
0
  6
Continuous
 62
     7
100
AcDbLine
 10
6349.0087553978
 20
4851.8886793378
 30
0.0
 11
6349.0087553978
 21
4917.8886808428
 31
0.0
  0
LINE
  5
325
330
1F
100
AcDbEntity
  8
0
  6
Continuous
 62
     7
100
AcDbLine
 10
6321.0187560067
 20
4851.8886793378
 30
0.0
 11
6349.0087553978
 21
4851.8886793378
 31
0.0
  0
LINE
  5
326
330
1F
100
AcDbEntity
  8
0
  6
Continuous
 62
     7
100
AcDbLine
 10
6321.0187560067
 20
4851.8886793378
 30
0.0
 11
6227.0187573627
 21
4851.8886793378
 31
0.0
  0
LINE
  5
327
330
1F
100
AcDbEntity
  8
0
  6
Continuous
 62
     7
100
AcDbLine
 10
6199.0287589028
 20
4851.8886793378
 30
0.0
 11
6227.0187573627
 21
4851.8886793378
 31
0.0
  0
LINE
  5
328
330
1F
100
AcDbEntity
  8
0
  6
Continuous
 62
     7
100
AcDbLine
 10
6199.0287589028
 20
4917.8886808428
 30
0.0
 11
6199.0287589028
 21
4851.8886793378
 31
0.0
  0
LINE
  5
329
330
1F
100
AcDbEntity
  8
0
  6
Continuous
 62
     7
100
AcDbLine
 10
6199.0287589028
 20
4917.8886808428
 30
0.0
 11
6349.0087553978
 21
4917.8886808428
 31
0.0
  0
LINE
  5
32A
330
1F
100
AcDbEntity
  8
0
  6
Continuous
 62
     7
100
AcDbLine
 10
6349.0087553978
 20
4919.8886816363
 30
0.0
 11
6349.0087553978
 21
4917.8886808428
 31
0.0
  0
LINE
  5
32B
330
1F
100
AcDbEntity
  8
0
  6
Continuous
 62
     7
100
AcDbLine
 10
6199.0287589028
 20
4917.8886808428
 30
0.0
 11
6199.0287589028
 21
4919.8886816363
 31
0.0
  0
LINE
  5
32C
330
1F
100
AcDbEntity
  8
0
  6
Continuous
 62
     7
100
AcDbLine
 10
6199.0287589028
 20
4919.8886816363
 30
0.0
 11
6349.0087553978
 21
4919.8886816363
 31
0.0
  0
LINE
  5
32D
330
1F
100
AcDbEntity
  8
0
  6
Continuous
 62
     7
100
AcDbLine
 10
6199.0287589028
 20
4851.8886793378
 30
0.0
 11
6197.0287548497
 21
4851.8886793378
 31
0.0
  0
LINE
  5
32E
330
1F
100
AcDbEntity
  8
0
  6
Continuous
 62
     7
100
AcDbLine
 10
6197.0287548497
 20
4917.8886808428
 30
0.0
 11
6197.0287548497
 21
4851.8886793378
 31
0.0
  0
LINE
  5
32F
330
1F
100
AcDbEntity
  8
0
  6
Continuous
 62
     7
100
AcDbLine
 10
6197.0287548497
 20
4917.8886808428
 30
0.0
 11
6199.0287589028
 21
4917.8886808428
 31
0.0
  0
LINE
  5
330
330
1F
100
AcDbEntity
  8
0
  6
Continuous
 62
     7
100
AcDbLine
 10
6349.0087553978
 20
4917.8886808428
 30
0.0
 11
6351.0087553364
 21
4917.8886808428
 31
0.0
  0
LINE
  5
331
330
1F
100
AcDbEntity
  8
0
  6
Continuous
 62
     7
100
AcDbLine
 10
6351.0087553364
 20
4917.8886808428
 30
0.0
 11
6351.0087553364
 21
4851.8886793378
 31
0.0
  0
LINE
  5
332
330
1F
100
AcDbEntity
  8
0
  6
Continuous
 62
     7
100
AcDbLine
 10
6351.0087553364
 20
4851.8886793378
 30
0.0
 11
6349.0087553978
 21
4851.8886793378
 31
0.0
  0
LINE
  5
333
330
1F
100
AcDbEntity
  8
0
  6
Continuous
 62
     7
100
AcDbLine
 10
6199.0287589028
 20
4849.8886827353
 30
0.0
 11
6199.0287589028
 21
4851.8886793378
 31
0.0
  0
LINE
  5
334
330
1F
100
AcDbEntity
  8
0
  6
Continuous
 62
     7
100
AcDbLine
 10
6227.0187573627
 20
4851.8886793378
 30
0.0
 11
6227.0187573627
 21
4849.8886827353
 31
0.0
  0
LINE
  5
335
330
1F
100
AcDbEntity
  8
0
  6
Continuous
 62
     7
100
AcDbLine
 10
6349.0087553978
 20
4851.8886793378
 30
0.0
 11
6349.0087553978
 21
4849.8886827353
 31
0.0
  0
LINE
  5
336
330
1F
100
AcDbEntity
  8
0
  6
Continuous
 62
     7
100
AcDbLine
 10
6321.0187560067
 20
4849.8886827353
 30
0.0
 11
6321.0187560067
 21
4851.8886793378
 31
0.0
  0
LINE
  5
337
330
1F
100
AcDbEntity
  8
0
  6
Continuous
 62
     7
100
AcDbLine
 10
6198.0187595941
 20
4919.8886816363
 30
0.0
 11
6198.0187595941
 21
4918.8886796097
 31
0.0
  0
LINE
  5
338
330
1F
100
AcDbEntity
  8
0
  6
Continuous
 62
     7
100
AcDbLine
 10
6197.0187561706
 20
4917.8886808428
 30
0.0
 11
6196.018754144
 21
4917.8886808428
 31
0.0
  0
LINE
  5
339
330
1F
100
AcDbEntity
  8
0
  6
Continuous
 62
     7
100
AcDbLine
 10
6197.0187561706
 20
4853.8886833909
 30
0.0
 11
6196.018754144
 21
4853.8886833909
 31
0.0
  0
LINE
  5
33A
330
1F
100
AcDbEntity
  8
0
  6
Continuous
 62
     7
100
AcDbLine
 10
6197.0187561706
 20
4917.8886808428
 30
0.0
 11
6197.0187561706
 21
4853.8886833909
 31
0.0
  0
LINE
  5
33B
330
1F
100
AcDbEntity
  8
0
  6
Continuous
 62
     7
100
AcDbLine
 10
6196.018754144
 20
4917.8886808428
 30
0.0
 11
6196.018754144
 21
4853.8886833909
 31
0.0
  0
LINE
  5
33C
330
1F
100
AcDbEntity
  8
0
  6
Continuous
 62
     7
100
AcDbLine
 10
6199.0287589028
 20
4919.8886816363
 30
0.0
 11
6198.0187595941
 21
4919.8886816363
 31
0.0
  0
LINE
  5
33D
330
1F
100
AcDbEntity
  8
0
  6
Continuous
 62
     7
100
AcDbLine
 10
6199.0287602998
 20
4918.8886796097
 30
0.0
 11
6198.0187595941
 21
4918.8886796097
 31
0.0
  0
LINE
  5
33E
330
1F
100
AcDbEntity
  8
0
  6
Continuous
 62
     7
100
AcDbLine
 10
6352.0187545687
 20
4917.8886822398
 30
0.0
 11
6351.0187553361
 21
4917.8886822398
 31
0.0
  0
LINE
  5
33F
330
1F
100
AcDbEntity
  8
0
  6
Continuous
 62
     7
100
AcDbLine
 10
6350.0187552886
 20
4918.8886824037
 30
0.0
 11
6350.0187552886
 21
4919.8886816363
 31
0.0
  0
LINE
  5
340
330
1F
100
AcDbEntity
  8
0
  6
Continuous
 62
     7
100
AcDbLine
 10
6350.0187552886
 20
4918.8886824037
 30
0.0
 11
6349.0087553978
 21
4918.8886824037
 31
0.0
  0
LINE
  5
341
330
1F
100
AcDbEntity
  8
0
  6
Continuous
 62
     7
100
AcDbLine
 10
6350.0187552886
 20
4919.8886816363
 30
0.0
 11
6349.0087553978
 21
4919.8886816363
 31
0.0
  0
LINE
  5
342
330
1F
100
AcDbEntity
  8
0
  6
Continuous
 62
     7
100
AcDbLine
 10
6352.0187545687
 20
4853.8886847879
 30
0.0
 11
6351.0187553361
 21
4853.8886847879
 31
0.0
  0
LINE
  5
343
330
1F
100
AcDbEntity
  8
0
  6
Continuous
 62
     7
100
AcDbLine
 10
6351.0187553361
 20
4853.8886847879
 30
0.0
 11
6351.0187553361
 21
4917.8886822398
 31
0.0
  0
LINE
  5
344
330
1F
100
AcDbEntity
  8
0
  6
Continuous
 62
     7
100
AcDbLine
 10
6352.0187545687
 20
4853.8886847879
 30
0.0
 11
6352.0187545687
 21
4917.8886822398
 31
0.0
  0
LINE
  5
345
330
1F
100
AcDbEntity
  8
0
  6
Continuous
 62
     7
100
AcDbLine
 10
6245.5687584475
 20
4839.5886797431
 30
0.0
 11
6302.4687567845
 21
4839.5886797431
 31
0.0
  0
LWPOLYLINE
  5
346
330
1F
100
AcDbEntity
  8
0
  6
Continuous
 62
     7
100
AcDbPolyline
 90
        3
 70
   128
 43
0.0
 10
6368.408203125
 20
5220.4823533945
 10
6368.1302648805
 20
5220.0008778569
 10
6367.9117193565
 20
5219.6225787454
  0
LWPOLYLINE
  5
347
330
1F
100
AcDbEntity
  8
0
  6
Continuous
 62
     7
100
AcDbPolyline
 90
        3
 70
   128
 43
0.0
 10
6366.8174743652
 20
5220.4823533945
 10
6366.5427654205
 20
5220.0008775587
 10
6366.3242185607
 20
5219.6225787454
  0
LWPOLYLINE
  5
348
330
1F
100
AcDbEntity
  8
0
  6
Continuous
 62
     7
100
AcDbPolyline
 90
        3
 70
   128
 43
0.0
 10
6365.2305603027
 20
5220.4823533945
 10
6364.9552648882
 20
5220.0008777078
 10
6364.7367186964
 20
5219.6225787454
  0
LWPOLYLINE
  5
349
330
1F
100
AcDbEntity
  8
0
  6
Continuous
 62
     7
100
AcDbPolyline
 90
        3
 70
   128
 43
0.0
 10
6363.6436462402
 20
5220.4823533945
 10
6363.3677650238
 20
5220.0008777078
 10
6363.149218832
 20
5219.6225787454
  0
LWPOLYLINE
  5
34A
330
1F
100
AcDbEntity
  8
0
  6
Continuous
 62
     7
100
AcDbPolyline
 90
        3
 70
   128
 43
0.0
 10
6368.7019348145
 20
5194.9157829337
 10
6368.983616671
 20
5194.4343065987
 10
6369.2021561906
 20
5194.056000834
  0
LWPOLYLINE
  5
34B
330
1F
100
AcDbEntity
  8
0
  6
Continuous
 62
     7
100
AcDbPolyline
 90
        3
 70
   128
 43
0.0
 10
6367.115020752
 20
5194.9157829337
 10
6367.3961164022
 20
5194.4343063005
 10
6367.6146572575
 20
5194.056000834
  0
LWPOLYLINE
  5
34C
330
1F
100
AcDbEntity
  8
0
  6
Continuous
 62
     7
100
AcDbPolyline
 90
        3
 70
   128
 43
0.0
 10
6365.5281066895
 20
5194.9157829337
 10
6365.808616426
 20
5194.4343063005
 10
6366.0271564618
 20
5194.056000834
  0
LWPOLYLINE
  5
34D
330
1F
100
AcDbEntity
  8
0
  6
Continuous
 62
     7
100
AcDbPolyline
 90
        3
 70
   128
 43
0.0
 10
6363.941192627
 20
5194.9157829337
 10
6364.2211165616
 20
5194.4343063005
 10
6364.4396565974
 20
5194.056000834
  0
LWPOLYLINE
  5
34E
330
1F
100
AcDbEntity
  8
0
  6
Continuous
 62
     7
100
AcDbPolyline
 90
        3
 70
   128
 43
0.0
 10
6362.5183105469
 20
5194.6331377082
 10
6362.7054607034
 20
5194.30994136
 10
6362.852156733
 20
5194.056000834
  0
LWPOLYLINE
  5
34F
330
1F
100
AcDbEntity
  8
0
  6
Continuous
 62
     7
100
AcDbPolyline
 90
        3
 70
   128
 43
0.0
 10
6369.9951171875
 20
5220.4823533945
 10
6369.7177651493
 20
5220.0008775587
 10
6369.4992182895
 20
5219.6225787454
  0
LWPOLYLINE
  5
350
330
1F
100
AcDbEntity
  8
0
  6
Continuous
 62
     7
100
AcDbPolyline
 90
        3
 70
   128
 43
0.0
 10
6369.3046569824
 20
5219.6293662243
 10
6369.0285964346
 20
5220.1104069734
 10
6368.8101904586
 20
5220.4883585625
  0
LWPOLYLINE
  5
351
330
1F
100
AcDbEntity
  8
0
  6
Continuous
 62
     7
100
AcDbPolyline
 90
        3
 70
   128
 43
0.0
 10
6367.7177429199
 20
5219.6293662243
 10
6367.4410966713
 20
5220.1104075695
 10
6367.2226896629
 20
5220.4883585625
  0
LWPOLYLINE
  5
352
330
1F
100
AcDbEntity
  8
0
  6
Continuous
 62
     7
100
AcDbPolyline
 90
        3
 70
   128
 43
0.0
 10
6366.1308288574
 20
5219.6293662243
 10
6365.8535962906
 20
5220.1104072715
 10
6365.6351897985
 20
5220.4883585625
  0
LWPOLYLINE
  5
353
330
1F
100
AcDbEntity
  8
0
  6
Continuous
 62
     7
100
AcDbPolyline
 90
        3
 70
   128
 43
0.0
 10
6364.5439147949
 20
5219.6293662243
 10
6364.2660964262
 20
5220.1104072715
 10
6364.0476899341
 20
5220.4883585625
  0
LWPOLYLINE
  5
354
330
1F
100
AcDbEntity
  8
0
  6
Continuous
 62
     7
100
AcDbPolyline
 90
        3
 70
   128
 43
0.0
 10
6362.9531860352
 20
5219.6293662243
 10
6362.7113937828
 20
5220.0536509139
 10
6362.5187553585
 20
5220.3870083146
  0
LWPOLYLINE
  5
355
330
1F
100
AcDbEntity
  8
0
  6
Continuous
 62
     7
100
AcDbPolyline
 90
        3
 70
   128
 43
0.0
 10
6368.0267333984
 20
5194.0560157352
 10
6368.3068020636
 20
5194.5374950054
 10
6368.5253510371
 20
5194.9157978349
  0
LWPOLYLINE
  5
356
330
1F
100
AcDbEntity
  8
0
  6
Continuous
 62
     7
100
AcDbPolyline
 90
        3
 70
   128
 43
0.0
 10
6366.4398193359
 20
5194.0560157352
 10
6366.7193019465
 20
5194.5374954526
 10
6366.937852104
 20
5194.9157978349
  0
LWPOLYLINE
  5
357
330
1F
100
AcDbEntity
  8
0
  6
Continuous
 62
     7
100
AcDbPolyline
 90
        3
 70
   128
 43
0.0
 10
6364.8529052734
 20
5194.0560157352
 10
6365.1318023348
 20
5194.5374950054
 10
6365.3503513083
 20
5194.9157978349
  0
LWPOLYLINE
  5
358
330
1F
100
AcDbEntity
  8
0
  6
Continuous
 62
     7
100
AcDbPolyline
 90
        3
 70
   128
 43
0.0
 10
6363.2659912109
 20
5194.0560157352
 10
6363.5443023187
 20
5194.5374948563
 10
6363.7628514439
 20
5194.9157978349
  0
LWPOLYLINE
  5
359
330
1F
100
AcDbEntity
  8
0
  6
Continuous
 62
     7
100
AcDbPolyline
 90
        3
 70
   128
 43
0.0
 10
6369.6136474609
 20
5194.0560157352
 10
6369.8943025559
 20
5194.5374947072
 10
6370.1128518328
 20
5194.9157978349
  0
LWPOLYLINE
  5
35A
330
1F
100
AcDbEntity
  8
0
  6
Continuous
 62
     7
100
AcDbPolyline
 90
        3
 70
   128
 43
0.0
 10
6260.8032226562
 20
5350.9249019377
 10
6261.2826880794
 20
5350.6492899401
 10
6261.6575421885
 20
5350.4327333473
  0
LWPOLYLINE
  5
35B
330
1F
100
AcDbEntity
  8
0
  6
Continuous
 62
     7
100
AcDbPolyline
 90
        3
 70
   128
 43
0.0
 10
6260.8032226562
 20
5349.3374020733
 10
6261.2826879289
 20
5349.0617903367
 10
6261.6575421885
 20
5348.8452344142
  0
LWPOLYLINE
  5
35C
330
1F
100
AcDbEntity
  8
0
  6
Continuous
 62
     7
100
AcDbPolyline
 90
        3
 70
   128
 43
0.0
 10
6260.8032226562
 20
5347.7499022089
 10
6261.2826880794
 20
5347.4742902113
 10
6261.6575421885
 20
5347.2577336185
  0
LWPOLYLINE
  5
35D
330
1F
100
AcDbEntity
  8
0
  6
Continuous
 62
     7
100
AcDbPolyline
 90
        3
 70
   128
 43
0.0
 10
6260.8032226562
 20
5346.1624023445
 10
6261.2826880794
 20
5345.8867903469
 10
6261.6575421885
 20
5345.6702337541
  0
LWPOLYLINE
  5
35E
330
1F
100
AcDbEntity
  8
0
  6
Continuous
 62
     7
100
AcDbPolyline
 90
        3
 70
   128
 43
0.0
 10
6286.3693237305
 20
5351.2219547235
 10
6286.8536079829
 20
5351.5001072952
 10
6287.2319134071
 20
5351.7186514043
  0
LWPOLYLINE
  5
35F
330
1F
100
AcDbEntity
  8
0
  6
Continuous
 62
     7
100
AcDbPolyline
 90
        3
 70
   128
 43
0.0
 10
6286.3693237305
 20
5349.6344548591
 10
6286.8536078338
 20
5349.9126082104
 10
6287.2319134071
 20
5350.1311524712
  0
LWPOLYLINE
  5
360
330
1F
100
AcDbEntity
  8
0
  6
Continuous
 62
     7
100
AcDbPolyline
 90
        3
 70
   128
 43
0.0
 10
6286.3693237305
 20
5348.0469549947
 10
6286.853608132
 20
5348.3251078298
 10
6287.2319134071
 20
5348.5436526068
  0
LWPOLYLINE
  5
361
330
1F
100
AcDbEntity
  8
0
  6
Continuous
 62
     7
100
AcDbPolyline
 90
        3
 70
   128
 43
0.0
 10
6286.3693237305
 20
5346.4594551303
 10
6286.8536079829
 20
5346.737607702
 10
6287.2319134071
 20
5346.9561518111
  0
LWPOLYLINE
  5
362
330
1F
100
AcDbEntity
  8
0
  6
Continuous
 62
     7
100
AcDbPolyline
 90
        3
 70
   128
 43
0.0
 10
6286.3693237305
 20
5344.8719552659
 10
6286.8536079829
 20
5345.1501078376
 10
6287.2319134071
 20
5345.3686519467
  0
LWPOLYLINE
  5
363
330
1F
100
AcDbEntity
  8
0
  6
Continuous
 62
     7
100
AcDbPolyline
 90
        3
 70
   128
 43
0.0
 10
6260.9786987305
 20
5352.41049928
 10
6261.3603035369
 20
5352.1919522782
 10
6261.6575421885
 20
5352.020234143
  0
LWPOLYLINE
  5
364
330
1F
100
AcDbEntity
  8
0
  6
Continuous
 62
     7
100
AcDbPolyline
 90
        3
 70
   128
 43
0.0
 10
6261.6653442383
 20
5350.2480893337
 10
6261.1838857775
 20
5349.9699413253
 10
6260.8055831984
 20
5349.7514019661
  0
LWPOLYLINE
  5
365
330
1F
100
AcDbEntity
  8
0
  6
Continuous
 62
     7
100
AcDbPolyline
 90
        3
 70
   128
 43
0.0
 10
6261.6653442383
 20
5348.6605904006
 10
6261.1838862248
 20
5348.3824410964
 10
6260.8055831984
 20
5348.1639021017
  0
LWPOLYLINE
  5
366
330
1F
100
AcDbEntity
  8
0
  6
Continuous
 62
     7
100
AcDbPolyline
 90
        3
 70
   128
 43
0.0
 10
6261.6653442383
 20
5347.0730905362
 10
6261.1838862248
 20
5346.794941232
 10
6260.8055831984
 20
5346.5764022373
  0
LWPOLYLINE
  5
367
330
1F
100
AcDbEntity
  8
0
  6
Continuous
 62
     7
100
AcDbPolyline
 90
        3
 70
   128
 43
0.0
 10
6261.6653442383
 20
5345.4855906718
 10
6261.1838862248
 20
5345.2074413676
 10
6260.8055831984
 20
5344.9889023729
  0
LWPOLYLINE
  5
368
330
1F
100
AcDbEntity
  8
0
  6
Continuous
 62
     7
100
AcDbPolyline
 90
        3
 70
   128
 43
0.0
 10
6287.2314453125
 20
5350.5451514326
 10
6286.7548295374
 20
5350.8207648415
 10
6286.3799693182
 20
5351.0373237484
  0
LWPOLYLINE
  5
369
330
1F
100
AcDbEntity
  8
0
  6
Continuous
 62
     7
100
AcDbPolyline
 90
        3
 70
   128
 43
0.0
 10
6287.2314453125
 20
5348.9576515682
 10
6286.7548295374
 20
5349.2332649771
 10
6286.3799693182
 20
5349.449823884
  0
LWPOLYLINE
  5
36A
330
1F
100
AcDbEntity
  8
0
  6
Continuous
 62
     7
100
AcDbPolyline
 90
        3
 70
   128
 43
0.0
 10
6287.2314453125
 20
5347.3701517038
 10
6286.7548295374
 20
5347.6457651127
 10
6286.3799693182
 20
5347.8623240196
  0
LWPOLYLINE
  5
36B
330
1F
100
AcDbEntity
  8
0
  6
Continuous
 62
     7
100
AcDbPolyline
 90
        3
 70
   128
 43
0.0
 10
6287.2314453125
 20
5345.7826518394
 10
6286.754829688
 20
5346.0582649873
 10
6286.3799693182
 20
5346.2748232238
  0
LWPOLYLINE
  5
36C
330
1F
100
AcDbEntity
  8
0
  6
Continuous
 62
     7
100
AcDbPolyline
 90
        3
 70
   128
 43
0.0
 10
6287.2314453125
 20
5352.1326522284
 10
6286.7548295374
 20
5352.4082656372
 10
6286.3799693182
 20
5352.6248245441
  0
LWPOLYLINE
  5
36D
330
1F
100
AcDbEntity
  8
0
  6
Continuous
 62
     7
100
AcDbPolyline
 90
        3
 70
   128
 43
0.0
 10
6261.6653442383
 20
5351.8355901294
 10
6261.1838863739
 20
5351.5574410886
 10
6260.8055831984
 20
5351.3389027618
  0
LWPOLYLINE
  5
36E
330
1F
100
AcDbEntity
  8
0
  6
Continuous
 62
     7
100
AcDbPolyline
 90
        3
 70
   128
 43
0.0
 10
6179.5120239258
 20
5194.9157978349
 10
6179.7903176659
 20
5194.434324735
 10
6180.0088571504
 20
5194.0560157352
  0
LWPOLYLINE
  5
36F
330
1F
100
AcDbEntity
  8
0
  6
Continuous
 62
     7
100
AcDbPolyline
 90
        3
 70
   128
 43
0.0
 10
6181.0989379883
 20
5194.9157978349
 10
6181.3778128737
 20
5194.434324735
 10
6181.5963523582
 20
5194.0560157352
  0
LWPOLYLINE
  5
370
330
1F
100
AcDbEntity
  8
0
  6
Continuous
 62
     7
100
AcDbPolyline
 90
        3
 70
   128
 43
0.0
 10
6182.6858520508
 20
5194.9157978349
 10
6182.9653125926
 20
5194.4343187686
 10
6183.1838624671
 20
5194.0560157352
  0
LWPOLYLINE
  5
371
330
1F
100
AcDbEntity
  8
0
  6
Continuous
 62
     7
100
AcDbPolyline
 90
        3
 70
   128
 43
0.0
 10
6184.2727661133
 20
5194.9157978349
 10
6184.5528181904
 20
5194.434324735
 10
6184.7713576749
 20
5194.0560157352
  0
LWPOLYLINE
  5
372
330
1F
100
AcDbEntity
  8
0
  6
Continuous
 62
     7
100
AcDbPolyline
 90
        3
 70
   128
 43
0.0
 10
6179.2259216309
 20
5220.4883585625
 10
6178.9493468143
 20
5220.0073331039
 10
6178.7309484675
 20
5219.6293662243
  0
LWPOLYLINE
  5
373
330
1F
100
AcDbEntity
  8
0
  6
Continuous
 62
     7
100
AcDbPolyline
 90
        3
 70
   128
 43
0.0
 10
6180.8128356934
 20
5220.4883585625
 10
6180.5368516516
 20
5220.0073258225
 10
6180.3184436753
 20
5219.6293662243
  0
LWPOLYLINE
  5
374
330
1F
100
AcDbEntity
  8
0
  6
Continuous
 62
     7
100
AcDbPolyline
 90
        3
 70
   128
 43
0.0
 10
6182.3997497559
 20
5220.4883585625
 10
6182.1243492861
 20
5220.0073282067
 10
6181.9059388831
 20
5219.6293662243
  0
LWPOLYLINE
  5
375
330
1F
100
AcDbEntity
  8
0
  6
Continuous
 62
     7
100
AcDbPolyline
 90
        3
 70
   128
 43
0.0
 10
6183.9866638184
 20
5220.4883585625
 10
6183.7118473388
 20
5220.0073331039
 10
6183.4934489921
 20
5219.6293662243
  0
LWPOLYLINE
  5
376
330
1F
100
AcDbEntity
  8
0
  6
Continuous
 62
     7
100
AcDbPolyline
 90
        3
 70
   128
 43
0.0
 10
6185.5163574219
 20
5220.3870083146
 10
6185.2735835154
 20
5219.9627319753
 10
6185.0809441999
 20
5219.6293662243
  0
LWPOLYLINE
  5
377
330
1F
100
AcDbEntity
  8
0
  6
Continuous
 62
     7
100
AcDbPolyline
 90
        3
 70
   128
 43
0.0
 10
6177.921295166
 20
5194.9157978349
 10
6178.2028120681
 20
5194.4343187686
 10
6178.4213619426
 20
5194.0560157352
  0
LWPOLYLINE
  5
378
330
1F
100
AcDbEntity
  8
0
  6
Continuous
 62
     7
100
AcDbPolyline
 90
        3
 70
   128
 43
0.0
 10
6178.8330078125
 20
5194.056000834
 10
6179.1135023811
 20
5194.537480153
 10
6179.3320464089
 20
5194.9157829337
  0
LWPOLYLINE
  5
379
330
1F
100
AcDbEntity
  8
0
  6
Continuous
 62
     7
100
AcDbPolyline
 90
        3
 70
   128
 43
0.0
 10
6180.419921875
 20
5194.056000834
 10
6180.7009975889
 20
5194.537480153
 10
6180.9195416167
 20
5194.9157829337
  0
LWPOLYLINE
  5
37A
330
1F
100
AcDbEntity
  8
0
  6
Continuous
 62
     7
100
AcDbPolyline
 90
        3
 70
   128
 43
0.0
 10
6182.0068359375
 20
5194.056000834
 10
6182.2884927967
 20
5194.537480153
 10
6182.5070368245
 20
5194.9157829337
  0
LWPOLYLINE
  5
37B
330
1F
100
AcDbEntity
  8
0
  6
Continuous
 62
     7
100
AcDbPolyline
 90
        3
 70
   128
 43
0.0
 10
6183.5975646973
 20
5194.056000834
 10
6183.8760004784
 20
5194.5374777676
 10
6184.0945469335
 20
5194.9157829337
  0
LWPOLYLINE
  5
37C
330
1F
100
AcDbEntity
  8
0
  6
Continuous
 62
     7
100
AcDbPolyline
 90
        3
 70
   128
 43
0.0
 10
6185.1844787598
 20
5194.056000834
 10
6185.3720600981
 20
5194.3791973031
 10
6185.5187552169
 20
5194.6331377082
  0
LWPOLYLINE
  5
37D
330
1F
100
AcDbEntity
  8
0
  6
Continuous
 62
     7
100
AcDbPolyline
 90
        3
 70
   128
 43
0.0
 10
6180.1223754883
 20
5219.6225787454
 10
6179.8476390808
 20
5220.1040505172
 10
6179.6291010573
 20
5220.4823533945
  0
LWPOLYLINE
  5
37E
330
1F
100
AcDbEntity
  8
0
  6
Continuous
 62
     7
100
AcDbPolyline
 90
        3
 70
   128
 43
0.0
 10
6181.713104248
 20
5219.6225787454
 10
6181.4351491897
 20
5220.1040505172
 10
6181.2166111663
 20
5220.4823533945
  0
LWPOLYLINE
  5
37F
330
1F
100
AcDbEntity
  8
0
  6
Continuous
 62
     7
100
AcDbPolyline
 90
        3
 70
   128
 43
0.0
 10
6183.3000183105
 20
5219.6225787454
 10
6183.0226443975
 20
5220.1040505172
 10
6182.8041063741
 20
5220.4823533945
  0
LWPOLYLINE
  5
380
330
1F
100
AcDbEntity
  8
0
  6
Continuous
 62
     7
100
AcDbPolyline
 90
        3
 70
   128
 43
0.0
 10
6184.886932373
 20
5219.6225787454
 10
6184.6101396053
 20
5220.1040505172
 10
6184.3916015819
 20
5220.4823533945
  0
LWPOLYLINE
  5
381
330
1F
100
AcDbEntity
  8
0
  6
Continuous
 62
     7
100
AcDbPolyline
 90
        3
 70
   128
 43
0.0
 10
6178.5354614258
 20
5219.6225787454
 10
6178.260143873
 20
5220.1040505172
 10
6178.0416058496
 20
5220.4823533945
  0
LWPOLYLINE
  5
382
330
1F
100
AcDbEntity
  8
0
  6
Continuous
 62
     7
100
AcDbPolyline
 90
        6
 70
   128
 43
0.0
 10
6229.7325134277
 20
5169.5421452575
 10
6231.3404022737
 20
5169.6688953768
 10
6231.83762136
 20
5169.8899097331
 10
6232.0180576073
 20
5170.2158860417
 10
6231.4905960957
 20
5171.0205846337
 10
6230.0187559918
 20
5171.5032274776
  0
LWPOLYLINE
  5
383
330
1F
100
AcDbEntity
  8
0
  6
Continuous
 62
     7
100
AcDbPolyline
 90
        6
 70
   128
 43
0.0
 10
6230.0186157227
 20
5171.5032274776
 10
6228.5147408834
 20
5170.9966828501
 10
6228.1231788006
 20
5170.5732918291
 10
6228.0246745845
 20
5170.1699395371
 10
6228.4134622238
 20
5169.7642393916
 10
6229.7329591706
 20
5169.5421452575
  0
LWPOLYLINE
  5
384
330
1F
100
AcDbEntity
  8
0
  6
Continuous
 62
     7
100
AcDbPolyline
 90
        6
 70
   128
 43
0.0
 10
6317.7299499512
 20
5169.5421452575
 10
6319.3404039724
 20
5169.6688960232
 10
6319.8376234903
 20
5169.889910347
 10
6320.0180564986
 20
5170.2158868903
 10
6319.4905970919
 20
5171.0205858084
 10
6318.0187555149
 20
5171.5032274776
  0
LWPOLYLINE
  5
385
330
1F
100
AcDbEntity
  8
0
  6
Continuous
 62
     7
100
AcDbPolyline
 90
        6
 70
   128
 43
0.0
 10
6318.0160522461
 20
5171.5032274776
 10
6316.5147426168
 20
5170.9966816822
 10
6316.1231776056
 20
5170.5732914345
 10
6316.0246748776
 20
5170.1699390198
 10
6316.4134664675
 20
5169.7642393042
 10
6317.7329624191
 20
5169.5421452575
  0
LWPOLYLINE
  5
386
330
1F
100
AcDbEntity
  8
0
  6
Continuous
 62
     7
100
AcDbPolyline
 90
        3
 70
   128
 43
0.0
 10
6228.3821105957
 20
5170.8631480985
 10
6230.2710321724
 20
5170.5718550684
 10
6231.6730456546
 20
5170.8667541795
  0
LWPOLYLINE
  5
387
330
1F
100
AcDbEntity
  8
0
  6
Continuous
 62
     7
100
AcDbPolyline
 90
        3
 70
   128
 43
0.0
 10
6316.3833618164
 20
5170.8631480985
 10
6318.2710317955
 20
5170.5718548152
 10
6319.6730414525
 20
5170.8667541795
  0
LWPOLYLINE
  5
388
330
1F
100
AcDbEntity
  8
0
  6
Continuous
 62
     7
100
AcDbPolyline
 90
        4
 70
   128
 43
0.0
 10
6314.3768310547
 20
5192.2030563407
 10
6314.3517724524
 20
5192.9068632947
 10
6314.2474369251
 20
5193.2404413762
 10
6313.9549927905
 20
5193.406593328
  0
LWPOLYLINE
  5
389
330
1F
100
AcDbEntity
  8
0
  6
Continuous
 62
     7
100
AcDbPolyline
 90
        4
 70
   128
 43
0.0
 10
6313.6825561523
 20
5193.406593328
 10
6313.3921288939
 20
5193.2379732583
 10
6313.2882752536
 20
5192.9028586259
 10
6313.2609525815
 20
5192.1964998298
  0
LWPOLYLINE
  5
38A
330
1F
100
AcDbEntity
  8
0
  6
Continuous
 62
     7
100
AcDbPolyline
 90
        3
 70
   128
 43
0.0
 10
6313.9533996582
 20
5194.1111500316
 10
6314.8525156583
 20
5193.6092541944
 10
6315.0786446527
 20
5192.8145701938
  0
LWPOLYLINE
  5
38B
330
1F
100
AcDbEntity
  8
0
  6
Continuous
 62
     7
100
AcDbPolyline
 90
        3
 70
   128
 43
0.0
 10
6312.572479248
 20
5192.8240324311
 10
6312.9389366599
 20
5193.792803187
 10
6313.6844659343
 20
5194.1111500316
  0
LWPOLYLINE
  5
38C
330
1F
100
AcDbEntity
  8
0
  6
Continuous
 62
     7
100
AcDbPolyline
 90
        3
 70
   128
 43
0.0
 10
6309.2918395996
 20
5193.8567723088
 10
6309.4222974688
 20
5192.9382990067
 10
6309.8459752396
 20
5192.3397744947
  0
LWPOLYLINE
  5
38D
330
1F
100
AcDbEntity
  8
0
  6
Continuous
 62
     7
100
AcDbPolyline
 90
        3
 70
   128
 43
0.0
 10
6310.9550476074
 20
5195.2882225566
 10
6309.7079110123
 20
5194.8204843803
 10
6309.2937717333
 20
5193.8567723088
  0
LWPOLYLINE
  5
38E
330
1F
100
AcDbEntity
  8
0
  6
Continuous
 62
     7
100
AcDbPolyline
 90
        3
 70
   128
 43
0.0
 10
6310.0967407227
 20
5193.8045139365
 10
6310.4467957961
 20
5194.4051080052
 10
6311.0063733652
 20
5194.5233459525
  0
LWPOLYLINE
  5
38F
330
1F
100
AcDbEntity
  8
0
  6
Continuous
 62
     7
100
AcDbPolyline
 90
        3
 70
   128
 43
0.0
 10
6310.8329772949
 20
5192.4056674295
 10
6310.2559204309
 20
5193.1120300802
 10
6310.0978011385
 20
5193.8045139365
  0
LWPOLYLINE
  5
390
330
1F
100
AcDbEntity
  8
0
  6
Continuous
 62
     7
100
AcDbPolyline
 90
        3
 70
   128
 43
0.0
 10
6311.9964599609
 20
5190.0918151193
 10
6311.9167157796
 20
5191.0045457749
 10
6311.5290800229
 20
5191.6147584968
  0
LWPOLYLINE
  5
391
330
1F
100
AcDbEntity
  8
0
  6
Continuous
 62
     7
100
AcDbPolyline
 90
        3
 70
   128
 43
0.0
 10
6310.5850219727
 20
5188.8891722016
 10
6311.6525652921
 20
5189.2616364982
 10
6311.9999045625
 20
5190.0918151193
  0
LWPOLYLINE
  5
392
330
1F
100
AcDbEntity
  8
0
  6
Continuous
 62
     7
100
AcDbPolyline
 90
        3
 70
   128
 43
0.0
 10
6311.1991882324
 20
5190.2435983472
 10
6310.9454994797
 20
5189.7654345123
 10
6310.52264442
 20
5189.6669830136
  0
LWPOLYLINE
  5
393
330
1F
100
AcDbEntity
  8
0
  6
Continuous
 62
     7
100
AcDbPolyline
 90
        3
 70
   128
 43
0.0
 10
6310.7872009277
 20
5191.2711973243
 10
6311.1636703579
 20
5190.7452816332
 10
6311.2008223429
 20
5190.2435983472
  0
LWPOLYLINE
  5
394
330
1F
100
AcDbEntity
  8
0
  6
Continuous
 62
     7
100
AcDbPolyline
 90
        3
 70
   128
 43
0.0
 10
6329.2617797852
 20
5193.3456326776
 10
6328.7708300001
 20
5193.5544823377
 10
6328.3580007151
 20
5193.6295445018
  0
LWPOLYLINE
  5
395
330
1F
100
AcDbEntity
  8
0
  6
Continuous
 62
     7
100
AcDbPolyline
 90
        3
 70
   128
 43
0.0
 10
6330.1582336426
 20
5192.9731185489
 10
6329.640827603
 20
5193.1407940154
 10
6329.2626800135
 20
5193.3456326776
  0
LWPOLYLINE
  5
396
330
1F
100
AcDbEntity
  8
0
  6
Continuous
 62
     7
100
AcDbPolyline
 90
        3
 70
   128
 43
0.0
 10
6330.8601379395
 20
5195.1996649556
 10
6330.7227827156
 20
5195.2438744807
 10
6330.6109519795
 20
5195.2750201278
  0
LWPOLYLINE
  5
397
330
1F
100
AcDbEntity
  8
0
  6
Continuous
 62
     7
100
AcDbPolyline
 90
        3
 70
   128
 43
0.0
 10
6331.657409668
 20
5195.8117003493
 10
6331.1833309362
 20
5195.5063312275
 10
6330.8637594923
 20
5195.1996649556
  0
LWPOLYLINE
  5
398
330
1F
100
AcDbEntity
  8
0
  6
Continuous
 62
     7
100
AcDbPolyline
 90
        3
 70
   128
 43
0.0
 10
6328.3653259277
 20
5193.8779319577
 10
6329.1713281338
 20
5194.9663297771
 10
6330.2073186383
 20
5195.2439512067
  0
LWPOLYLINE
  5
399
330
1F
100
AcDbEntity
  8
0
  6
Continuous
 62
     7
100
AcDbPolyline
 90
        3
 70
   128
 43
0.0
 10
6329.5669555664
 20
5194.6939791494
 10
6328.8632534025
 20
5194.2844999314
 10
6328.3666862294
 20
5193.8779319577
  0
LWPOLYLINE
  5
39A
330
1F
100
AcDbEntity
  8
0
  6
Continuous
 62
     7
100
AcDbPolyline
 90
        3
 70
   128
 43
0.0
 10
6330.9669494629
 20
5194.6496332936
 10
6330.1636449468
 20
5194.3679678543
 10
6329.5686250672
 20
5194.6939791494
  0
LWPOLYLINE
  5
39B
330
1F
100
AcDbEntity
  8
0
  6
Continuous
 62
     7
100
AcDbPolyline
 90
        3
 70
   128
 43
0.0
 10
6332.0198059082
 20
5193.9932073407
 10
6331.4636738646
 20
5194.4095610033
 10
6330.9701593712
 20
5194.6496332936
  0
LWPOLYLINE
  5
39C
330
1F
100
AcDbEntity
  8
0
  6
Continuous
 62
     7
100
AcDbPolyline
 90
        3
 70
   128
 43
0.0
 10
6329.4868469238
 20
5195.1862688117
 10
6329.0160948662
 20
5195.627532019
 10
6328.5663562015
 20
5195.8648974948
  0
LWPOLYLINE
  5
39D
330
1F
100
AcDbEntity
  8
0
  6
Continuous
 62
     7
100
AcDbPolyline
 90
        3
 70
   128
 43
0.0
 10
6329.776763916
 20
5195.2661390357
 10
6329.6134047704
 20
5195.2295972902
 10
6329.4888572887
 20
5195.1862688117
  0
LWPOLYLINE
  5
39E
330
1F
100
AcDbEntity
  8
0
  6
Continuous
 62
     7
100
AcDbPolyline
 90
        3
 70
   128
 43
0.0
 10
6331.1309814453
 20
5192.5132091098
 10
6331.432134725
 20
5192.509938058
 10
6331.6608095661
 20
5192.5617272906
  0
LWPOLYLINE
  5
39F
330
1F
100
AcDbEntity
  8
0
  6
Continuous
 62
     7
100
AcDbPolyline
 90
        3
 70
   128
 43
0.0
 10
6330.9936523438
 20
5192.0519734674
 10
6331.0678974574
 20
5192.3118318075
 10
6331.133785297
 20
5192.5132091098
  0
LWPOLYLINE
  5
3A0
330
1F
100
AcDbEntity
  8
0
  6
Continuous
 62
     7
100
AcDbPolyline
 90
        3
 70
   128
 43
0.0
 10
6331.9511413574
 20
5192.1318436914
 10
6331.4219521529
 20
5192.001057591
 10
6330.9958098575
 20
5192.0519734674
  0
LWPOLYLINE
  5
3A1
330
1F
100
AcDbEntity
  8
0
  6
Continuous
 62
     7
100
AcDbPolyline
 90
        3
 70
   128
 43
0.0
 10
6330.8753967285
 20
5191.4587433391
 10
6331.6407435269
 20
5191.368909632
 10
6332.2266904756
 20
5191.5128345542
  0
LWPOLYLINE
  5
3A2
330
1F
100
AcDbEntity
  8
0
  6
Continuous
 62
     7
100
AcDbPolyline
 90
        3
 70
   128
 43
0.0
 10
6330.810546875
 20
5190.9034515672
 10
6330.8437190692
 20
5191.2149968438
 10
6330.8769619211
 20
5191.4587433391
  0
LWPOLYLINE
  5
3A3
330
1F
100
AcDbEntity
  8
0
  6
Continuous
 62
     7
100
AcDbPolyline
 90
        3
 70
   128
 43
0.0
 10
6332.3440551758
 20
5190.941702848
 10
6331.4860719506
 20
5190.7736615965
 10
6330.8125814542
 20
5190.9034515672
  0
LWPOLYLINE
  5
3A4
330
1F
100
AcDbEntity
  8
0
  6
Continuous
 62
     7
100
AcDbPolyline
 90
        3
 70
   128
 43
0.0
 10
6328.5064697266
 20
5194.3746621661
 10
6328.1381528391
 20
5195.2663006487
 10
6328.0652357385
 20
5196.0245485358
  0
LWPOLYLINE
  5
3A5
330
1F
100
AcDbEntity
  8
0
  6
Continuous
 62
     7
100
AcDbPolyline
 90
        3
 70
   128
 43
0.0
 10
6328.0639648438
 20
5196.0245485358
 10
6329.1013573326
 20
5195.7194631473
 10
6329.8303416118
 20
5195.2838565164
  0
LWPOLYLINE
  5
3A6
330
1F
100
AcDbEntity
  8
0
  6
Continuous
 62
     7
100
AcDbPolyline
 90
        3
 70
   128
 43
0.0
 10
6332.0693969727
 20
5193.5674662643
 10
6331.3232153747
 20
5193.4028945403
 10
6330.8018135026
 20
5193.1061263137
  0
ARC
  5
3A7
330
1F
100
AcDbEntity
  8
0
  6
Continuous
 62
     7
100
AcDbCircle
 10
6330.6708605194
 20
5193.0140838309
 30
0.0
 40
1.585921204925641
100
AcDbArc
 50
20.019982669
 51
78.7928703669
  0
LWPOLYLINE
  5
3A8
330
1F
100
AcDbEntity
  8
0
  6
Continuous
 62
     7
100
AcDbPolyline
 90
        3
 70
   128
 43
0.0
 10
6330.9135437012
 20
5195.1774324231
 10
6330.9944801358
 20
5195.1437217877
 10
6331.0544943556
 20
5195.1152796798
  0
LWPOLYLINE
  5
3A9
330
1F
100
AcDbEntity
  8
0
  6
Continuous
 62
     7
100
AcDbPolyline
 90
        3
 70
   128
 43
0.0
 10
6330.7952880859
 20
5193.7537009769
 10
6330.9139231573
 20
5193.8081793802
 10
6330.9480199709
 20
5193.9045156293
  0
LWPOLYLINE
  5
3AA
330
1F
100
AcDbEntity
  8
0
  6
Continuous
 62
     7
100
AcDbPolyline
 90
        3
 70
   128
 43
0.0
 10
6329.7920227051
 20
5193.7537009769
 10
6329.9098657483
 20
5193.8097038027
 10
6329.9456523851
 20
5193.9045156293
  0
LWPOLYLINE
  5
3AB
330
1F
100
AcDbEntity
  8
0
  6
Continuous
 62
     7
100
AcDbPolyline
 90
        3
 70
   128
 43
0.0
 10
6329.7958374023
 20
5188.400458818
 10
6329.7890344224
 20
5190.9175993047
 10
6329.4800209001
 20
5192.8711201005
  0
LWPOLYLINE
  5
3AC
330
1F
100
AcDbEntity
  8
0
  6
Continuous
 62
     7
100
AcDbPolyline
 90
        3
 70
   128
 43
0.0
 10
6330.7952880859
 20
5194.0552855783
 10
6330.6836058136
 20
5193.9996093356
 10
6330.6508610144
 20
5193.9045156293
  0
LWPOLYLINE
  5
3AD
330
1F
100
AcDbEntity
  8
0
  6
Continuous
 62
     7
100
AcDbPolyline
 90
        3
 70
   128
 43
0.0
 10
6330.6503295898
 20
5193.9045156293
 10
6330.7031960152
 20
5193.7889477934
 10
6330.7972202197
 20
5193.7537009769
  0
LWPOLYLINE
  5
3AE
330
1F
100
AcDbEntity
  8
0
  6
Continuous
 62
     7
100
AcDbPolyline
 90
        3
 70
   128
 43
0.0
 10
6329.9446105957
 20
5193.9045156293
 10
6329.8892333937
 20
5194.0172437135
 10
6329.7948768482
 20
5194.0508599334
  0
LWPOLYLINE
  5
3AF
330
1F
100
AcDbEntity
  8
0
  6
Continuous
 62
     7
100
AcDbPolyline
 90
        3
 70
   128
 43
0.0
 10
6329.7920227051
 20
5194.0508599334
 10
6329.680118268
 20
5193.9977637725
 10
6329.6440752342
 20
5193.9045156293
  0
LWPOLYLINE
  5
3B0
330
1F
100
AcDbEntity
  8
0
  6
Continuous
 62
     7
100
AcDbPolyline
 90
        3
 70
   128
 43
0.0
 10
6329.6432495117
 20
5193.9045156293
 10
6329.7000761323
 20
5193.7895238929
 10
6329.7948768482
 20
5193.7537009769
  0
LWPOLYLINE
  5
3B1
330
1F
100
AcDbEntity
  8
0
  6
Continuous
 62
     7
100
AcDbPolyline
 90
        3
 70
   128
 43
0.0
 10
6329.4792175293
 20
5192.8711201005
 10
6329.4146920047
 20
5192.4930604006
 10
6329.2937042311
 20
5192.2146941476
  0
LWPOLYLINE
  5
3B2
330
1F
100
AcDbEntity
  8
0
  6
Continuous
 62
     7
100
AcDbPolyline
 90
        4
 70
   128
 43
0.0
 10
6329.2922973633
 20
5192.2146941476
 10
6328.5386774833
 20
5190.0883695208
 10
6328.8599202151
 20
5189.0185387797
 10
6329.7993192568
 20
5188.400458818
  0
LWPOLYLINE
  5
3B3
330
1F
100
AcDbEntity
  8
0
  6
Continuous
 62
     7
100
AcDbPolyline
 90
        3
 70
   128
 43
0.0
 10
6329.8721313477
 20
5188.3870477729
 10
6330.0478709037
 20
5188.3596756971
 10
6330.1853058979
 20
5188.3516426139
  0
LWPOLYLINE
  5
3B4
330
1F
100
AcDbEntity
  8
0
  6
Continuous
 62
     7
100
AcDbPolyline
 90
        3
 70
   128
 43
0.0
 10
6330.1849365234
 20
5188.3516426139
 10
6330.15188905
 20
5189.3566455666
 10
6330.2206477269
 20
5190.1434774451
  0
LWPOLYLINE
  5
3B5
330
1F
100
AcDbEntity
  8
0
  6
Continuous
 62
     7
100
AcDbPolyline
 90
        3
 70
   128
 43
0.0
 10
6330.2192687988
 20
5190.1434774451
 10
6330.2374743346
 20
5189.1374444963
 10
6330.2605809763
 20
5188.347216969
  0
LWPOLYLINE
  5
3B6
330
1F
100
AcDbEntity
  8
0
  6
Continuous
 62
     7
100
AcDbPolyline
 90
        3
 70
   128
 43
0.0
 10
6330.2574157715
 20
5188.347216969
 10
6330.4405554576
 20
5188.3578257103
 10
6330.5798793331
 20
5188.382711535
  0
LWPOLYLINE
  5
3B7
330
1F
100
AcDbEntity
  8
0
  6
Continuous
 62
     7
100
AcDbPolyline
 90
        3
 70
   128
 43
0.0
 10
6330.5778503418
 20
5188.382711535
 10
6330.517133155
 20
5191.1455852028
 10
6331.0944294676
 20
5193.1949074321
  0
LWPOLYLINE
  5
3B8
330
1F
100
AcDbEntity
  8
0
  6
Continuous
 62
     7
100
AcDbPolyline
 90
        3
 70
   128
 43
0.0
 10
6331.0928344727
 20
5193.1949074321
 10
6330.6422170779
 20
5192.9079312355
 10
6330.2473040417
 20
5192.7735025935
  0
LWPOLYLINE
  5
3B9
330
1F
100
AcDbEntity
  8
0
  6
Continuous
 62
     7
100
AcDbPolyline
 90
        3
 70
   128
 43
0.0
 10
6330.2459716797
 20
5192.7735025935
 10
6329.7353534256
 20
5192.9897259402
 10
6329.3558010951
 20
5193.2125951104
  0
LWPOLYLINE
  5
3BA
330
1F
100
AcDbEntity
  8
0
  6
Continuous
 62
     7
100
AcDbPolyline
 90
        3
 70
   128
 43
0.0
 10
6330.7571411133
 20
5192.4053843074
 10
6330.5728636053
 20
5190.1628889979
 10
6330.6374071285
 20
5188.3961374812
  0
LWPOLYLINE
  5
3BB
330
1F
100
AcDbEntity
  8
0
  6
Continuous
 62
     7
100
AcDbPolyline
 90
        3
 70
   128
 43
0.0
 10
6330.6350708008
 20
5188.3961374812
 10
6330.6529504391
 20
5188.3976798497
 10
6330.6651437774
 20
5188.39907301
  0
LWPOLYLINE
  5
3BC
330
1F
100
AcDbEntity
  8
0
  6
Continuous
 62
     7
100
AcDbPolyline
 90
        3
 70
   128
 43
0.0
 10
6329.3533325195
 20
5193.2125951104
 10
6329.8899360072
 20
5190.550867076
 10
6329.8747694239
 20
5188.3870477729
  0
LWPOLYLINE
  5
3BD
330
1F
100
AcDbEntity
  8
0
  6
Continuous
 62
     7
100
AcDbPolyline
 90
        3
 70
   128
 43
0.0
 10
6332.3249816895
 20
5190.2639831357
 10
6331.4612923835
 20
5190.1351142047
 10
6330.7835409537
 20
5190.2514065557
  0
LWPOLYLINE
  5
3BE
330
1F
100
AcDbEntity
  8
0
  6
Continuous
 62
     7
100
AcDbPolyline
 90
        3
 70
   128
 43
0.0
 10
6330.7800292969
 20
5190.2514065557
 10
6330.8108901289
 20
5189.5251142213
 10
6330.8415213719
 20
5188.9548863225
  0
LWPOLYLINE
  5
3BF
330
1F
100
AcDbEntity
  8
0
  6
Continuous
 62
     7
100
AcDbPolyline
 90
        3
 70
   128
 43
0.0
 10
6330.8410644531
 20
5188.9548863225
 10
6330.7312793821
 20
5191.1961995974
 10
6331.1787905291
 20
5192.8930993133
  0
LWPOLYLINE
  5
3C0
330
1F
100
AcDbEntity
  8
0
  6
Continuous
 62
     7
100
AcDbPolyline
 90
        3
 70
   128
 43
0.0
 10
6331.1767578125
 20
5192.8930993133
 10
6331.1021045511
 20
5192.9586072524
 10
6331.0426218554
 20
5193.0109674983
  0
LWPOLYLINE
  5
3C1
330
1F
100
AcDbEntity
  8
0
  6
Continuous
 62
     7
100
AcDbPolyline
 90
        3
 70
   128
 43
0.0
 10
6331.0775756836
 20
5193.055030232
 10
6331.1507201946
 20
5192.992647154
 10
6331.2069015697
 20
5192.9443593078
  0
LWPOLYLINE
  5
3C2
330
1F
100
AcDbEntity
  8
0
  6
Continuous
 62
     7
100
AcDbPolyline
 90
        3
 70
   128
 43
0.0
 10
6331.2034606934
 20
5192.9443593078
 10
6331.2540271085
 20
5193.0235940579
 10
6331.2940230712
 20
5193.0839831882
  0
LWPOLYLINE
  5
3C3
330
1F
100
AcDbEntity
  8
0
  6
Continuous
 62
     7
100
AcDbPolyline
 90
        3
 70
   128
 43
0.0
 10
6331.2911987305
 20
5193.0839831882
 10
6332.2793317461
 20
5191.7043358786
 10
6332.4453109994
 20
5190.3866643958
  0
LWPOLYLINE
  5
3C4
330
1F
100
AcDbEntity
  8
0
  6
Continuous
 62
     7
100
AcDbPolyline
 90
        3
 70
   128
 43
0.0
 10
6332.4432373047
 20
5190.3866643958
 10
6331.6219603663
 20
5188.7548658363
 10
6330.265023385
 20
5188.2644410186
  0
LWPOLYLINE
  5
3C5
330
1F
100
AcDbEntity
  8
0
  6
Continuous
 62
     7
100
AcDbPolyline
 90
        3
 70
   128
 43
0.0
 10
6330.2612304688
 20
5188.2644410186
 10
6328.6860388344
 20
5189.0974386926
 10
6328.4953242287
 20
5190.520447021
  0
LWPOLYLINE
  5
3C6
330
1F
100
AcDbEntity
  8
0
  6
Continuous
 62
     7
100
AcDbPolyline
 90
        3
 70
   128
 43
0.0
 10
6328.4950256348
 20
5190.520447021
 10
6328.9171276109
 20
5191.6731831777
 10
6329.3292453632
 20
5192.5474072747
  0
LWPOLYLINE
  5
3C7
330
1F
100
AcDbEntity
  8
0
  6
Continuous
 62
     7
100
AcDbPolyline
 90
        4
 70
   128
 43
0.0
 10
6329.3266296387
 20
5192.5474072747
 10
6329.3560948975
 20
5192.9922913397
 10
6329.0767779614
 20
5193.3381502217
 10
6328.2159609839
 20
5193.61181212
  0
LWPOLYLINE
  5
3C8
330
1F
100
AcDbEntity
  8
0
  6
Continuous
 62
     7
100
AcDbPolyline
 90
        3
 70
   128
 43
0.0
 10
6328.2127380371
 20
5193.61181212
 10
6328.3536869379
 20
5194.0492787409
 10
6328.5087017462
 20
5194.3746621661
  0
LWPOLYLINE
  5
3C9
330
1F
100
AcDbEntity
  8
0
  6
Continuous
 62
     7
100
AcDbPolyline
 90
        3
 70
   128
 43
0.0
 10
6329.8301696777
 20
5195.2838565164
 10
6330.225332497
 20
5195.3179661991
 10
6330.5356266096
 20
5195.2882672601
  0
LWPOLYLINE
  5
3CA
330
1F
100
AcDbEntity
  8
0
  6
Continuous
 62
     7
100
AcDbPolyline
 90
        3
 70
   128
 43
0.0
 10
6330.5320739746
 20
5195.2882672601
 10
6331.5259303532
 20
5195.8494756515
 10
6332.4071584389
 20
5196.0334147267
  0
LWPOLYLINE
  5
3CB
330
1F
100
AcDbEntity
  8
0
  6
Continuous
 62
     7
100
AcDbPolyline
 90
        3
 70
   128
 43
0.0
 10
6332.405090332
 20
5196.0334147267
 10
6332.2448994304
 20
5195.0703586114
 10
6331.9105809674
 20
5194.3790729098
  0
LWPOLYLINE
  5
3CC
330
1F
100
AcDbEntity
  8
0
  6
Continuous
 62
     7
100
AcDbPolyline
 90
        3
 70
   128
 43
0.0
 10
6331.9091796875
 20
5194.3790729098
 10
6332.1589545978
 20
5193.9082312418
 10
6332.2044765696
 20
5193.498384481
  0
LWPOLYLINE
  5
3CD
330
1F
100
AcDbEntity
  8
0
  6
Continuous
 62
     7
100
AcDbPolyline
 90
        3
 70
   128
 43
0.0
 10
6330.8715820312
 20
5193.3900083356
 10
6331.529878781
 20
5193.5931704205
 10
6332.070265536
 20
5193.5674662643
  0
LWPOLYLINE
  5
3CE
330
1F
100
AcDbEntity
  8
0
  6
Continuous
 62
     7
100
AcDbPolyline
 90
        3
 70
   128
 43
0.0
 10
6329.6852111816
 20
5193.336796289
 10
6330.3507228998
 20
5193.7906230073
 10
6330.8725698039
 20
5193.3900083356
  0
LWPOLYLINE
  5
3CF
330
1F
100
AcDbEntity
  8
0
  6
Continuous
 62
     7
100
AcDbPolyline
 90
        3
 70
   128
 43
0.0
 10
6328.3576965332
 20
5193.6295445018
 10
6329.1207373889
 20
5193.554489754
 10
6329.6884024635
 20
5193.336796289
  0
LWPOLYLINE
  5
3D0
330
1F
100
AcDbEntity
  8
0
  6
Continuous
 62
     7
100
AcDbPolyline
 90
        7
 70
   128
 43
0.0
 10
6330.1582336426
 20
5193.1327844911
 10
6330.1816659385
 20
5193.1236260229
 10
6330.1959226932
 20
5193.102629068
 10
6330.2050797389
 20
5193.0529561467
 10
6330.1959273301
 20
5193.0032819085
 10
6330.1816647912
 20
5192.9822892553
 10
6330.1585247859
 20
5192.9731185489
  0
LWPOLYLINE
  5
3D1
330
1F
100
AcDbEntity
  8
0
  6
Continuous
 62
     7
100
AcDbPolyline
 90
        3
 70
   128
 43
0.0
 10
6329.9980163574
 20
5193.1859965377
 10
6330.0228136915
 20
5193.1431371439
 10
6330.0609352186
 20
5193.1327844911
  0
LWPOLYLINE
  5
3D2
330
1F
100
AcDbEntity
  8
0
  6
Continuous
 62
     7
100
AcDbPolyline
 90
        3
 70
   128
 43
0.0
 10
6330.0590515137
 20
5193.2392085843
 10
6330.0172031124
 20
5193.2189226057
 10
6329.9988644317
 20
5193.1859965377
  0
LWPOLYLINE
  5
3D3
330
1F
100
AcDbEntity
  8
0
  6
Continuous
 62
     7
100
AcDbPolyline
 90
        3
 70
   128
 43
0.0
 10
6330.5282592773
 20
5193.1859965377
 10
6330.5059667507
 20
5193.2272435365
 10
6330.4690612599
 20
5193.2392085843
  0
LWPOLYLINE
  5
3D4
330
1F
100
AcDbEntity
  8
0
  6
Continuous
 62
     7
100
AcDbPolyline
 90
        3
 70
   128
 43
0.0
 10
6330.4672241211
 20
5193.1327844911
 10
6330.5145349693
 20
5193.1514403953
 10
6330.531210278
 20
5193.1859965377
  0
LWPOLYLINE
  5
3D5
330
1F
100
AcDbEntity
  8
0
  6
Continuous
 62
     7
100
AcDbPolyline
 90
        6
 70
   128
 43
0.0
 10
6330.3489685059
 20
5192.9687078052
 10
6330.3278307884
 20
5192.9816697307
 10
6330.317044185
 20
5193.0051342279
 10
6330.3118548699
 20
5193.0565514948
 10
6330.3251318081
 20
5193.1063503802
 10
6330.367055361
 20
5193.1327844911
  0
LWPOLYLINE
  5
3D6
330
1F
100
AcDbEntity
  8
0
  6
Continuous
 62
     7
100
AcDbPolyline
 90
        3
 70
   128
 43
0.0
 10
6330.7991027832
 20
5193.1061263137
 10
6330.5615835915
 20
5192.9806199787
 10
6330.3492596492
 20
5192.9687078052
  0
LWPOLYLINE
  5
3D7
330
1F
100
AcDbEntity
  8
0
  6
Continuous
 62
     7
100
AcDbPolyline
 90
        3
 70
   128
 43
0.0
 10
6330.6617736816
 20
5188.39907301
 10
6331.8850546299
 20
5189.1943210552
 10
6332.328143169
 20
5190.2639831357
  0
LWPOLYLINE
  5
3D8
330
1F
100
AcDbEntity
  8
0
  6
Continuous
 62
     7
100
AcDbPolyline
 90
        3
 70
   128
 43
0.0
 10
6331.0508728027
 20
5195.1152796798
 10
6331.6522564403
 20
5195.5739900451
 10
6332.2032956526
 20
5195.7894678168
  0
LWPOLYLINE
  5
3D9
330
1F
100
AcDbEntity
  8
0
  6
Continuous
 62
     7
100
AcDbPolyline
 90
        3
 70
   128
 43
0.0
 10
6332.202911377
 20
5195.7894678168
 10
6332.045298709
 20
5195.0904767426
 10
6331.7818926766
 20
5194.5919657998
  0
LWPOLYLINE
  5
3DA
330
1F
100
AcDbEntity
  8
0
  6
Continuous
 62
     7
100
AcDbPolyline
 90
        3
 70
   128
 43
0.0
 10
6328.2585144043
 20
5195.8160961919
 10
6328.8805773993
 20
5195.4688145604
 10
6329.2980963483
 20
5195.0975323968
  0
LWPOLYLINE
  5
3DB
330
1F
100
AcDbEntity
  8
0
  6
Continuous
 62
     7
100
AcDbPolyline
 90
        3
 70
   128
 43
0.0
 10
6329.2961120605
 20
5195.0975323968
 10
6329.3791304432
 20
5195.1369104396
 10
6329.444479768
 20
5195.1641256862
  0
LWPOLYLINE
  5
3DC
330
1F
100
AcDbEntity
  8
0
  6
Continuous
 62
     7
100
AcDbPolyline
 90
        3
 70
   128
 43
0.0
 10
6329.4410705566
 20
5195.1641256862
 10
6328.7813130394
 20
5195.7148220399
 10
6328.1449774399
 20
5195.9402377658
  0
LWPOLYLINE
  5
3DD
330
1F
100
AcDbEntity
  8
0
  6
Continuous
 62
     7
100
AcDbPolyline
 90
        3
 70
   128
 43
0.0
 10
6328.1440734863
 20
5195.9402377658
 10
6328.2700093582
 20
5195.0679486486
 10
6328.5486610725
 20
5194.4322849565
  0
LWPOLYLINE
  5
3DE
330
1F
100
AcDbEntity
  8
0
  6
Continuous
 62
     7
100
AcDbPolyline
 90
        3
 70
   128
 43
0.0
 10
6330.9478759766
 20
5193.9045156293
 10
6330.8935446719
 20
5194.0211991596
 10
6330.7972202197
 20
5194.0552855783
  0
LWPOLYLINE
  5
3DF
330
1F
100
AcDbEntity
  8
0
  6
Continuous
 62
     7
100
AcDbPolyline
 90
        3
 70
   128
 43
0.0
 10
6331.657409668
 20
5192.5617272906
 10
6331.8329113957
 20
5192.3265071584
 10
6331.9535261139
 20
5192.1318436914
  0
LWPOLYLINE
  5
3E0
330
1F
100
AcDbEntity
  8
0
  6
Continuous
 62
     7
100
AcDbPolyline
 90
        3
 70
   128
 43
0.0
 10
6328.5636901855
 20
5195.8648974948
 10
6329.2688158369
 20
5195.5798440403
 10
6329.777256225
 20
5195.2661390357
  0
LWPOLYLINE
  5
3E1
330
1F
100
AcDbEntity
  8
0
  6
Continuous
 62
     7
100
AcDbPolyline
 90
        3
 70
   128
 43
0.0
 10
6330.2040100098
 20
5195.2439512067
 10
6331.4284883153
 20
5194.8219035551
 10
6332.021270518
 20
5193.9932073407
  0
LWPOLYLINE
  5
3E2
330
1F
100
AcDbEntity
  8
0
  6
Continuous
 62
     7
100
AcDbPolyline
 90
        3
 70
   128
 43
0.0
 10
6330.6083679199
 20
5195.2750201278
 10
6331.1652864923
 20
5195.6410834553
 10
6331.6576728716
 20
5195.8117003493
  0
LWPOLYLINE
  5
3E3
330
1F
100
AcDbEntity
  8
0
  6
Continuous
 62
     7
100
AcDbPolyline
 90
       11
 70
   128
 43
0.0
 10
6330.9783935547
 20
5194.5697630696
 10
6330.4490641583
 20
5194.3059750613
 10
6329.8653407979
 20
5194.3905378209
 10
6329.692522422
 20
5194.4893759116
 10
6329.6132789847
 20
5194.5494424014
 10
6329.5752559928
 20
5194.5819643152
 10
6329.5568271854
 20
5194.5989933134
 10
6329.5485066327
 20
5194.608244299
 10
6329.5447866069
 20
5194.6132114081
 10
6329.5430640476
 20
5194.6158002644
 10
6329.5420693353
 20
5194.6186239772
  0
LWPOLYLINE
  5
3E4
330
1F
100
AcDbEntity
  8
0
  6
Continuous
 62
     7
100
AcDbPolyline
 90
        3
 70
   128
 43
0.0
 10
6329.5402526855
 20
5194.6186239772
 10
6328.7788397344
 20
5194.1381284565
 10
6328.2829268023
 20
5193.6453248315
  0
LWPOLYLINE
  5
3E5
330
1F
100
AcDbEntity
  8
0
  6
Continuous
 62
     7
100
AcDbPolyline
 90
        3
 70
   128
 43
0.0
 10
6328.2814025879
 20
5193.6453248315
 10
6329.3568314345
 20
5194.0818094066
 10
6330.2649749562
 20
5194.1706652694
  0
LWPOLYLINE
  5
3E6
330
1F
100
AcDbEntity
  8
0
  6
Continuous
 62
     7
100
AcDbPolyline
 90
        3
 70
   128
 43
0.0
 10
6330.2612304688
 20
5194.1706652694
 10
6331.3868248531
 20
5193.9827424531
 10
6332.1637889489
 20
5193.5570205503
  0
LWPOLYLINE
  5
3E7
330
1F
100
AcDbEntity
  8
0
  6
Continuous
 62
     7
100
AcDbPolyline
 90
        3
 70
   128
 43
0.0
 10
6332.202911377
 20
5193.498384481
 10
6331.522507037
 20
5193.3746104826
 10
6331.0800219074
 20
5193.055030232
  0
LWPOLYLINE
  5
3E8
330
1F
100
AcDbEntity
  8
0
  6
Continuous
 62
     7
100
AcDbPolyline
 90
        3
 70
   128
 43
0.0
 10
6332.2257995605
 20
5191.5128345542
 10
6332.3080046371
 20
5191.1959242678
 10
6332.3461400464
 20
5190.941702848
  0
LWPOLYLINE
  5
3E9
330
1F
100
AcDbEntity
  8
0
  6
Continuous
 62
     7
100
AcDbPolyline
 90
        3
 70
   128
 43
0.0
 10
6328.6018371582
 20
5194.5077444368
 10
6328.3242975323
 20
5195.219423963
 10
6328.260336642
 20
5195.8160961919
  0
LWPOLYLINE
  5
3EA
330
1F
100
AcDbEntity
  8
0
  6
Continuous
 62
     7
100
AcDbPolyline
 90
        3
 70
   128
 43
0.0
 10
6332.3554992676
 20
5195.9535445027
 10
6331.4876942364
 20
5195.6310482836
 10
6330.916971539
 20
5195.1774324231
  0
LWPOLYLINE
  5
3EB
330
1F
100
AcDbEntity
  8
0
  6
Continuous
 62
     7
100
AcDbPolyline
 90
        3
 70
   128
 43
0.0
 10
6331.0394287109
 20
5193.0109674983
 10
6330.8486248115
 20
5192.6874179186
 10
6330.7573111847
 20
5192.4053843074
  0
LWPOLYLINE
  5
3EC
330
1F
100
AcDbEntity
  8
0
  6
Continuous
 62
     7
100
AcDbPolyline
 90
        3
 70
   128
 43
0.0
 10
6331.8672180176
 20
5194.458868628
 10
6332.2491043224
 20
5195.2644306759
 10
6332.3584390923
 20
5195.9535445027
  0
LWPOLYLINE
  5
3ED
330
1F
100
AcDbEntity
  8
0
  6
Continuous
 62
     7
100
AcDbPolyline
 90
        3
 70
   128
 43
0.0
 10
6331.7794799805
 20
5194.5919657998
 10
6331.8349453513
 20
5194.5196717779
 10
6331.8705210581
 20
5194.458868628
  0
LWPOLYLINE
  5
3EE
330
1F
100
AcDbEntity
  8
0
  6
Continuous
 62
     7
100
AcDbPolyline
 90
        3
 70
   128
 43
0.0
 10
6330.8563232422
 20
5193.904485827
 10
6330.8371011344
 20
5193.9511542171
 10
6330.7986004397
 20
5193.9647759252
  0
LWPOLYLINE
  5
3EF
330
1F
100
AcDbEntity
  8
0
  6
Continuous
 62
     7
100
AcDbPolyline
 90
        3
 70
   128
 43
0.0
 10
6330.7952880859
 20
5193.8441957288
 10
6330.845218831
 20
5193.8659783656
 10
6330.8588141695
 20
5193.904485827
  0
LWPOLYLINE
  5
3F0
330
1F
100
AcDbEntity
  8
0
  6
Continuous
 62
     7
100
AcDbPolyline
 90
        3
 70
   128
 43
0.0
 10
6330.738067627
 20
5193.904485827
 10
6330.7609692913
 20
5193.8582752495
 10
6330.7986004397
 20
5193.8441957288
  0
LWPOLYLINE
  5
3F1
330
1F
100
AcDbEntity
  8
0
  6
Continuous
 62
     7
100
AcDbPolyline
 90
        3
 70
   128
 43
0.0
 10
6330.7952880859
 20
5193.9647759252
 10
6330.7530963265
 20
5193.942537591
 10
6330.7399662331
 20
5193.904485827
  0
LWPOLYLINE
  5
3F2
330
1F
100
AcDbEntity
  8
0
  6
Continuous
 62
     7
100
AcDbPolyline
 90
        3
 70
   128
 43
0.0
 10
6333.6143493652
 20
5195.4921151452
 10
6333.6392926469
 20
5195.5502079726
 10
6333.6446141943
 20
5195.5994333081
  0
LWPOLYLINE
  5
3F3
330
1F
100
AcDbEntity
  8
0
  6
Continuous
 62
     7
100
AcDbPolyline
 90
        3
 70
   128
 43
0.0
 10
6333.5266113281
 20
5195.4194123798
 10
6333.583050881
 20
5195.4542020994
 10
6333.6150465652
 20
5195.4921151452
  0
LWPOLYLINE
  5
3F4
330
1F
100
AcDbEntity
  8
0
  6
Continuous
 62
     7
100
AcDbPolyline
 90
        3
 70
   128
 43
0.0
 10
6333.5838317871
 20
5195.746492868
 10
6333.4922211769
 20
5195.7870258911
 10
6333.4132159248
 20
5195.7942361884
  0
LWPOLYLINE
  5
3F5
330
1F
100
AcDbEntity
  8
0
  6
Continuous
 62
     7
100
AcDbPolyline
 90
        3
 70
   128
 43
0.0
 10
6333.5227966309
 20
5195.4913104825
 10
6333.4663836489
 20
5195.4613062209
 10
6333.4148233876
 20
5195.4556371026
  0
LWPOLYLINE
  5
3F6
330
1F
100
AcDbEntity
  8
0
  6
Continuous
 62
     7
100
AcDbPolyline
 90
        3
 70
   128
 43
0.0
 10
6333.5609436035
 20
5195.5957974248
 10
6333.5536870141
 20
5195.5324138015
 10
6333.524810721
 20
5195.4913104825
  0
LWPOLYLINE
  5
3F7
330
1F
100
AcDbEntity
  8
0
  6
Continuous
 62
     7
100
AcDbPolyline
 90
        3
 70
   128
 43
0.0
 10
6333.4121704102
 20
5195.7280750327
 10
6333.5326731774
 20
5195.6894639787
 10
6333.5646452501
 20
5195.5957974248
  0
LWPOLYLINE
  5
3F8
330
1F
100
AcDbEntity
  8
0
  6
Continuous
 62
     7
100
AcDbPolyline
 90
        3
 70
   128
 43
0.0
 10
6333.6410522461
 20
5195.5994333081
 10
6333.6281380823
 20
5195.6894397894
 10
6333.5841471448
 20
5195.746492868
  0
LWPOLYLINE
  5
3F9
330
1F
100
AcDbEntity
  8
0
  6
Continuous
 62
     7
100
AcDbPolyline
 90
        3
 70
   128
 43
0.0
 10
6324.8100280762
 20
5192.8240324311
 10
6325.1741719439
 20
5193.7927880718
 10
6325.919686456
 20
5194.1111500316
  0
LWPOLYLINE
  5
3FA
330
1F
100
AcDbEntity
  8
0
  6
Continuous
 62
     7
100
AcDbPolyline
 90
        4
 70
   128
 43
0.0
 10
6326.6105651855
 20
5192.2030563407
 10
6326.5869698364
 20
5192.9068632184
 10
6326.4826318423
 20
5193.240440185
 10
6326.1901890978
 20
5193.406593328
  0
LWPOLYLINE
  5
3FB
330
1F
100
AcDbEntity
  8
0
  6
Continuous
 62
     7
100
AcDbPolyline
 90
        4
 70
   128
 43
0.0
 10
6325.9162902832
 20
5193.406593328
 10
6325.627349033
 20
5193.237974036
 10
6325.5234956055
 20
5192.9028591585
 10
6325.4961749658
 20
5192.1964998298
  0
LWPOLYLINE
  5
3FC
330
1F
100
AcDbEntity
  8
0
  6
Continuous
 62
     7
100
AcDbPolyline
 90
        3
 70
   128
 43
0.0
 10
6326.1871337891
 20
5194.1111500316
 10
6327.0877599724
 20
5193.6092619993
 10
6327.3139415428
 20
5192.8145701938
  0
LWPOLYLINE
  5
3FD
330
1F
100
AcDbEntity
  8
0
  6
Continuous
 62
     7
100
AcDbPolyline
 90
        3
 70
   128
 43
0.0
 10
6329.8530578613
 20
5193.9031745248
 10
6329.8326385064
 20
5193.9482580892
 10
6329.7948768482
 20
5193.961706286
  0
LWPOLYLINE
  5
3FE
330
1F
100
AcDbEntity
  8
0
  6
Continuous
 62
     7
100
AcDbPolyline
 90
        3
 70
   128
 43
0.0
 10
6329.7920227051
 20
5193.8428844266
 10
6329.8409118278
 20
5193.8652524224
 10
6329.8552675292
 20
5193.9031745248
  0
LWPOLYLINE
  5
3FF
330
1F
100
AcDbEntity
  8
0
  6
Continuous
 62
     7
100
AcDbPolyline
 90
        3
 70
   128
 43
0.0
 10
6329.7309875488
 20
5193.9031745248
 10
6329.7569478208
 20
5193.8571810365
 10
6329.7948768482
 20
5193.8428844266
  0
LWPOLYLINE
  5
400
330
1F
100
AcDbEntity
  8
0
  6
Continuous
 62
     7
100
AcDbPolyline
 90
        3
 70
   128
 43
0.0
 10
6329.7920227051
 20
5193.961706286
 10
6329.7489791301
 20
5193.9404697174
 10
6329.7345606729
 20
5193.9031745248
  0
LWPOLYLINE
  5
401
330
1F
100
AcDbEntity
  8
0
  6
Continuous
 62
     7
100
AcDbPolyline
 90
        5
 70
   128
 43
0.0
 10
6287.6319885254
 20
5196.3121111446
 10
6285.7491151975
 20
5195.6129527545
 10
6284.0740900099
 20
5196.3973410774
 10
6283.3979698835
 20
5198.1914392182
 10
6284.3359025314
 20
5200.0615711265
  0
LWPOLYLINE
  5
402
330
1F
100
AcDbEntity
  8
0
  6
Continuous
 62
     7
100
AcDbPolyline
 90
        5
 70
   128
 43
0.0
 10
6284.3322753906
 20
5200.0615711265
 10
6286.1653970326
 20
5200.5933066697
 10
6287.7342197536
 20
5199.8037890687
 10
6288.3965808328
 20
5198.1327589101
 10
6287.6352058843
 20
5196.3121111446
  0
LWPOLYLINE
  5
403
330
1F
100
AcDbEntity
  8
0
  6
Continuous
 62
     7
100
AcDbPolyline
 90
        5
 70
   128
 43
0.0
 10
6263.8969421387
 20
5196.9292427354
 10
6262.360714363
 20
5195.9744320565
 10
6260.4703559781
 20
5196.3798725666
 10
6259.415107717
 20
5198.1463745937
 10
6259.922488232
 20
5199.9624784045
  0
LWPOLYLINE
  5
404
330
1F
100
AcDbEntity
  8
0
  6
Continuous
 62
     7
100
AcDbPolyline
 90
        5
 70
   128
 43
0.0
 10
6259.9220275879
 20
5199.9624784045
 10
6261.4472191349
 20
5200.8926583144
 10
6263.327667076
 20
5200.482707966
 10
6264.3790771191
 20
5198.7442830025
 10
6263.8971792653
 20
5196.9292427354
  0
LWPOLYLINE
  5
405
330
1F
100
AcDbEntity
  8
0
  6
Continuous
 62
     7
100
AcDbPolyline
 90
        9
 70
   128
 43
0.0
 10
6370.0180053711
 20
5220.4693223291
 10
6370.2634230686
 20
5207.099702337
 10
6370.451157776
 20
5195.4526263501
 10
6370.4970166212
 20
5194.5740501461
 10
6370.5009611886
 20
5194.5589332561
 10
6370.5024496705
 20
5194.5568921083
 10
6370.5031958946
 20
5194.5566516551
 10
6370.5039434278
 20
5194.5569270912
 10
6370.5129796758
 20
5194.5861841493
  0
LWPOLYLINE
  5
406
330
1F
100
AcDbEntity
  8
0
  6
Continuous
 62
     7
100
AcDbPolyline
 90
        9
 70
   128
 43
0.0
 10
6370.0180053711
 20
5220.4693223291
 10
6370.012991326
 20
5220.4870482888
 10
6370.0108390326
 20
5220.4909367623
 10
6370.0097659316
 20
5220.4919454621
 10
6370.0086952478
 20
5220.4922116723
 10
6370.0070943889
 20
5220.491023916
 10
6370.0055005725
 20
5220.487672935
 10
6370.0023329959
 20
5220.4748103776
 10
6369.9960453555
 20
5220.4344908648
  0
LWPOLYLINE
  5
407
330
1F
100
AcDbEntity
  8
0
  6
Continuous
 62
     7
100
AcDbPolyline
 90
        9
 70
   128
 43
0.0
 10
6369.2016601562
 20
5194.1342319303
 10
6368.6068395512
 20
5216.9242557649
 10
6368.4591562248
 20
5220.3009480191
 10
6368.439986154
 20
5220.4292290196
 10
6368.425656868
 20
5220.4877405345
 10
6368.423286198
 20
5220.4918121915
 10
6368.4221048042
 20
5220.4926392986
 10
6368.4209264615
 20
5220.4925340608
 10
6368.4085445598
 20
5220.4344908648
  0
LWPOLYLINE
  5
408
330
1F
100
AcDbEntity
  8
0
  6
Continuous
 62
     7
100
AcDbPolyline
 90
        9
 70
   128
 43
0.0
 10
6367.6147460938
 20
5194.1342319303
 10
6367.0193387953
 20
5216.9242557394
 10
6366.8716533283
 20
5220.3009480106
 10
6366.8524842161
 20
5220.4292290151
 10
6366.8381570237
 20
5220.4877405329
 10
6366.8357867305
 20
5220.4918121905
 10
6366.8346055043
 20
5220.4926392979
 10
6366.8334273102
 20
5220.4925340604
 10
6366.8210456267
 20
5220.4344908648
  0
LWPOLYLINE
  5
409
330
1F
100
AcDbEntity
  8
0
  6
Continuous
 62
     7
100
AcDbPolyline
 90
        9
 70
   128
 43
0.0
 10
6366.024017334
 20
5194.1342319303
 10
6365.4318398162
 20
5216.9242557618
 10
6365.2841549106
 20
5220.3009480173
 10
6365.264984993
 20
5220.4292290177
 10
6365.2506566754
 20
5220.4877405336
 10
6365.2482861959
 20
5220.4918121909
 10
6365.2471048875
 20
5220.4926392982
 10
6365.2459266207
 20
5220.4925340606
 10
6365.233544831
 20
5220.4344908648
  0
LWPOLYLINE
  5
40A
330
1F
100
AcDbEntity
  8
0
  6
Continuous
 62
     7
100
AcDbPolyline
 90
        9
 70
   128
 43
0.0
 10
6364.4371032715
 20
5194.1342319303
 10
6363.8443399668
 20
5216.9242557644
 10
6363.6966546777
 20
5220.3009480153
 10
6363.677485064
 20
5220.4292290174
 10
6363.6631568185
 20
5220.4877405337
 10
6363.6607863371
 20
5220.491812191
 10
6363.6596050272
 20
5220.4926392983
 10
6363.658426759
 20
5220.4925340606
 10
6363.6460449666
 20
5220.4344908648
  0
ARC
  5
40B
330
1F
100
AcDbEntity
  8
0
  6
Continuous
 62
     7
100
AcDbCircle
 10
6402.0250149662
 20
5200.568506688
 30
0.0
 40
39.69970862316706
100
AcDbArc
 50
174.3414684332
 51
189.3272760117
  0
LWPOLYLINE
  5
40C
330
1F
100
AcDbEntity
  8
0
  6
Continuous
 62
     7
100
AcDbPolyline
 90
       14
 70
   128
 43
0.0
 10
6370.2926635742
 20
5194.924962049
 10
6370.2865895516
 20
5194.910514141
 10
6370.2842422925
 20
5194.9098860145
 10
6370.2819053471
 20
5194.9117764043
 10
6370.2680682409
 20
5194.9707207392
 10
6370.1955004954
 20
5196.0318892028
 10
6369.8961453461
 20
5207.7080101857
 10
6369.6004616312
 20
5218.8405538718
 10
6369.5244811011
 20
5219.6392438434
 10
6369.5213255266
 20
5219.6439117312
 10
6369.5181805227
 20
5219.6450158125
 10
6369.5134854572
 20
5219.6396372216
 10
6369.5088208507
 20
5219.6253489758
 10
6369.4995628789
 20
5219.5768545323
  0
LWPOLYLINE
  5
40D
330
1F
100
AcDbEntity
  8
0
  6
Continuous
 62
     7
100
AcDbPolyline
 90
       14
 70
   128
 43
0.0
 10
6368.7019348145
 20
5194.924962049
 10
6368.6990947025
 20
5194.910514134
 10
6368.6967490811
 20
5194.9098860057
 10
6368.694413473
 20
5194.9117763943
 10
6368.6805791444
 20
5194.970720729
 10
6368.6080003112
 20
5196.0318892188
 10
6368.3086445416
 20
5207.7080101671
 10
6368.0129618497
 20
5218.8405538614
 10
6367.9369794323
 20
5219.6392438476
 10
6367.9338238899
 20
5219.6439117351
 10
6367.9306789983
 20
5219.6450158162
 10
6367.9259842714
 20
5219.6396372248
 10
6367.921320235
 20
5219.6253489783
 10
6367.9120639458
 20
5219.5768545323
  0
LWPOLYLINE
  5
40E
330
1F
100
AcDbEntity
  8
0
  6
Continuous
 62
     7
100
AcDbPolyline
 90
       14
 70
   128
 43
0.0
 10
6367.115020752
 20
5194.924962049
 10
6367.1115898228
 20
5194.910514141
 10
6367.1092425636
 20
5194.9098860145
 10
6367.1069056182
 20
5194.9117764043
 10
6367.0930685119
 20
5194.9707207392
 10
6367.0205007678
 20
5196.0318892029
 10
6366.7211437959
 20
5207.7080101481
 10
6366.425462609
 20
5218.8405538738
 10
6366.349480139
 20
5219.6392438461
 10
6366.3463245384
 20
5219.6439117336
 10
6366.343179555
 20
5219.6450158146
 10
6366.3384846191
 20
5219.6396372233
 10
6366.333820277
 20
5219.6253489771
 10
6366.3245631501
 20
5219.5768545323
  0
LWPOLYLINE
  5
40F
330
1F
100
AcDbEntity
  8
0
  6
Continuous
 62
     7
100
AcDbPolyline
 90
       14
 70
   128
 43
0.0
 10
6365.5281066895
 20
5194.924962049
 10
6365.524094958
 20
5194.9105141339
 10
6365.5217493195
 20
5194.9098860055
 10
6365.5194136889
 20
5194.911776394
 10
6365.505579135
 20
5194.9707207275
 10
6365.4329995854
 20
5196.0318892119
 10
6365.1336448169
 20
5207.7080101768
 10
6364.8379616138
 20
5218.8405538666
 10
6364.7619801401
 20
5219.6392438455
 10
6364.7588245816
 20
5219.6439117331
 10
6364.7556796338
 20
5219.6450158143
 10
6364.7509847376
 20
5219.6396372232
 10
6364.7463204162
 20
5219.6253489771
 10
6364.7370632857
 20
5219.5768545323
  0
LWPOLYLINE
  5
410
330
1F
100
AcDbEntity
  8
0
  6
Continuous
 62
     7
100
AcDbPolyline
 90
       14
 70
   128
 43
0.0
 10
6363.941192627
 20
5194.924962049
 10
6363.936592136
 20
5194.9105141375
 10
6363.9342456957
 20
5194.9098860101
 10
6363.931909419
 20
5194.9117763993
 10
6363.9180737016
 20
5194.9707207341
 10
6363.8455004123
 20
5196.0318892108
 10
6363.5461449528
 20
5207.7080101764
 10
6363.2504617494
 20
5218.8405538666
 10
6363.1744802757
 20
5219.6392438455
 10
6363.1713247172
 20
5219.6439117331
 10
6363.1681797694
 20
5219.6450158143
 10
6363.1634848732
 20
5219.6396372232
 10
6363.1588205518
 20
5219.6253489771
 10
6363.1495634213
 20
5219.5768545323
  0
LWPOLYLINE
  5
411
330
1F
100
AcDbEntity
  8
0
  6
Continuous
 62
     7
100
AcDbPolyline
 90
       13
 70
   128
 43
0.0
 10
6369.6136474609
 20
5194.1301043086
 10
6369.5971101195
 20
5194.0612517837
 10
6369.5939450348
 20
5194.0595815927
 10
6369.5907949222
 20
5194.0617984349
 10
6369.5172031665
 20
5194.9194214687
 10
6369.214990824
 20
5207.0468913772
 10
6368.9158299098
 20
5219.4550365122
 10
6368.8392574639
 20
5220.4764688611
 10
6368.8284449031
 20
5220.5127928002
 10
6368.8266548228
 20
5220.5142526473
 10
6368.8248688595
 20
5220.5142887424
 10
6368.8201283709
 20
5220.5071074776
 10
6368.8138635948
 20
5220.4802225285
  0
LWPOLYLINE
  5
412
330
1F
100
AcDbEntity
  8
0
  6
Continuous
 62
     7
100
AcDbPolyline
 90
       13
 70
   128
 43
0.0
 10
6368.0267333984
 20
5194.1301043086
 10
6368.0096093575
 20
5194.0612517844
 10
6368.0064440751
 20
5194.059581593
 10
6368.0032938061
 20
5194.0617984349
 10
6367.9297023259
 20
5194.9194214544
 10
6367.6274901306
 20
5207.0468913613
 10
6367.3283307636
 20
5219.4550365239
 10
6367.25175652
 20
5220.4764688598
 10
6367.2409440466
 20
5220.5127927997
 10
6367.2391539795
 20
5220.5142526469
 10
6367.2373680282
 20
5220.5142887422
 10
6367.2326275647
 20
5220.5071074775
 10
6367.2263627991
 20
5220.4802225285
  0
LWPOLYLINE
  5
413
330
1F
100
AcDbEntity
  8
0
  6
Continuous
 62
     7
100
AcDbPolyline
 90
       13
 70
   128
 43
0.0
 10
6366.4398193359
 20
5194.1301043086
 10
6366.422109476
 20
5194.061251784
 10
6366.4189442946
 20
5194.0595815929
 10
6366.4157941066
 20
5194.061798435
 10
6366.3422023662
 20
5194.91942146
 10
6366.0399910792
 20
5207.0468913858
 10
6365.7408293809
 20
5219.4550365194
 10
6365.6642624388
 20
5220.4764688503
 10
6365.6534494209
 20
5220.5127927907
 10
6365.6516590274
 20
5220.5142526384
 10
6365.6498726718
 20
5220.5142887343
 10
6365.6451307165
 20
5220.5071074722
 10
6365.6388629347
 20
5220.4802225285
  0
LWPOLYLINE
  5
414
330
1F
100
AcDbEntity
  8
0
  6
Continuous
 62
     7
100
AcDbPolyline
 90
       13
 70
   128
 43
0.0
 10
6364.8529052734
 20
5194.1301043086
 10
6364.8346096116
 20
5194.061251784
 10
6364.8314444302
 20
5194.0595815929
 10
6364.8282942422
 20
5194.061798435
 10
6364.7547025018
 20
5194.91942146
 10
6364.4524911908
 20
5207.046891385
 10
6364.1533295246
 20
5219.4550365196
 10
6364.076762573
 20
5220.4764688503
 10
6364.0659495559
 20
5220.5127927907
 10
6364.0641591626
 20
5220.5142526384
 10
6364.0623728071
 20
5220.5142887343
 10
6364.057630852
 20
5220.5071074722
 10
6364.0513630703
 20
5220.4802225285
  0
LWPOLYLINE
  5
415
330
1F
100
AcDbEntity
  8
0
  6
Continuous
 62
     7
100
AcDbPolyline
 90
        8
 70
   128
 43
0.0
 10
6363.2659912109
 20
5194.1301043086
 10
6363.2483837418
 20
5194.0630249751
 10
6363.2454239088
 20
5194.059870649
 10
6363.2439490364
 20
5194.0595811758
 10
6363.2424774286
 20
5194.0601380176
 10
6363.2192951132
 20
5194.1721059221
 10
6363.0793350505
 20
5197.2184924759
 10
6362.5187553585
 20
5220.192726975
  0
LWPOLYLINE
  5
416
330
1F
100
AcDbEntity
  8
0
  6
Continuous
 62
     7
100
AcDbPolyline
 90
       14
 70
   128
 43
0.0
 10
6370.1019287109
 20
5194.9537510924
 10
6370.0960470702
 20
5194.9273752666
 10
6370.0889398693
 20
5194.9153114109
 10
6370.0865897465
 20
5194.9158617165
 10
6370.0842485177
 20
5194.9186228881
 10
6370.0780451198
 20
5194.9362372579
 10
6370.0051486701
 20
5195.8729307593
 10
6369.7048294207
 20
5207.3628847779
 10
6369.4079116745
 20
5218.7415238773
 10
6369.3319070042
 20
5219.5999367616
 10
6369.317608075
 20
5219.6323052099
 10
6369.3152379842
 20
5219.6326087545
 10
6369.3128725313
 20
5219.6313828077
 10
6369.3065853909
 20
5219.6216772251
  0
LWPOLYLINE
  5
417
330
1F
100
AcDbEntity
  8
0
  6
Continuous
 62
     7
100
AcDbPolyline
 90
       14
 70
   128
 43
0.0
 10
6368.5150146484
 20
5194.9537510924
 10
6368.5085481332
 20
5194.9273752665
 10
6368.5014409478
 20
5194.915311411
 10
6368.4990908356
 20
5194.9158617167
 10
6368.4967496196
 20
5194.9186228884
 10
6368.4905462622
 20
5194.9362372586
 10
6368.4176485486
 20
5195.8729307508
 10
6368.1173304067
 20
5207.3628847959
 10
6367.8204109305
 20
5218.74152388
 10
6367.7444113832
 20
5219.5999367624
 10
6367.7301107954
 20
5219.6323052088
 10
6367.7277401255
 20
5219.6326087534
 10
6367.7253739923
 20
5219.6313828067
 10
6367.7190845951
 20
5219.6216772251
  0
LWPOLYLINE
  5
418
330
1F
100
AcDbEntity
  8
0
  6
Continuous
 62
     7
100
AcDbPolyline
 90
       14
 70
   128
 43
0.0
 10
6366.9281005859
 20
5194.9537510924
 10
6366.9210473414
 20
5194.9273752666
 10
6366.9139401405
 20
5194.9153114109
 10
6366.9115900177
 20
5194.9158617165
 10
6366.909248789
 20
5194.9186228881
 10
6366.9030453912
 20
5194.9362372579
 10
6366.830148939
 20
5195.8729307601
 10
6366.5298296213
 20
5207.3628847859
 10
6366.2329109174
 20
5218.7415238772
 10
6366.1569089483
 20
5219.5999367622
 10
6366.1426091756
 20
5219.6323052094
 10
6366.1402387939
 20
5219.632608754
 10
6366.1378729998
 20
5219.6313828072
 10
6366.1315847307
 20
5219.6216772251
  0
LWPOLYLINE
  5
419
330
1F
100
AcDbEntity
  8
0
  6
Continuous
 62
     7
100
AcDbPolyline
 90
       14
 70
   128
 43
0.0
 10
6365.3373718262
 20
5194.9537510924
 10
6365.3335474774
 20
5194.9273752666
 10
6365.3264402748
 20
5194.9153114109
 10
6365.3240901507
 20
5194.9158617164
 10
6365.3217489205
 20
5194.918622888
 10
6365.3155455179
 20
5194.9362372578
 10
6365.2426491639
 20
5195.8729307613
 10
6364.9423297879
 20
5207.3628847861
 10
6364.6454110506
 20
5218.7415238771
 10
6364.5694090842
 20
5219.5999367622
 10
6364.5551093113
 20
5219.6323052094
 10
6364.5527389295
 20
5219.632608754
 10
6364.5503731354
 20
5219.6313828072
 10
6364.5440848663
 20
5219.6216772251
  0
LWPOLYLINE
  5
41A
330
1F
100
AcDbEntity
  8
0
  6
Continuous
 62
     7
100
AcDbPolyline
 90
       14
 70
   128
 43
0.0
 10
6363.7504577637
 20
5194.9537510924
 10
6363.7460476107
 20
5194.9273752666
 10
6363.7389404175
 20
5194.9153114109
 10
6363.7365903
 20
5194.9158617166
 10
6363.7342490776
 20
5194.9186228882
 10
6363.7280456999
 20
5194.9362372582
 10
6363.6551486182
 20
5195.872930755
 10
6363.3548299226
 20
5207.3628847869
 10
6363.0579113114
 20
5218.7415238786
 10
6362.9819092026
 20
5219.599936762
 10
6362.9676094441
 20
5219.6323052094
 10
6362.9652390638
 20
5219.632608754
 10
6362.9628732707
 20
5219.6313828072
 10
6362.9565850019
 20
5219.6216772251
  0
LWPOLYLINE
  5
41B
330
1F
100
AcDbEntity
  8
0
  6
Continuous
 62
     7
100
AcDbPolyline
 90
       18
 70
   128
 43
0.0
 10
6260.9558105469
 20
5352.4290717147
 10
6260.9581767214
 20
5352.4289032495
 10
6260.9577219648
 20
5352.4289412214
 10
6260.9557955563
 20
5352.4293096395
 10
6260.9498219525
 20
5352.4307823162
 10
6260.9465299672
 20
5352.4322532625
 10
6260.9457489001
 20
5352.4333552267
 10
6260.9471692411
 20
5352.4350059865
 10
6260.9515486625
 20
5352.436653891
 10
6261.2348512533
 20
5352.4596307556
 10
6264.7668145492
 20
5352.5527675827
 10
6273.8215230401
 20
5352.6779248664
 10
6285.646306541
 20
5352.8669409045
 10
6286.5331334825
 20
5352.9156585644
 10
6286.5451624928
 20
5352.9197470364
 10
6286.5466740797
 20
5352.9212779921
 10
6286.5468423617
 20
5352.9228079501
 10
6286.5303890899
 20
5352.9319747291
  0
LWPOLYLINE
  5
41C
330
1F
100
AcDbEntity
  8
0
  6
Continuous
 62
     7
100
AcDbPolyline
 90
        8
 70
   128
 43
0.0
 10
6287.2123718262
 20
5352.1240952365
 10
6274.0196649931
 20
5351.7273125145
 10
6261.8132685796
 20
5351.4279900539
 10
6260.8414094347
 20
5351.3554029034
 10
6260.8289233121
 20
5351.3492038505
 10
6260.8282848424
 20
5351.3468603646
 10
6260.8298152062
 20
5351.3445064156
 10
6260.8674602702
 20
5351.3302451872
  0
LWPOLYLINE
  5
41D
330
1F
100
AcDbEntity
  8
0
  6
Continuous
 62
     7
100
AcDbPolyline
 90
        8
 70
   128
 43
0.0
 10
6287.2123718262
 20
5350.5365944408
 10
6274.0196650018
 20
5350.1398117286
 10
6261.8132685798
 20
5349.8404901138
 10
6260.8414094346
 20
5349.7679030431
 10
6260.8289233121
 20
5349.7617039867
 10
6260.8282848424
 20
5349.7593605
 10
6260.8298152062
 20
5349.7570065504
 10
6260.8674602702
 20
5349.7427453228
  0
LWPOLYLINE
  5
41E
330
1F
100
AcDbEntity
  8
0
  6
Continuous
 62
     7
100
AcDbPolyline
 90
        8
 70
   128
 43
0.0
 10
6287.2123718262
 20
5348.9490955078
 10
6274.0196650102
 20
5348.5523118872
 10
6261.8132685795
 20
5348.2529903317
 10
6260.8414094347
 20
5348.1804031743
 10
6260.8289233121
 20
5348.1742041216
 10
6260.8282848424
 20
5348.1718606358
 10
6260.8298152062
 20
5348.1695066868
 10
6260.8674602702
 20
5348.1552454584
  0
LWPOLYLINE
  5
41F
330
1F
100
AcDbEntity
  8
0
  6
Continuous
 62
     7
100
AcDbPolyline
 90
        8
 70
   128
 43
0.0
 10
6287.2123718262
 20
5347.361594712
 10
6274.019665002
 20
5346.9648119954
 10
6261.8132685787
 20
5346.6654904673
 10
6260.8414094347
 20
5346.5929033099
 10
6260.8289233121
 20
5346.5867042572
 10
6260.8282848424
 20
5346.5843607714
 10
6260.8298152062
 20
5346.5820068224
 10
6260.8674602702
 20
5346.567745594
  0
LWPOLYLINE
  5
420
330
1F
100
AcDbEntity
  8
0
  6
Continuous
 62
     7
100
AcDbPolyline
 90
        8
 70
   128
 43
0.0
 10
6287.2123718262
 20
5345.7740948476
 10
6274.0196649933
 20
5345.3773121307
 10
6261.8132685726
 20
5345.0779907109
 10
6260.8414094343
 20
5345.0054025855
 10
6260.828923312
 20
5344.9992034717
 10
6260.8282848424
 20
5344.9968599719
 10
6260.8298152063
 20
5344.994506014
 10
6260.8674602702
 20
5344.9802447983
  0
LWPOLYLINE
  5
421
330
1F
100
AcDbEntity
  8
0
  6
Continuous
 62
     7
100
AcDbPolyline
 90
       10
 70
   128
 43
0.0
 10
6287.1589660645
 20
5351.7184539639
 10
6287.1685046279
 20
5351.7122420221
 10
6287.171845333
 20
5351.7060201924
 10
6287.1648590001
 20
5351.699778587
 10
6287.1434582242
 20
5351.6935106139
 10
6286.0713874925
 20
5351.6192159856
 10
6273.7972183817
 20
5351.3261001088
 10
6261.7837357528
 20
5351.0299019834
 10
6260.8955371923
 20
5350.9581505506
 10
6260.8596446112
 20
5350.9332652145
  0
LWPOLYLINE
  5
422
330
1F
100
AcDbEntity
  8
0
  6
Continuous
 62
     7
100
AcDbPolyline
 90
       10
 70
   128
 43
0.0
 10
6287.1589660645
 20
5350.1309531682
 10
6287.1685046279
 20
5350.1247412272
 10
6287.171845333
 20
5350.1185193977
 10
6287.1648590002
 20
5350.1122777912
 10
6287.1434582243
 20
5350.1060098156
 10
6286.0713874924
 20
5350.0317152462
 10
6273.7972183706
 20
5349.7386003424
 10
6261.7837357588
 20
5349.4424011684
 10
6260.8955371919
 20
5349.3706507611
 10
6260.8596446112
 20
5349.3457653501
  0
LWPOLYLINE
  5
423
330
1F
100
AcDbEntity
  8
0
  6
Continuous
 62
     7
100
AcDbPolyline
 90
       10
 70
   128
 43
0.0
 10
6287.1589660645
 20
5348.5434533038
 10
6287.1685046279
 20
5348.5372413628
 10
6287.171845333
 20
5348.5310195333
 10
6287.1648590002
 20
5348.5247779268
 10
6287.1434582243
 20
5348.5185099512
 10
6286.0713874925
 20
5348.4442153817
 10
6273.7972183708
 20
5348.1511004868
 10
6261.7837357587
 20
5347.8549013094
 10
6260.8955371917
 20
5347.7831509038
 10
6260.8596446112
 20
5347.7582654857
  0
LWPOLYLINE
  5
424
330
1F
100
AcDbEntity
  8
0
  6
Continuous
 62
     7
100
AcDbPolyline
 90
       10
 70
   128
 43
0.0
 10
6287.1589660645
 20
5346.9559534394
 10
6287.1685046279
 20
5346.949741498
 10
6287.171845333
 20
5346.9435196684
 10
6287.1648590002
 20
5346.9372780624
 10
6287.1434582243
 20
5346.931010088
 10
6286.0713874929
 20
5346.8567154901
 10
6273.7972183718
 20
5346.5636005695
 10
6261.7837357587
 20
5346.2674014435
 10
6260.8955371918
 20
5346.1956510375
 10
6260.8596446112
 20
5346.1707656213
  0
LWPOLYLINE
  5
425
330
1F
100
AcDbEntity
  8
0
  6
Continuous
 62
     7
100
AcDbPolyline
 90
        8
 70
   128
 43
0.0
 10
6287.1589660645
 20
5345.3684526436
 10
6287.1694305273
 20
5345.3613405475
 10
6287.1717241582
 20
5345.3577798489
 10
6287.1711120719
 20
5345.3542135698
 10
6287.16410214
 20
5345.3494466358
 10
6286.5257721937
 20
5345.2921197062
 10
6278.5665423853
 20
5345.0675199944
 10
6264.219774504
 20
5344.7691773005
  0
LWPOLYLINE
  5
426
330
1F
100
AcDbEntity
  8
0
  6
Continuous
 62
     7
100
AcDbPolyline
 90
        8
 70
   128
 43
0.0
 10
6286.3159179688
 20
5352.8095132612
 10
6273.8140598416
 20
5352.4175753966
 10
6262.594193709
 20
5352.121855094
 10
6261.6981970195
 20
5352.050143116
 10
6261.6863153745
 20
5352.0440191717
 10
6261.6855686167
 20
5352.0417042728
 10
6261.686840756
 20
5352.0393789694
 10
6261.7211403444
 20
5352.025289362
  0
LWPOLYLINE
  5
427
330
1F
100
AcDbEntity
  8
0
  6
Continuous
 62
     7
100
AcDbPolyline
 90
        8
 70
   128
 43
0.0
 10
6286.3159179688
 20
5351.2220143281
 10
6273.8140598246
 20
5350.8300763814
 10
6262.594193711
 20
5350.5343542854
 10
6261.6981970196
 20
5350.462642321
 10
6261.6863153745
 20
5350.4565183761
 10
6261.6855686167
 20
5350.454203477
 10
6261.686840756
 20
5350.4518781735
 10
6261.7211403444
 20
5350.4377885662
  0
LWPOLYLINE
  5
428
330
1F
100
AcDbEntity
  8
0
  6
Continuous
 62
     7
100
AcDbPolyline
 90
        8
 70
   128
 43
0.0
 10
6286.3159179688
 20
5349.6345135324
 10
6273.8140598187
 20
5349.2425763123
 10
6262.5941937116
 20
5348.9468543158
 10
6261.6981970195
 20
5348.8751424625
 10
6261.6863153745
 20
5348.8690185127
 10
6261.6855686167
 20
5348.8667036125
 10
6261.686840756
 20
5348.8643783082
 10
6261.7211403444
 20
5348.8502887018
  0
LWPOLYLINE
  5
429
330
1F
100
AcDbEntity
  8
0
  6
Continuous
 62
     7
100
AcDbPolyline
 90
        8
 70
   128
 43
0.0
 10
6286.3159179688
 20
5348.047013668
 10
6273.8140598353
 20
5347.6550756417
 10
6262.59419371
 20
5347.3593545632
 10
6261.6981970196
 20
5347.2876425918
 10
6261.6863153745
 20
5347.2815186472
 10
6261.6855686167
 20
5347.2792037482
 10
6261.686840756
 20
5347.2768784448
 10
6261.7211403444
 20
5347.2627888374
  0
LWPOLYLINE
  5
42A
330
1F
100
AcDbEntity
  8
0
  6
Continuous
 62
     7
100
AcDbPolyline
 90
        8
 70
   128
 43
0.0
 10
6286.3159179688
 20
5346.4595138036
 10
6273.8140598331
 20
5346.0675758979
 10
6262.59419371
 20
5345.7718546987
 10
6261.6981970196
 20
5345.7001427274
 10
6261.6863153745
 20
5345.6940187829
 10
6261.6855686167
 20
5345.6917038838
 10
6261.686840756
 20
5345.6893785804
 10
6261.7211403444
 20
5345.675288973
  0
LWPOLYLINE
  5
42B
330
1F
100
AcDbEntity
  8
0
  6
Continuous
 62
     7
100
AcDbPolyline
 90
        9
 70
   128
 43
0.0
 10
6286.3578796387
 20
5352.6207229995
 10
6274.253438369
 20
5352.2282420409
 10
6262.7617423526
 20
5351.9319839127
 10
6261.7283914907
 20
5351.8602053819
 10
6261.6970368317
 20
5351.8533885399
 10
6261.6846924089
 20
5351.8464850673
 10
6261.6851560066
 20
5351.8441614675
 10
6261.6879702492
 20
5351.8418258656
 10
6261.7027225092
 20
5351.8355603271
  0
LWPOLYLINE
  5
42C
330
1F
100
AcDbEntity
  8
0
  6
Continuous
 62
     7
100
AcDbPolyline
 90
        9
 70
   128
 43
0.0
 10
6286.3578796387
 20
5351.0332222037
 10
6274.2534383328
 20
5350.6407429762
 10
6262.7617423375
 20
5350.3444840269
 10
6261.7283914921
 20
5350.2727077869
 10
6261.6970368326
 20
5350.2658907924
 10
6261.6846924097
 20
5350.2589866076
 10
6261.6851560074
 20
5350.256662623
 10
6261.6879702499
 20
5350.2543265564
 10
6261.7027225092
 20
5350.2480595313
  0
LWPOLYLINE
  5
42D
330
1F
100
AcDbEntity
  8
0
  6
Continuous
 62
     7
100
AcDbPolyline
 90
        9
 70
   128
 43
0.0
 10
6286.3578796387
 20
5349.4457223393
 10
6274.2534383515
 20
5349.0532422244
 10
6262.7617423447
 20
5348.756983732
 10
6261.7283914914
 20
5348.6852063194
 10
6261.6970368322
 20
5348.6783894026
 10
6261.6846924093
 20
5348.671485575
 10
6261.685156007
 20
5348.669161783
 10
6261.6879702496
 20
5348.6668259488
 10
6261.7027225092
 20
5348.6605596669
  0
LWPOLYLINE
  5
42E
330
1F
100
AcDbEntity
  8
0
  6
Continuous
 62
     7
100
AcDbPolyline
 90
        9
 70
   128
 43
0.0
 10
6286.3578796387
 20
5347.8582224749
 10
6274.2534383509
 20
5347.4657423819
 10
6262.7617423451
 20
5347.1694838431
 10
6261.7283914914
 20
5347.0977064577
 10
6261.6970368322
 20
5347.0908895395
 10
6261.6846924093
 20
5347.0839857108
 10
6261.685156007
 20
5347.0816619186
 10
6261.6879702496
 20
5347.0793260844
 10
6261.7027225092
 20
5347.0730598025
  0
LWPOLYLINE
  5
42F
330
1F
100
AcDbEntity
  8
0
  6
Continuous
 62
     7
100
AcDbPolyline
 90
        9
 70
   128
 43
0.0
 10
6286.3578796387
 20
5346.2707226105
 10
6274.2534383508
 20
5345.8782425176
 10
6262.7617423474
 20
5345.5819835611
 10
6261.7283914929
 20
5345.5102063701
 10
6261.6970368328
 20
5345.5033895777
 10
6261.6846924094
 20
5345.4964858303
 10
6261.685156007
 20
5345.4941620522
 10
6261.6879702496
 20
5345.4918262248
 10
6261.7027225092
 20
5345.4855599381
  0
LWPOLYLINE
  5
430
330
1F
100
AcDbEntity
  8
0
  6
Continuous
 62
     7
100
AcDbPolyline
 90
        5
 70
   128
 43
0.0
 10
6177.5207519531
 20
5194.5861841493
 10
6177.4016507413
 20
5198.2030788944
 10
6177.3206467073
 20
5203.5449360042
 10
6177.2398488447
 20
5209.7670796789
 10
6177.1595018104
 20
5215.3217757993
  0
LWPOLYLINE
  5
431
330
1F
100
AcDbEntity
  8
0
  6
Continuous
 62
     7
100
AcDbPolyline
 90
        3
 70
   128
 43
0.0
 10
6177.1583557129
 20
5219.5948104315
 10
6177.6483499942
 20
5215.3218785549
 10
6178.0187623694
 20
5208.0025042348
  0
LWPOLYLINE
  5
432
330
1F
100
AcDbEntity
  8
0
  6
Continuous
 62
     7
100
AcDbPolyline
 90
        3
 70
   128
 43
0.0
 10
6177.1583557129
 20
5215.3217757993
 10
6177.1595018104
 20
5218.5523615535
 10
6177.1595018104
 20
5219.5948104315
  0
ARC
  5
433
330
1F
100
AcDbEntity
  8
0
  6
Continuous
 62
     7
100
AcDbCircle
 10
6230.7583755665
 20
5202.6124310174
 30
0.0
 40
53.01642364565276
100
AcDbArc
 50
174.1647711524
 51
189.2400936777
  0
LWPOLYLINE
  5
434
330
1F
100
AcDbEntity
  8
0
  6
Continuous
 62
     7
100
AcDbPolyline
 90
        5
 70
   128
 43
0.0
 10
6179.2221069336
 20
5220.4802225285
 10
6179.6205985506
 20
5207.2692257967
 10
6179.9164979016
 20
5195.0538668125
 10
6179.9920312123
 20
5194.1501226602
 10
6180.0173806146
 20
5194.0994824224
  0
LWPOLYLINE
  5
435
330
1F
100
AcDbEntity
  8
0
  6
Continuous
 62
     7
100
AcDbPolyline
 90
        5
 70
   128
 43
0.0
 10
6180.8090209961
 20
5220.4802225285
 10
6181.2081000255
 20
5207.2692257626
 10
6181.503993177
 20
5195.0538667968
 10
6181.5795378249
 20
5194.1501226945
 10
6181.6048758224
 20
5194.0994824224
  0
LWPOLYLINE
  5
436
330
1F
100
AcDbEntity
  8
0
  6
Continuous
 62
     7
100
AcDbPolyline
 90
        5
 70
   128
 43
0.0
 10
6182.3959350586
 20
5220.4802225285
 10
6182.7955951829
 20
5207.269225617
 10
6183.0914884016
 20
5195.0538666995
 10
6183.1670383276
 20
5194.150122674
 10
6183.1923859313
 20
5194.0994824224
  0
LWPOLYLINE
  5
437
330
1F
100
AcDbEntity
  8
0
  6
Continuous
 62
     7
100
AcDbPolyline
 90
        5
 70
   128
 43
0.0
 10
6183.9828491211
 20
5220.4802225285
 10
6184.3830990792
 20
5207.2692257906
 10
6184.6789835849
 20
5195.0538666982
 10
6184.7545335592
 20
5194.1501226744
 10
6184.7798811391
 20
5194.0994824224
  0
LWPOLYLINE
  5
438
330
1F
100
AcDbEntity
  8
0
  6
Continuous
 62
     7
100
AcDbPolyline
 90
        8
 70
   128
 43
0.0
 10
6178.0395507812
 20
5220.4344908648
 10
6178.4342319827
 20
5207.0481377449
 10
6178.7270078892
 20
5195.0431843355
 10
6178.8017905872
 20
5194.0839326012
 10
6178.808043482
 20
5194.0701662884
 10
6178.8103791653
 20
5194.0689575761
 10
6178.8127091027
 20
5194.0700050502
 10
6178.8265990213
 20
5194.1100622468
  0
LWPOLYLINE
  5
439
330
1F
100
AcDbEntity
  8
0
  6
Continuous
 62
     7
100
AcDbPolyline
 90
        8
 70
   128
 43
0.0
 10
6179.6264648438
 20
5220.4344908648
 10
6180.0217263124
 20
5207.0481377349
 10
6180.3145117634
 20
5195.0431844103
 10
6180.3892853004
 20
5194.0839325969
 10
6180.395538538
 20
5194.0701662871
 10
6180.397874315
 20
5194.0689575756
 10
6180.4002043207
 20
5194.0700050503
 10
6180.414094229
 20
5194.1100622468
  0
LWPOLYLINE
  5
43A
330
1F
100
AcDbEntity
  8
0
  6
Continuous
 62
     7
100
AcDbPolyline
 90
        8
 70
   128
 43
0.0
 10
6181.2133789062
 20
5220.4344908648
 10
6181.6092203892
 20
5207.0481377172
 10
6181.9020167302
 20
5195.0431844708
 10
6181.9767824093
 20
5194.0839326081
 10
6181.9830343073
 20
5194.0701662904
 10
6181.985369736
 20
5194.0689575769
 10
6181.9876994914
 20
5194.0700050501
 10
6182.0015894368
 20
5194.1100622468
  0
LWPOLYLINE
  5
43B
330
1F
100
AcDbEntity
  8
0
  6
Continuous
 62
     7
100
AcDbPolyline
 90
        8
 70
   128
 43
0.0
 10
6182.8002929688
 20
5220.4344908648
 10
6183.1967290614
 20
5207.0481376873
 10
6183.4895119717
 20
5195.0431843367
 10
6183.5642718292
 20
5194.0839326016
 10
6183.5705265847
 20
5194.0701662908
 10
6183.5728635188
 20
5194.0689575795
 10
6183.5751950392
 20
5194.0700050547
 10
6183.5890995458
 20
5194.1100622468
  0
LWPOLYLINE
  5
43C
330
1F
100
AcDbEntity
  8
0
  6
Continuous
 62
     7
100
AcDbPolyline
 90
        8
 70
   128
 43
0.0
 10
6184.3910217285
 20
5220.4344908648
 10
6184.7842277258
 20
5207.0481377437
 10
6185.077012421
 20
5195.0431844133
 10
6185.1517858153
 20
5194.0839325968
 10
6185.1580390596
 20
5194.070166287
 10
6185.1603748384
 20
5194.0689575756
 10
6185.1627048454
 20
5194.0700050503
 10
6185.1765947536
 20
5194.1100622468
  0
LWPOLYLINE
  5
43D
330
1F
100
AcDbEntity
  8
0
  6
Continuous
 62
     7
100
AcDbPolyline
 90
        5
 70
   128
 43
0.0
 10
6177.1583557129
 20
5219.5948104315
 10
6177.4184196956
 20
5212.8068526316
 10
6177.58759852
 20
5204.7875237046
 10
6177.7567392187
 20
5197.8295424263
 10
6177.9246317342
 20
5194.9855501704
  0
LWPOLYLINE
  5
43E
330
1F
100
AcDbEntity
  8
0
  6
Continuous
 62
     7
100
AcDbPolyline
 90
        5
 70
   128
 43
0.0
 10
6178.7300109863
 20
5219.6216772251
 10
6178.7792741637
 20
5219.3746424793
 10
6178.8269077891
 20
5218.6543256592
 10
6179.121697865
 20
5207.4071156369
 10
6179.5121418431
 20
5194.9855501704
  0
LWPOLYLINE
  5
43F
330
1F
100
AcDbEntity
  8
0
  6
Continuous
 62
     7
100
AcDbPolyline
 90
        5
 70
   128
 43
0.0
 10
6180.3169250488
 20
5219.6216772251
 10
6180.3667725738
 20
5219.3746424771
 10
6180.4144154392
 20
5218.6543256199
 10
6180.7091981537
 20
5207.407115589
 10
6181.0996370509
 20
5194.9855501704
  0
LWPOLYLINE
  5
440
330
1F
100
AcDbEntity
  8
0
  6
Continuous
 62
     7
100
AcDbPolyline
 90
        5
 70
   128
 43
0.0
 10
6181.9038391113
 20
5219.6216772251
 10
6181.9542796184
 20
5219.3746424859
 10
6182.0019126645
 20
5218.6543256675
 10
6182.2967050155
 20
5207.4071158247
 10
6182.6871322587
 20
5194.9855501704
  0
LWPOLYLINE
  5
441
330
1F
100
AcDbEntity
  8
0
  6
Continuous
 62
     7
100
AcDbPolyline
 90
        5
 70
   128
 43
0.0
 10
6183.4907531738
 20
5219.6216772251
 10
6183.5417746882
 20
5219.3746424793
 10
6183.5894083136
 20
5218.6543256592
 10
6183.8841983895
 20
5207.4071156369
 10
6184.2746423677
 20
5194.9855501704
  0
LWPOLYLINE
  5
442
330
1F
100
AcDbEntity
  8
0
  6
Continuous
 62
     7
100
AcDbPolyline
 90
        3
 70
   128
 43
0.0
 10
6185.0776672363
 20
5219.6216772251
 10
6185.3259836454
 20
5214.1179962942
 10
6185.5187552169
 20
5205.1147635036
  0
LWPOLYLINE
  5
443
330
1F
100
AcDbEntity
  8
0
  6
Continuous
 62
     7
100
AcDbPolyline
 90
        5
 70
   128
 43
0.0
 10
6177.1583557129
 20
5215.3217757993
 10
6177.355531908
 20
5206.448567933
 10
6177.4808421038
 20
5200.6134364537
 10
6177.6081134559
 20
5196.4244649757
 10
6177.7358787253
 20
5194.9536765866
  0
LWPOLYLINE
  5
444
330
1F
100
AcDbEntity
  8
0
  6
Continuous
 62
     7
100
AcDbPolyline
 90
        5
 70
   128
 43
0.0
 10
6178.5354614258
 20
5219.5768545323
 10
6178.9308592366
 20
5207.0405703352
 10
6179.2235015426
 20
5195.8181172887
 10
6179.2983000516
 20
5194.9996805392
 10
6179.3233739331
 20
5194.9536765866
  0
LWPOLYLINE
  5
445
330
1F
100
AcDbEntity
  8
0
  6
Continuous
 62
     7
100
AcDbPolyline
 90
        5
 70
   128
 43
0.0
 10
6180.1223754883
 20
5219.5768545323
 10
6180.5183583626
 20
5207.0405702633
 10
6180.8110104609
 20
5195.8181172948
 10
6180.8857995483
 20
5194.9996805109
 10
6180.9108840421
 20
5194.9536765866
  0
LWPOLYLINE
  5
446
330
1F
100
AcDbEntity
  8
0
  6
Continuous
 62
     7
100
AcDbPolyline
 90
        5
 70
   128
 43
0.0
 10
6181.7092895508
 20
5219.5768545323
 10
6182.105867228
 20
5207.0405703949
 10
6182.3985068446
 20
5195.8181172896
 10
6182.4733053777
 20
5194.9996805395
 10
6182.4983792499
 20
5194.9536765866
  0
LWPOLYLINE
  5
447
330
1F
100
AcDbEntity
  8
0
  6
Continuous
 62
     7
100
AcDbPolyline
 90
        5
 70
   128
 43
0.0
 10
6183.3000183105
 20
5219.5768545323
 10
6183.6933597611
 20
5207.0405703352
 10
6183.9860020672
 20
5195.8181172887
 10
6184.0608005761
 20
5194.9996805392
 10
6184.0858744577
 20
5194.9536765866
  0
LWPOLYLINE
  5
448
330
1F
100
AcDbEntity
  8
0
  6
Continuous
 62
     7
100
AcDbPolyline
 90
        5
 70
   128
 43
0.0
 10
6184.886932373
 20
5219.5768545323
 10
6185.1026799255
 20
5215.1087888579
 10
6185.2404048742
 20
5208.9682905367
 10
6185.378344658
 20
5202.326552045
 10
6185.5187552169
 20
5197.1388424687
  0
LWPOLYLINE
  5
449
330
1F
100
AcDbEntity
  8
0
  6
Continuous
 62
     7
100
AcDbPolyline
 90
        3
 70
   128
 43
0.0
 10
6664.0815734863
 20
5182.3655034356
 10
6666.0946519903
 20
5181.3546914784
 10
6667.8317420676
 20
5181.0215528064
  0
LWPOLYLINE
  5
44A
330
1F
100
AcDbEntity
  8
0
  6
Continuous
 62
     7
100
AcDbPolyline
 90
        3
 70
   128
 43
0.0
 10
6667.8314208984
 20
5181.0215528064
 10
6670.0227131704
 20
5181.5191981259
 10
6671.5811275438
 20
5182.3656226449
  0
LWPOLYLINE
  5
44B
330
1F
100
AcDbEntity
  8
0
  6
Continuous
 62
     7
100
AcDbPolyline
 90
        3
 70
   128
 43
0.0
 10
6570.4116821289
 20
5350.5401204281
 10
6570.8935086705
 20
5350.2621483464
 10
6571.2714724734
 20
5350.043740397
  0
LWPOLYLINE
  5
44C
330
1F
100
AcDbEntity
  8
0
  6
Continuous
 62
     7
100
AcDbPolyline
 90
        3
 70
   128
 43
0.0
 10
6570.4116821289
 20
5348.9526196324
 10
6570.8935086705
 20
5348.6746485938
 10
6571.2714724734
 20
5348.4562414639
  0
LWPOLYLINE
  5
44D
330
1F
100
AcDbEntity
  8
0
  6
Continuous
 62
     7
100
AcDbPolyline
 90
        3
 70
   128
 43
0.0
 10
6570.4116821289
 20
5347.365119768
 10
6570.8935086705
 20
5347.0871487294
 10
6571.2714724734
 20
5346.8687415995
  0
LWPOLYLINE
  5
44E
330
1F
100
AcDbEntity
  8
0
  6
Continuous
 62
     7
100
AcDbPolyline
 90
        3
 70
   128
 43
0.0
 10
6570.4116821289
 20
5345.7776199036
 10
6570.8935086705
 20
5345.499648865
 10
6571.2714724734
 20
5345.2812417351
  0
LWPOLYLINE
  5
44F
330
1F
100
AcDbEntity
  8
0
  6
Continuous
 62
     7
100
AcDbPolyline
 90
        3
 70
   128
 43
0.0
 10
6595.9815979004
 20
5350.8250809215
 10
6596.4665933377
 20
5351.103234089
 10
6596.8448974684
 20
5351.3217776023
  0
LWPOLYLINE
  5
450
330
1F
100
AcDbEntity
  8
0
  6
Continuous
 62
     7
100
AcDbPolyline
 90
        3
 70
   128
 43
0.0
 10
6595.9815979004
 20
5349.2375801258
 10
6596.4665933377
 20
5349.5157332933
 10
6596.8448974684
 20
5349.7342768066
  0
LWPOLYLINE
  5
451
330
1F
100
AcDbEntity
  8
0
  6
Continuous
 62
     7
100
AcDbPolyline
 90
        3
 70
   128
 43
0.0
 10
6595.9815979004
 20
5347.6500802614
 10
6596.4665933377
 20
5347.9282334289
 10
6596.8448974684
 20
5348.1467769422
  0
LWPOLYLINE
  5
452
330
1F
100
AcDbEntity
  8
0
  6
Continuous
 62
     7
100
AcDbPolyline
 90
        3
 70
   128
 43
0.0
 10
6595.9815979004
 20
5346.062580397
 10
6596.4665933377
 20
5346.3407335645
 10
6596.8448974684
 20
5346.5592770778
  0
LWPOLYLINE
  5
453
330
1F
100
AcDbEntity
  8
0
  6
Continuous
 62
     7
100
AcDbPolyline
 90
        3
 70
   128
 43
0.0
 10
6595.9815979004
 20
5352.4125798546
 10
6596.2355421625
 20
5352.5572530109
 10
6596.4323029414
 20
5352.6709250115
  0
LWPOLYLINE
  5
454
330
1F
100
AcDbEntity
  8
0
  6
Continuous
 62
     7
100
AcDbPolyline
 90
        3
 70
   128
 43
0.0
 10
6570.4116821289
 20
5352.1276193612
 10
6570.8935089686
 20
5351.8496488388
 10
6571.2714724734
 20
5351.6312411927
  0
LWPOLYLINE
  5
455
330
1F
100
AcDbEntity
  8
0
  6
Continuous
 62
     7
100
AcDbPolyline
 90
        3
 70
   128
 43
0.0
 10
6571.2776184082
 20
5351.4387144648
 10
6570.7968713561
 20
5351.1605670523
 10
6570.4185691222
 20
5350.9420270972
  0
LWPOLYLINE
  5
456
330
1F
100
AcDbEntity
  8
0
  6
Continuous
 62
     7
100
AcDbPolyline
 90
        3
 70
   128
 43
0.0
 10
6571.2776184082
 20
5349.8512155317
 10
6570.7968718034
 20
5349.5730668234
 10
6570.4185691222
 20
5349.3545272328
  0
LWPOLYLINE
  5
457
330
1F
100
AcDbEntity
  8
0
  6
Continuous
 62
     7
100
AcDbPolyline
 90
        3
 70
   128
 43
0.0
 10
6571.2776184082
 20
5348.2637156673
 10
6570.7968718034
 20
5347.985566959
 10
6570.4185691222
 20
5347.7670273684
  0
LWPOLYLINE
  5
458
330
1F
100
AcDbEntity
  8
0
  6
Continuous
 62
     7
100
AcDbPolyline
 90
        3
 70
   128
 43
0.0
 10
6571.2776184082
 20
5346.6762148716
 10
6570.7968715052
 20
5346.3980666795
 10
6570.4185691222
 20
5346.1795265727
  0
LWPOLYLINE
  5
459
330
1F
100
AcDbEntity
  8
0
  6
Continuous
 62
     7
100
AcDbPolyline
 90
        3
 70
   128
 43
0.0
 10
6571.2776184082
 20
5345.0887150072
 10
6570.9839749034
 20
5344.918654659
 10
6570.7526829585
 20
5344.7850395866
  0
LWPOLYLINE
  5
45A
330
1F
100
AcDbEntity
  8
0
  6
Continuous
 62
     7
100
AcDbPolyline
 90
        3
 70
   128
 43
0.0
 10
6596.8437194824
 20
5350.1482776307
 10
6596.3678157304
 20
5350.4238900762
 10
6595.9929571047
 20
5350.6404480838
  0
LWPOLYLINE
  5
45B
330
1F
100
AcDbEntity
  8
0
  6
Continuous
 62
     7
100
AcDbPolyline
 90
        3
 70
   128
 43
0.0
 10
6596.8437194824
 20
5348.560776835
 10
6596.3678161765
 20
5348.8363905742
 10
6595.9929571047
 20
5349.0529482194
  0
LWPOLYLINE
  5
45C
330
1F
100
AcDbEntity
  8
0
  6
Continuous
 62
     7
100
AcDbPolyline
 90
        3
 70
   128
 43
0.0
 10
6596.8437194824
 20
5346.9732769706
 10
6596.3678161765
 20
5347.2488907098
 10
6595.9929571047
 20
5347.465448355
  0
LWPOLYLINE
  5
45D
330
1F
100
AcDbEntity
  8
0
  6
Continuous
 62
     7
100
AcDbPolyline
 90
        3
 70
   128
 43
0.0
 10
6596.8437194824
 20
5345.3857771062
 10
6596.3678158782
 20
5345.661390329
 10
6595.9929571047
 20
5345.8779484906
  0
LWPOLYLINE
  5
45E
330
1F
100
AcDbEntity
  8
0
  6
Continuous
 62
     7
100
AcDbPolyline
 90
        3
 70
   128
 43
0.0
 10
6596.8437194824
 20
5351.7357765638
 10
6596.367816026
 20
5352.011390564
 10
6595.9929571047
 20
5352.2279488795
  0
LWPOLYLINE
  5
45F
330
1F
100
AcDbEntity
  8
0
  6
Continuous
 62
     7
100
AcDbPolyline
 90
        4
 70
   128
 43
0.0
 10
6587.3985290527
 20
5203.262444859
 10
6585.9310529262
 20
5203.2035440242
 10
6585.3483931364
 20
5202.771351683
 10
6585.2115422979
 20
5202.0593698077
  0
LWPOLYLINE
  5
460
330
1F
100
AcDbEntity
  8
0
  6
Continuous
 62
     7
100
AcDbPolyline
 90
        4
 70
   128
 43
0.0
 10
6579.2655944824
 20
5203.9916480832
 10
6580.6735327991
 20
5203.6627229235
 10
6581.148247053
 20
5203.1297303656
 10
6581.1088298008
 20
5202.418815618
  0
LWPOLYLINE
  5
461
330
1F
100
AcDbEntity
  8
0
  6
Continuous
 62
     7
100
AcDbPolyline
 90
        3
 70
   128
 43
0.0
 10
6664.7682189941
 20
5182.7489401155
 10
6668.2811956524
 20
5182.9692960974
 10
6670.8817415431
 20
5182.7521587663
  0
LWPOLYLINE
  5
462
330
1F
100
AcDbEntity
  8
0
  6
Continuous
 62
     7
100
AcDbPolyline
 90
        6
 70
   128
 43
0.0
 10
6683.7463378906
 20
5196.9292427354
 10
6682.6615135781
 20
5195.9744320565
 10
6682.2941503308
 20
5195.9443288135
 10
6681.9980270816
 20
5196.1294157894
 10
6681.9063429649
 20
5197.8919634256
 10
6682.8934036687
 20
5199.9624784045
  0
LWPOLYLINE
  5
463
330
1F
100
AcDbEntity
  8
0
  6
Continuous
 62
     7
100
AcDbPolyline
 90
        6
 70
   128
 43
0.0
 10
6682.8918457031
 20
5199.9624784045
 10
6683.9585665895
 20
5200.8926583144
 10
6684.3049810015
 20
5200.9166930581
 10
6684.5782447805
 20
5200.7313363519
 10
6684.6671925154
 20
5198.9960335772
 10
6683.7484471992
 20
5196.9292427354
  0
LWPOLYLINE
  5
464
330
1F
100
AcDbEntity
  8
0
  6
Continuous
 62
     7
100
AcDbPolyline
 90
        6
 70
   128
 43
0.0
 10
6682.3539733887
 20
5195.9315354877
 10
6683.9389780463
 20
5197.3144185891
 10
6684.7149671867
 20
5200.152867726
 10
6684.5158105194
 20
5200.7375386455
 10
6684.344363917
 20
5200.8971981005
 10
6684.1228090718
 20
5200.9107883029
  0
LWPOLYLINE
  5
465
330
1F
100
AcDbEntity
  8
0
  6
Continuous
 62
     7
100
AcDbPolyline
 90
        8
 70
   128
 43
0.0
 10
6572.5631713867
 20
5352.2691766672
 10
6593.9246281157
 20
5352.5766012591
 10
6596.3094193194
 20
5352.6538169677
 10
6596.4344071543
 20
5352.6688361876
 10
6596.4378511786
 20
5352.6713169827
 10
6596.4373435744
 20
5352.6725535383
 10
6596.4352862663
 20
5352.6737872807
 10
6596.4060135677
 20
5352.6803332322
  0
LWPOLYLINE
  5
466
330
1F
100
AcDbEntity
  8
0
  6
Continuous
 62
     7
100
AcDbPolyline
 90
        3
 70
   128
 43
0.0
 10
6572.4868774414
 20
5353.1284372263
 10
6571.3500223312
 20
5352.9812546395
 10
6571.0493036106
 20
5352.8647667669
  0
LINE
  5
467
330
1F
100
AcDbEntity
  8
0
  6
Continuous
 62
     7
100
AcDbLine
 10
6571.2776184082
 20
5353.1284372263
 30
0.0
 11
6572.4886570618
 21
5353.1284372263
 31
0.0
  0
LWPOLYLINE
  5
468
330
1F
100
AcDbEntity
  8
0
  6
Continuous
 62
     7
100
AcDbPolyline
 90
        8
 70
   128
 43
0.0
 10
6572.5631713867
 20
5352.2691766672
 10
6570.5419389876
 20
5352.1632881283
 10
6570.483702092
 20
5352.1534087042
 10
6570.468615696
 20
5352.148402497
 10
6570.4633953658
 20
5352.1433440892
 10
6570.4645772595
 20
5352.1399466411
 10
6570.4685895486
 20
5352.136533907
 10
6570.4872560248
 20
5352.1273902558
  0
LWPOLYLINE
  5
469
330
1F
100
AcDbEntity
  8
0
  6
Continuous
 62
     7
100
AcDbPolyline
 90
       15
 70
   128
 43
0.0
 10
6596.7864990234
 20
5351.3216174148
 10
6596.8035245306
 20
5351.3154523604
 10
6596.8076911657
 20
5351.3123637237
 10
6596.8086415968
 20
5351.3108168088
 10
6596.8086590806
 20
5351.3092677557
 10
6596.7984826013
 20
5351.3030492241
 10
6596.7727574277
 20
5351.296801747
 10
6595.6931536413
 20
5351.2227579054
 10
6583.5014154592
 20
5350.9309699794
 10
6571.4636969842
 20
5350.6360640349
 10
6570.4789555474
 20
5350.5646680845
 10
6570.465034723
 20
5350.5585604838
 10
6570.4635137566
 20
5350.5562502177
 10
6570.4637122419
 20
5350.5539305999
 10
6570.4872560248
 20
5350.5398913227
  0
LWPOLYLINE
  5
46A
330
1F
100
AcDbEntity
  8
0
  6
Continuous
 62
     7
100
AcDbPolyline
 90
       15
 70
   128
 43
0.0
 10
6596.7864990234
 20
5349.7341184818
 10
6596.8035245305
 20
5349.7279529217
 10
6596.8076911657
 20
5349.7248640546
 10
6596.8086415968
 20
5349.7233170341
 10
6596.8086590807
 20
5349.7217678833
 10
6596.7984826018
 20
5349.7155490457
 10
6596.7727574287
 20
5349.7093013847
 10
6595.6931536473
 20
5349.6352581565
 10
6583.501415443
 20
5349.3434710015
 10
6571.4636969701
 20
5349.0485651798
 10
6570.4789555476
 20
5348.9771672994
 10
6570.465034723
 20
5348.9710596859
 10
6570.4635137566
 20
5348.9687494173
 10
6570.4637122418
 20
5348.9664297982
 10
6570.4872560248
 20
5348.952390527
  0
LWPOLYLINE
  5
46B
330
1F
100
AcDbEntity
  8
0
  6
Continuous
 62
     7
100
AcDbPolyline
 90
       15
 70
   128
 43
0.0
 10
6596.7864990234
 20
5348.1466186174
 10
6596.8035245305
 20
5348.1404530582
 10
6596.8076911657
 20
5348.137364191
 10
6596.8086415968
 20
5348.1358171702
 10
6596.8086590807
 20
5348.1342680188
 10
6596.7984826019
 20
5348.1280491772
 10
6596.7727574289
 20
5348.12180151
 10
6595.6931536458
 20
5348.0477584128
 10
6583.5014154589
 20
5347.7559702871
 10
6571.4636969681
 20
5347.4610652074
 10
6570.4789555481
 20
5347.3896673674
 10
6570.4650347229
 20
5347.3835598364
 10
6570.4635137564
 20
5347.3812495838
 10
6570.4637122415
 20
5347.3789299735
 10
6570.4872560248
 20
5347.3648906626
  0
LWPOLYLINE
  5
46C
330
1F
100
AcDbEntity
  8
0
  6
Continuous
 62
     7
100
AcDbPolyline
 90
       15
 70
   128
 43
0.0
 10
6596.7864990234
 20
5346.5591178216
 10
6596.8035245306
 20
5346.5529527646
 10
6596.8076911658
 20
5346.5498641283
 10
6596.8086415968
 20
5346.5483172143
 10
6596.8086590806
 20
5346.5467681626
 10
6596.7984826011
 20
5346.5405496428
 10
6596.7727574273
 20
5346.534302184
 10
6595.6931536446
 20
5346.4602578208
 10
6583.5014154497
 20
5346.1684704242
 10
6571.4636969761
 20
5345.8735644313
 10
6570.4789555478
 20
5345.8021675313
 10
6570.465034723
 20
5345.7960599657
 10
6570.4635137565
 20
5345.7937497063
 10
6570.4637122417
 20
5345.7914300924
 10
6570.4872560248
 20
5345.7773907982
  0
LWPOLYLINE
  5
46D
330
1F
100
AcDbEntity
  8
0
  6
Continuous
 62
     7
100
AcDbPolyline
 90
        7
 70
   128
 43
0.0
 10
6596.7864990234
 20
5344.9716179572
 10
6596.807966047
 20
5344.9620285209
 10
6596.8087375526
 20
5344.9604251449
 10
6596.8084737531
 20
5344.9588194023
 10
6596.7242264887
 20
5344.9394007357
 10
6596.5169284106
 20
5344.9199022719
 10
6592.5065175191
 20
5344.7691773005
  0
LWPOLYLINE
  5
46E
330
1F
100
AcDbEntity
  8
0
  6
Continuous
 62
     7
100
AcDbPolyline
 90
        8
 70
   128
 43
0.0
 10
6595.9129333496
 20
5352.4125575029
 10
6583.4924622907
 20
5352.0220938051
 10
6572.2512834324
 20
5351.7272604414
 10
6571.3332909279
 20
5351.6559007097
 10
6571.320609557
 20
5351.6497929828
 10
6571.319283095
 20
5351.6474828472
 10
6571.3195433124
 20
5351.6451634953
 10
6571.3417314485
 20
5351.6311275714
  0
LWPOLYLINE
  5
46F
330
1F
100
AcDbEntity
  8
0
  6
Continuous
 62
     7
100
AcDbPolyline
 90
        8
 70
   128
 43
0.0
 10
6595.9129333496
 20
5350.8250567072
 10
6583.4924623139
 20
5350.4345928264
 10
6572.2512834376
 20
5350.1397611689
 10
6571.3332909293
 20
5350.0683997566
 10
6571.3206095581
 20
5350.0622922799
 10
6571.3192830959
 20
5350.0599822969
 10
6571.3195433132
 20
5350.057663125
 10
6571.3417314485
 20
5350.0436286383
  0
LWPOLYLINE
  5
470
330
1F
100
AcDbEntity
  8
0
  6
Continuous
 62
     7
100
AcDbPolyline
 90
        8
 70
   128
 43
0.0
 10
6595.9129333496
 20
5349.2375568428
 10
6583.4924623134
 20
5348.8470929788
 10
6572.2512834414
 20
5348.55226045
 10
6571.3332909288
 20
5348.4809008647
 10
6571.3206095575
 20
5348.4747933098
 10
6571.3192830954
 20
5348.4724832595
 10
6571.3195433126
 20
5348.4701640025
 10
6571.3417314485
 20
5348.4561287739
  0
LWPOLYLINE
  5
471
330
1F
100
AcDbEntity
  8
0
  6
Continuous
 62
     7
100
AcDbPolyline
 90
        8
 70
   128
 43
0.0
 10
6595.9129333496
 20
5347.6500569784
 10
6583.4924623012
 20
5347.259593214
 10
6572.2512834345
 20
5346.964760509
 10
6571.3332909277
 20
5346.8934011254
 10
6571.320609557
 20
5346.8872933873
 10
6571.3192830951
 20
5346.8849832495
 10
6571.3195433125
 20
5346.8826638964
 10
6571.3417314485
 20
5346.8686279782
  0
LWPOLYLINE
  5
472
330
1F
100
AcDbEntity
  8
0
  6
Continuous
 62
     7
100
AcDbPolyline
 90
        8
 70
   128
 43
0.0
 10
6595.9129333496
 20
5346.062557114
 10
6583.4924623024
 20
5345.6720933312
 10
6572.2512834336
 20
5345.3772609135
 10
6571.3332909286
 20
5345.3059002389
 10
6571.3206095575
 20
5345.2997926411
 10
6571.3192830955
 20
5345.2974825826
 10
6571.3195433127
 20
5345.2951633211
 10
6571.3417314485
 20
5345.2811281138
  0
LWPOLYLINE
  5
473
330
1F
100
AcDbEntity
  8
0
  6
Continuous
 62
     7
100
AcDbPolyline
 90
       11
 70
   128
 43
0.0
 10
6596.7979431152
 20
5351.7271767311
 10
6596.7508091482
 20
5351.7018349726
 10
6595.8472584274
 20
5351.6262986966
 10
6583.6326091914
 20
5351.3304723778
 10
6571.4250895789
 20
5351.0310443699
 10
6570.4706839558
 20
5350.9585305938
 10
6570.4618462456
 20
5350.9523014011
 10
6570.4618007837
 20
5350.9499477377
 10
6570.4632163833
 20
5350.9475861518
 10
6570.4695958749
 20
5350.9428437395
 10
6570.4907037809
 20
5350.9333136432
  0
LWPOLYLINE
  5
474
330
1F
100
AcDbEntity
  8
0
  6
Continuous
 62
     7
100
AcDbPolyline
 90
       11
 70
   128
 43
0.0
 10
6596.7979431152
 20
5350.1396759354
 10
6596.7508091478
 20
5350.1143342243
 10
6595.8472584295
 20
5350.0387978519
 10
6583.6326091894
 20
5349.7429726069
 10
6571.4250895879
 20
5349.44354371
 10
6570.4706839559
 20
5349.3710316327
 10
6570.4618462453
 20
5349.3648025215
 10
6570.4618007833
 20
5349.3624488712
 10
6570.4632163829
 20
5349.3600872904
 10
6570.4695958745
 20
5349.3553448692
 10
6570.4907037809
 20
5349.3458147102
  0
LWPOLYLINE
  5
475
330
1F
100
AcDbEntity
  8
0
  6
Continuous
 62
     7
100
AcDbPolyline
 90
       11
 70
   128
 43
0.0
 10
6596.7979431152
 20
5348.552176071
 10
6596.750809148
 20
5348.526834337
 10
6595.8472584293
 20
5348.4512980112
 10
6583.6326091899
 20
5348.1554727276
 10
6571.4250895883
 20
5347.856044001
 10
6570.4706839567
 20
5347.7835308092
 10
6570.4618462457
 20
5347.7773018437
 10
6570.4618007837
 20
5347.7749482701
 10
6570.4632163832
 20
5347.7725867761
 10
6570.4695958747
 20
5347.7678445526
 10
6570.4907037809
 20
5347.7583148458
  0
LWPOLYLINE
  5
476
330
1F
100
AcDbEntity
  8
0
  6
Continuous
 62
     7
100
AcDbPolyline
 90
       11
 70
   128
 43
0.0
 10
6596.7979431152
 20
5346.9646762066
 10
6596.750809148
 20
5346.9393344726
 10
6595.8472584294
 20
5346.8637981468
 10
6583.63260919
 20
5346.5679728688
 10
6571.425089587
 20
5346.2685442294
 10
6570.4706839567
 20
5346.1960309437
 10
6570.4618462457
 20
5346.1898019813
 10
6570.4618007836
 20
5346.1874484083
 10
6570.4632163832
 20
5346.1850869145
 10
6570.4695958746
 20
5346.1803446906
 10
6570.4907037809
 20
5346.1708149814
  0
LWPOLYLINE
  5
477
330
1F
100
AcDbEntity
  8
0
  6
Continuous
 62
     7
100
AcDbPolyline
 90
        5
 70
   128
 43
0.0
 10
6596.7979431152
 20
5345.3771763422
 10
6592.6717532082
 20
5345.1704469045
 10
6586.5638891971
 20
5345.0362647217
 10
6579.6537052945
 20
5344.9013561088
 10
6573.8327622905
 20
5344.7691773005
  0
LWPOLYLINE
  5
478
330
1F
100
AcDbEntity
  8
0
  6
Continuous
 62
     7
100
AcDbPolyline
 90
        3
 70
   128
 43
0.0
 10
6572.4868774414
 20
5353.1284372263
 10
6571.5588766441
 20
5353.0715484992
 10
6571.3240698472
 20
5353.0258706712
  0
LWPOLYLINE
  5
479
330
1F
100
AcDbEntity
  8
0
  6
Continuous
 62
     7
100
AcDbPolyline
 90
        5
 70
   128
 43
0.0
 10
6595.9434509277
 20
5352.223804494
 10
6595.9012486971
 20
5352.198727975
 10
6595.0829203809
 20
5352.1239344478
 10
6583.8613640457
 20
5351.8313039608
 10
6571.3240698472
 20
5351.4383717381
  0
LWPOLYLINE
  5
47A
330
1F
100
AcDbEntity
  8
0
  6
Continuous
 62
     7
100
AcDbPolyline
 90
        5
 70
   128
 43
0.0
 10
6595.9434509277
 20
5350.6363036983
 10
6595.9012486963
 20
5350.6112272467
 10
6595.0829203822
 20
5350.5364335466
 10
6583.8613640052
 20
5350.243805234
 10
6571.3240698472
 20
5349.8508709424
  0
LWPOLYLINE
  5
47B
330
1F
100
AcDbEntity
  8
0
  6
Continuous
 62
     7
100
AcDbPolyline
 90
        5
 70
   128
 43
0.0
 10
6595.9434509277
 20
5349.0488038339
 10
6595.9012486973
 20
5349.0237272646
 10
6595.0829203744
 20
5348.9489346074
 10
6583.8613640208
 20
5348.6563045499
 10
6571.3240698472
 20
5348.263371078
  0
LWPOLYLINE
  5
47C
330
1F
100
AcDbEntity
  8
0
  6
Continuous
 62
     7
100
AcDbPolyline
 90
        5
 70
   128
 43
0.0
 10
6595.9434509277
 20
5347.4613039695
 10
6595.9012486967
 20
5347.4362274842
 10
6595.0829203815
 20
5347.3614338706
 10
6583.8613640254
 20
5347.0688044707
 10
6571.3240698472
 20
5346.6758712136
  0
LWPOLYLINE
  5
47D
330
1F
100
AcDbEntity
  8
0
  6
Continuous
 62
     7
100
AcDbPolyline
 90
        5
 70
   128
 43
0.0
 10
6595.9434509277
 20
5345.8738041051
 10
6595.9012486966
 20
5345.8487276204
 10
6595.0829203806
 20
5345.7739340052
 10
6583.8613640139
 20
5345.4813047166
 10
6571.3240698472
 20
5345.0883704178
  0
LWPOLYLINE
  5
47E
330
1F
100
AcDbEntity
  8
0
  6
Continuous
 62
     7
100
AcDbPolyline
 90
        9
 70
   128
 43
0.0
 10
6582.8971862793
 20
5220.4693237347
 10
6575.1125511122
 20
5217.2406065356
 10
6570.8998970285
 20
5209.9425619106
 10
6572.0424156903
 20
5201.5965671592
 10
6578.0892829688
 20
5195.7357419205
 10
6586.4662306753
 20
5194.9014051403
 10
6593.519862097
 20
5199.492046958
 10
6596.1002319679
 20
5207.4997999708
 10
6593.0102214709
 20
5215.3217757993
  0
LWPOLYLINE
  5
47F
330
1F
100
AcDbEntity
  8
0
  6
Continuous
 62
     7
100
AcDbPolyline
 90
        3
 70
   128
 43
0.0
 10
6584.5680236816
 20
5219.5948104315
 10
6593.6459414524
 20
5215.3216633945
 10
6596.8318887547
 20
5208.0025042348
  0
LWPOLYLINE
  5
480
330
1F
100
AcDbEntity
  8
0
  6
Continuous
 62
     7
100
AcDbPolyline
 90
        3
 70
   128
 43
0.0
 10
6593.0099487305
 20
5215.3217757993
 10
6588.6940236591
 20
5218.5518141882
 10
6584.5692817613
 20
5219.5948104315
  0
ARC
  5
481
330
1F
100
AcDbEntity
  8
0
  6
Continuous
 62
     7
100
AcDbCircle
 10
6583.6483101638
 20
5207.2238761155
 30
0.0
 40
13.20312954302334
100
AcDbArc
 50
112.266911316
 51
3.38086544
  0
LWPOLYLINE
  5
482
330
1F
100
AcDbEntity
  8
0
  6
Continuous
 62
     7
100
AcDbPolyline
 90
        3
 70
   128
 43
0.0
 10
6584.5680236816
 20
5219.5948104315
 10
6590.0682413032
 20
5217.8236423855
 10
6593.4072368339
 20
5214.7403324895
  0
LWPOLYLINE
  5
483
330
1F
100
AcDbEntity
  8
0
  6
Continuous
 62
     7
100
AcDbPolyline
 90
        3
 70
   128
 43
0.0
 10
6634.6282958984
 20
5175.2691830449
 10
6633.9055826264
 20
5175.2747760042
 10
6632.6317473203
 20
5175.2791817241
  0
LWPOLYLINE
  5
484
330
1F
100
AcDbEntity
  8
0
  6
Continuous
 62
     7
100
AcDbPolyline
 90
        3
 70
   128
 43
0.0
 10
6632.6293945312
 20
5332.2591774088
 10
6634.1746691584
 20
5332.2647774737
 10
6634.6317384988
 20
5332.2691772521
  0
LWPOLYLINE
  5
485
330
1F
100
AcDbEntity
  8
0
  6
Continuous
 62
     7
100
AcDbPolyline
 90
        3
 70
   128
 43
0.0
 10
6295.2156066895
 20
4850.090548766
 10
6298.1692226412
 20
4850.7845382585
 10
6300.1180203751
 20
4851.8886793378
  0
LWPOLYLINE
  5
486
330
1F
100
AcDbEntity
  8
0
  6
Continuous
 62
     7
100
AcDbPolyline
 90
        3
 70
   128
 43
0.0
 10
6295.2156066895
 20
4850.0222790959
 10
6298.2922782995
 20
4850.5891145494
 10
6300.3630699709
 20
4851.8886793378
  0
LWPOLYLINE
  5
487
330
1F
100
AcDbEntity
  8
0
  6
Continuous
 62
     7
100
AcDbPolyline
 90
        3
 70
   128
 43
0.0
 10
6369.5983886719
 20
4914.1018543366
 10
6369.3208891163
 20
4913.6203803575
 10
6369.1023444876
 20
4913.2420815501
  0
LWPOLYLINE
  5
488
330
1F
100
AcDbEntity
  8
0
  6
Continuous
 62
     7
100
AcDbPolyline
 90
        3
 70
   128
 43
0.0
 10
6368.0114746094
 20
4914.1018543366
 10
6367.7333893529
 20
4913.6203797611
 10
6367.5148436919
 20
4913.2420815501
  0
LWPOLYLINE
  5
489
330
1F
100
AcDbEntity
  8
0
  6
Continuous
 62
     7
100
AcDbPolyline
 90
        3
 70
   128
 43
0.0
 10
6366.4207458496
 20
4914.1018543366
 10
6366.145889124
 20
4913.6203802084
 10
6365.9273438275
 20
4913.2420815501
  0
LWPOLYLINE
  5
48A
330
1F
100
AcDbEntity
  8
0
  6
Continuous
 62
     7
100
AcDbPolyline
 90
        3
 70
   128
 43
0.0
 10
6364.8338317871
 20
4914.1018543366
 10
6364.5583892596
 20
4913.6203802084
 10
6364.3398439631
 20
4913.2420815501
  0
LWPOLYLINE
  5
48B
330
1F
100
AcDbEntity
  8
0
  6
Continuous
 62
     7
100
AcDbPolyline
 90
        3
 70
   128
 43
0.0
 10
6363.2469177246
 20
4914.1018543366
 10
6362.9708892435
 20
4913.6203800593
 10
6362.7523440987
 20
4913.2420815501
  0
LWPOLYLINE
  5
48C
330
1F
100
AcDbEntity
  8
0
  6
Continuous
 62
     7
100
AcDbPolyline
 90
        3
 70
   128
 43
0.0
 10
6368.3052062988
 20
4888.5352801505
 10
6368.586742725
 20
4888.0538083805
 10
6368.8052823886
 20
4887.6755055013
  0
LWPOLYLINE
  5
48D
330
1F
100
AcDbEntity
  8
0
  6
Continuous
 62
     7
100
AcDbPolyline
 90
        3
 70
   128
 43
0.0
 10
6366.7182922363
 20
4888.5352801505
 10
6366.9992422327
 20
4888.0538080823
 10
6367.2177815929
 20
4887.6755055013
  0
LWPOLYLINE
  5
48E
330
1F
100
AcDbEntity
  8
0
  6
Continuous
 62
     7
100
AcDbPolyline
 90
        3
 70
   128
 43
0.0
 10
6365.1313781738
 20
4888.5352801505
 10
6365.4117427327
 20
4888.0538085296
 10
6365.6302817285
 20
4887.6755055013
  0
LWPOLYLINE
  5
48F
330
1F
100
AcDbEntity
  8
0
  6
Continuous
 62
     7
100
AcDbPolyline
 90
        3
 70
   128
 43
0.0
 10
6363.5444641113
 20
4888.5352801505
 10
6363.8242428683
 20
4888.0538085296
 10
6364.0427818641
 20
4887.6755055013
  0
LWPOLYLINE
  5
490
330
1F
100
AcDbEntity
  8
0
  6
Continuous
 62
     7
100
AcDbPolyline
 90
        3
 70
   128
 43
0.0
 10
6369.8959350586
 20
4888.5352801505
 10
6370.0923484634
 20
4888.1955711058
 10
6370.2465431884
 20
4887.9286538783
  0
LWPOLYLINE
  5
491
330
1F
100
AcDbEntity
  8
0
  6
Continuous
 62
     7
100
AcDbPolyline
 90
        3
 70
   128
 43
0.0
 10
6368.9193725586
 20
4913.2420591983
 10
6368.6440738296
 20
4913.7235346622
 10
6368.4255300209
 20
4914.1018394354
  0
LWPOLYLINE
  5
492
330
1F
100
AcDbEntity
  8
0
  6
Continuous
 62
     7
100
AcDbPolyline
 90
        3
 70
   128
 43
0.0
 10
6367.3324584961
 20
4913.2420591983
 10
6367.0565730339
 20
4913.7235346622
 10
6366.8380292252
 20
4914.1018394354
  0
LWPOLYLINE
  5
493
330
1F
100
AcDbEntity
  8
0
  6
Continuous
 62
     7
100
AcDbPolyline
 90
        3
 70
   128
 43
0.0
 10
6365.7455444336
 20
4913.2420591983
 10
6365.4690731695
 20
4913.7235346622
 10
6365.2505293608
 20
4914.1018394354
  0
LWPOLYLINE
  5
494
330
1F
100
AcDbEntity
  8
0
  6
Continuous
 62
     7
100
AcDbPolyline
 90
        3
 70
   128
 43
0.0
 10
6364.1586303711
 20
4913.2420591983
 10
6363.8815733051
 20
4913.7235346622
 10
6363.6630294964
 20
4914.1018394354
  0
LWPOLYLINE
  5
495
330
1F
100
AcDbEntity
  8
0
  6
Continuous
 62
     7
100
AcDbPolyline
 90
        3
 70
   128
 43
0.0
 10
6367.6300048828
 20
4887.6755241278
 10
6367.9099275201
 20
4888.1570012617
 10
6368.1284772351
 20
4888.5353025022
  0
LWPOLYLINE
  5
496
330
1F
100
AcDbEntity
  8
0
  6
Continuous
 62
     7
100
AcDbPolyline
 90
        3
 70
   128
 43
0.0
 10
6366.0430908203
 20
4887.6755241278
 10
6366.3224279084
 20
4888.1570008144
 10
6366.5409764394
 20
4888.5353025022
  0
LWPOLYLINE
  5
497
330
1F
100
AcDbEntity
  8
0
  6
Continuous
 62
     7
100
AcDbPolyline
 90
        3
 70
   128
 43
0.0
 10
6364.4561767578
 20
4887.6755241278
 10
6364.734928044
 20
4888.1570008144
 10
6364.953476575
 20
4888.5353025022
  0
LWPOLYLINE
  5
498
330
1F
100
AcDbEntity
  8
0
  6
Continuous
 62
     7
100
AcDbPolyline
 90
        3
 70
   128
 43
0.0
 10
6362.8692626953
 20
4887.6755241278
 10
6363.1474276634
 20
4888.1570011126
 10
6363.3659767106
 20
4888.5353025022
  0
LWPOLYLINE
  5
499
330
1F
100
AcDbEntity
  8
0
  6
Continuous
 62
     7
100
AcDbPolyline
 90
        3
 70
   128
 43
0.0
 10
6369.2169189453
 20
4887.6755241278
 10
6369.4974277889
 20
4888.1570009635
 10
6369.7159761682
 20
4888.5353025022
  0
LWPOLYLINE
  5
49A
330
1F
100
AcDbEntity
  8
0
  6
Continuous
 62
     7
100
AcDbPolyline
 90
        3
 70
   128
 43
0.0
 10
6370.5062866211
 20
4913.2420591983
 10
6370.2315727627
 20
4913.7235346622
 10
6370.013028954
 20
4914.1018394354
  0
LWPOLYLINE
  5
49B
330
1F
100
AcDbEntity
  8
0
  6
Continuous
 62
     7
100
AcDbPolyline
 90
        3
 70
   128
 43
0.0
 10
6178.4362792969
 20
4887.6755055013
 10
6178.7166236619
 20
4888.1569813384
 10
6178.9351688817
 20
4888.5352801505
  0
LWPOLYLINE
  5
49C
330
1F
100
AcDbEntity
  8
0
  6
Continuous
 62
     7
100
AcDbPolyline
 90
        3
 70
   128
 43
0.0
 10
6180.0231933594
 20
4887.6755055013
 10
6180.3041188697
 20
4888.1569813384
 10
6180.5226640895
 20
4888.5352801505
  0
LWPOLYLINE
  5
49D
330
1F
100
AcDbEntity
  8
0
  6
Continuous
 62
     7
100
AcDbPolyline
 90
        3
 70
   128
 43
0.0
 10
6181.6101074219
 20
4887.6755055013
 10
6181.8916157833
 20
4888.1569851593
 10
6182.1101741984
 20
4888.5352801505
  0
LWPOLYLINE
  5
49E
330
1F
100
AcDbEntity
  8
0
  6
Continuous
 62
     7
100
AcDbPolyline
 90
        3
 70
   128
 43
0.0
 10
6183.2008361816
 20
4887.6755055013
 10
6183.4791241864
 20
4888.1569813384
 10
6183.6976694062
 20
4888.5352801505
  0
LWPOLYLINE
  5
49F
330
1F
100
AcDbEntity
  8
0
  6
Continuous
 62
     7
100
AcDbPolyline
 90
        3
 70
   128
 43
0.0
 10
6184.7877502441
 20
4887.6755055013
 10
6185.0666193942
 20
4888.1569813384
 10
6185.285164614
 20
4888.5352801505
  0
LWPOLYLINE
  5
4A0
330
1F
100
AcDbEntity
  8
0
  6
Continuous
 62
     7
100
AcDbPolyline
 90
        3
 70
   128
 43
0.0
 10
6179.7256469727
 20
4913.2420815501
 10
6179.4507626574
 20
4913.7235491407
 10
6179.2322235301
 20
4914.1018543366
  0
LWPOLYLINE
  5
4A1
330
1F
100
AcDbEntity
  8
0
  6
Continuous
 62
     7
100
AcDbPolyline
 90
        3
 70
   128
 43
0.0
 10
6181.3163757324
 20
4913.2420815501
 10
6181.0382725581
 20
4913.7235527937
 10
6180.8197336391
 20
4914.1018543366
  0
LWPOLYLINE
  5
4A2
330
1F
100
AcDbEntity
  8
0
  6
Continuous
 62
     7
100
AcDbPolyline
 90
        3
 70
   128
 43
0.0
 10
6182.9032897949
 20
4913.2420815501
 10
6182.6257677659
 20
4913.7235527937
 10
6182.4072288468
 20
4914.1018543366
  0
LWPOLYLINE
  5
4A3
330
1F
100
AcDbEntity
  8
0
  6
Continuous
 62
     7
100
AcDbPolyline
 90
        3
 70
   128
 43
0.0
 10
6184.4902038574
 20
4913.2420815501
 10
6184.2132629737
 20
4913.7235527937
 10
6183.9947240546
 20
4914.1018543366
  0
LWPOLYLINE
  5
4A4
330
1F
100
AcDbEntity
  8
0
  6
Continuous
 62
     7
100
AcDbPolyline
 90
        3
 70
   128
 43
0.0
 10
6178.1387329102
 20
4913.2420815501
 10
6177.945161608
 20
4913.5817907124
 10
6177.7909683183
 20
4913.8487078223
  0
LWPOLYLINE
  5
4A5
330
1F
100
AcDbEntity
  8
0
  6
Continuous
 62
     7
100
AcDbPolyline
 90
        3
 70
   128
 43
0.0
 10
6179.1114807129
 20
4888.5353025022
 10
6179.39343741
 20
4888.0538299502
 10
6179.6119796231
 20
4887.6755241278
  0
LWPOLYLINE
  5
4A6
330
1F
100
AcDbEntity
  8
0
  6
Continuous
 62
     7
100
AcDbPolyline
 90
        3
 70
   128
 43
0.0
 10
6180.7022094727
 20
4888.5353025022
 10
6180.980935045
 20
4888.0538275646
 10
6181.1994748309
 20
4887.6755241278
  0
LWPOLYLINE
  5
4A7
330
1F
100
AcDbEntity
  8
0
  6
Continuous
 62
     7
100
AcDbPolyline
 90
        3
 70
   128
 43
0.0
 10
6182.2891235352
 20
4888.5353025022
 10
6182.5684344681
 20
4888.0538251791
 10
6182.7869849399
 20
4887.6755241278
  0
LWPOLYLINE
  5
4A8
330
1F
100
AcDbEntity
  8
0
  6
Continuous
 62
     7
100
AcDbPolyline
 90
        3
 70
   128
 43
0.0
 10
6183.8760375977
 20
4888.5353025022
 10
6184.1559379346
 20
4888.0538299502
 10
6184.3744801477
 20
4887.6755241278
  0
LWPOLYLINE
  5
4A9
330
1F
100
AcDbEntity
  8
0
  6
Continuous
 62
     7
100
AcDbPolyline
 90
        3
 70
   128
 43
0.0
 10
6180.4046630859
 20
4914.1018394354
 10
6180.1275810552
 20
4913.6203634253
 10
6179.9090342715
 20
4913.2420591983
  0
LWPOLYLINE
  5
4AA
330
1F
100
AcDbEntity
  8
0
  6
Continuous
 62
     7
100
AcDbPolyline
 90
        3
 70
   128
 43
0.0
 10
6181.9915771484
 20
4914.1018394354
 10
6181.7150867507
 20
4913.6203574045
 10
6181.4965294793
 20
4913.2420591983
  0
LWPOLYLINE
  5
4AB
330
1F
100
AcDbEntity
  8
0
  6
Continuous
 62
     7
100
AcDbPolyline
 90
        3
 70
   128
 43
0.0
 10
6183.5784912109
 20
4914.1018394354
 10
6183.3025839447
 20
4913.6203610399
 10
6183.0840395883
 20
4913.2420591983
  0
LWPOLYLINE
  5
4AC
330
1F
100
AcDbEntity
  8
0
  6
Continuous
 62
     7
100
AcDbPolyline
 90
        3
 70
   128
 43
0.0
 10
6185.1654052734
 20
4914.1018394354
 10
6184.8900815797
 20
4913.6203634253
 10
6184.6715347961
 20
4913.2420591983
  0
LWPOLYLINE
  5
4AD
330
1F
100
AcDbEntity
  8
0
  6
Continuous
 62
     7
100
AcDbPolyline
 90
        3
 70
   128
 43
0.0
 10
6178.8177490234
 20
4914.1018394354
 10
6178.5400834202
 20
4913.6203610399
 10
6178.3215390637
 20
4913.2420591983
  0
LWPOLYLINE
  5
4AE
330
1F
100
AcDbEntity
  8
0
  6
Continuous
 62
     7
100
AcDbPolyline
 90
        3
 70
   128
 43
0.0
 10
6177.5245666504
 20
4888.5353025022
 10
6177.8059339436
 20
4888.0538251791
 10
6178.0244844153
 20
4887.6755241278
  0
LINE
  5
4AF
330
1F
100
AcDbEntity
  8
0
  6
Continuous
 62
     7
100
AcDbLine
 10
6329.8301696777
 20
4839.8636806729
 30
0.0
 11
6330.5356266096
 21
4839.8636806729
 31
0.0
  0
LINE
  5
4B0
330
1F
100
AcDbEntity
  8
0
  6
Continuous
 62
     7
100
AcDbLine
 10
6333.5838317871
 20
4839.8636806729
 30
0.0
 11
6333.4132159248
 21
4839.8636806729
 31
0.0
  0
LINE
  5
4B1
330
1F
100
AcDbEntity
  8
0
  6
Continuous
 62
     7
100
AcDbLine
 10
6333.6410522461
 20
4839.8636806729
 30
0.0
 11
6333.5841471448
 21
4839.8636806729
 31
0.0
  0
LWPOLYLINE
  5
4B2
330
1F
100
AcDbEntity
  8
0
  6
Continuous
 62
     7
100
AcDbPolyline
 90
        9
 70
   128
 43
0.0
 10
6370.0180053711
 20
4900.155360249
 10
6370.2012784692
 20
4888.7863938449
 10
6370.2458081982
 20
4887.9281826896
 10
6370.2522964096
 20
4887.8965482467
 10
6370.2533853383
 20
4887.8951385119
 10
6370.2539305952
 20
4887.8948878414
 10
6370.2544763772
 20
4887.8949471404
 10
6370.2573959887
 20
4887.900720489
 10
6370.2613102391
 20
4887.9229392829
  0
LWPOLYLINE
  5
4B3
330
1F
100
AcDbEntity
  8
0
  6
Continuous
 62
     7
100
AcDbPolyline
 90
        8
 70
   128
 43
0.0
 10
6370.7618713379
 20
4913.3227433982
 10
6370.7681723945
 20
4913.3297075289
 10
6370.7699610249
 20
4913.3319164535
 10
6370.7717518678
 20
4913.3325976094
 10
6370.7744438939
 20
4913.3296407786
 10
6370.7771445764
 20
4913.3206427036
 10
6370.7934754477
 20
4913.1513717927
 10
6370.8780152842
 20
4910.2671615753
  0
LWPOLYLINE
  5
4B4
330
1F
100
AcDbEntity
  8
0
  6
Continuous
 62
     7
100
AcDbPolyline
 90
        3
 70
   128
 43
0.0
 10
6370.8763122559
 20
4901.8262200031
 10
6370.3891565134
 20
4910.902902015
 10
6370.0187547252
 20
4914.0888269964
  0
LWPOLYLINE
  5
4B5
330
1F
100
AcDbEntity
  8
0
  6
Continuous
 62
     7
100
AcDbPolyline
 90
        3
 70
   128
 43
0.0
 10
6370.8763122559
 20
4910.2671615753
 10
6370.8780152842
 20
4905.9509624761
 10
6370.8780152842
 20
4901.8262200031
  0
LWPOLYLINE
  5
4B6
330
1F
100
AcDbEntity
  8
0
  6
Continuous
 62
     7
100
AcDbPolyline
 90
       14
 70
   128
 43
0.0
 10
6369.2092895508
 20
4887.6924890998
 10
6369.2000427704
 20
4887.6549555585
 10
6369.1982791581
 20
4887.6537098576
 10
6369.1965197165
 20
4887.653883101
 10
6369.1918473367
 20
4887.6609880641
 10
6369.1856582973
 20
4887.6844621552
 10
6369.1130244848
 20
4888.6822873325
 10
6368.8137957173
 20
4900.8901321936
 10
6368.5177828178
 20
4913.1000826431
 10
6368.4422492342
 20
4914.0577965687
 10
6368.4295892994
 20
4914.0903794313
 10
6368.4264392094
 20
4914.0913043052
 10
6368.4232936928
 20
4914.0901717776
 10
6368.417010282
 20
4914.08447772
  0
LWPOLYLINE
  5
4B7
330
1F
100
AcDbEntity
  8
0
  6
Continuous
 62
     7
100
AcDbPolyline
 90
       14
 70
   128
 43
0.0
 10
6367.6223754883
 20
4887.6924890998
 10
6367.6125420529
 20
4887.6549555589
 10
6367.6107784811
 20
4887.6537098582
 10
6367.6090190866
 20
4887.6538831019
 10
6367.6043468615
 20
4887.6609880658
 10
6367.598158078
 20
4887.6844621582
 10
6367.5255243053
 20
4888.6822873335
 10
6367.2262949692
 20
4900.890132176
 10
6366.9302833462
 20
4913.1000826396
 10
6366.8547476709
 20
4914.0577965658
 10
6366.8420886811
 20
4914.0903794307
 10
6366.8389389652
 20
4914.0913043049
 10
6366.8357938632
 20
4914.0901717775
 10
6366.8295113489
 20
4914.08447772
  0
LWPOLYLINE
  5
4B8
330
1F
100
AcDbEntity
  8
0
  6
Continuous
 62
     7
100
AcDbPolyline
 90
       14
 70
   128
 43
0.0
 10
6366.0354614258
 20
4887.6924890998
 10
6366.0250439578
 20
4887.6549555562
 10
6366.0232805451
 20
4887.6537098551
 10
6366.0215212738
 20
4887.6538830984
 10
6366.0168492154
 20
4887.6609880616
 10
6366.0106603421
 20
4887.6844621532
 10
6365.9380244466
 20
4888.6822873385
 10
6365.6387960345
 20
4900.890132203
 10
6365.3427828215
 20
4913.1000826414
 10
6365.2672481902
 20
4914.0577965673
 10
6365.254588728
 20
4914.090379431
 10
6365.2514388251
 20
4914.091304305
 10
6365.2482935158
 20
4914.0901717775
 10
6365.2420105532
 20
4914.08447772
  0
LWPOLYLINE
  5
4B9
330
1F
100
AcDbEntity
  8
0
  6
Continuous
 62
     7
100
AcDbPolyline
 90
       14
 70
   128
 43
0.0
 10
6364.444732666
 20
4887.6924890998
 10
6364.4375441036
 20
4887.6549555563
 10
6364.4357806959
 20
4887.6537098552
 10
6364.4340214303
 20
4887.6538830986
 10
6364.4293493896
 20
4887.6609880619
 10
6364.4231605424
 20
4887.6844621537
 10
6364.3505238045
 20
4888.6822873322
 10
6364.0512961455
 20
4900.8901322032
 10
6363.7552829547
 20
4913.1000826414
 10
6363.6797483259
 20
4914.0577965673
 10
6363.6670888636
 20
4914.090379431
 10
6363.6639389606
 20
4914.091304305
 10
6363.6607936513
 20
4914.0901717775
 10
6363.6545106888
 20
4914.08447772
  0
LWPOLYLINE
  5
4BA
330
1F
100
AcDbEntity
  8
0
  6
Continuous
 62
     7
100
AcDbPolyline
 90
        8
 70
   128
 43
0.0
 10
6362.8578186035
 20
4887.6924890998
 10
6362.8545431142
 20
4887.6647671458
 10
6362.8484228871
 20
4887.6537578298
 10
6362.8463941871
 20
4887.6539484549
 10
6362.844370863
 20
4887.6559704821
 10
6362.8390001923
 20
4887.6698652727
 10
6362.7761260551
 20
4888.435774858
 10
6362.5187553585
 20
4898.1023881558
  0
LWPOLYLINE
  5
4BB
330
1F
100
AcDbEntity
  8
0
  6
Continuous
 62
     7
100
AcDbPolyline
 90
        7
 70
   128
 43
0.0
 10
6370.0180053711
 20
4900.155360249
 10
6369.7056355867
 20
4913.1516875845
 10
6369.6255938107
 20
4914.1010459503
 10
6369.6222600023
 20
4914.1057621386
 10
6369.6205971023
 20
4914.1065655015
 10
6369.6189370934
 20
4914.1063036382
 10
6369.5992181197
 20
4914.0348233256
  0
LWPOLYLINE
  5
4BC
330
1F
100
AcDbEntity
  8
0
  6
Continuous
 62
     7
100
AcDbPolyline
 90
       13
 70
   128
 43
0.0
 10
6368.8049316406
 20
4887.7569068196
 10
6368.7929934646
 20
4887.759993976
 10
6368.7806410053
 20
4887.7878074119
 10
6368.7090240986
 20
4888.8339890598
 10
6368.4126491782
 20
4901.110380584
 10
6368.1199294621
 20
4913.114718362
 10
6368.0450383744
 20
4914.0879914978
 10
6368.0387745125
 20
4914.1070835182
 10
6368.0364348615
 20
4914.1102702272
 10
6368.0341010781
 20
4914.1111703241
 10
6368.0306125245
 20
4914.1080648402
 10
6368.0271400099
 20
4914.0993946204
 10
6368.0202314749
 20
4914.0698615435
  0
LWPOLYLINE
  5
4BD
330
1F
100
AcDbEntity
  8
0
  6
Continuous
 62
     7
100
AcDbPolyline
 90
       13
 70
   128
 43
0.0
 10
6367.2142028809
 20
4887.7569068196
 10
6367.2054925998
 20
4887.7599939756
 10
6367.1931401779
 20
4887.7878074117
 10
6367.1215255242
 20
4888.8339890769
 10
6366.8251508061
 20
4901.1103806302
 10
6366.5324288846
 20
4913.1147183654
 10
6366.4575394704
 20
4914.0879914976
 10
6366.4512754077
 20
4914.1070835174
 10
6366.448935638
 20
4914.1102702264
 10
6366.4466017099
 20
4914.1111703231
 10
6366.443112887
 20
4914.1080648392
 10
6366.4396400361
 20
4914.0993946194
 10
6366.4327306792
 20
4914.0698615435
  0
LWPOLYLINE
  5
4BE
330
1F
100
AcDbEntity
  8
0
  6
Continuous
 62
     7
100
AcDbPolyline
 90
       13
 70
   128
 43
0.0
 10
6365.6272888184
 20
4887.7569068196
 10
6365.617993216
 20
4887.7599939753
 10
6365.6056403894
 20
4887.7878074104
 10
6365.534024526
 20
4888.8339890607
 10
6365.2376497389
 20
4901.1103805981
 10
6364.9449289885
 20
4913.1147183641
 10
6364.8700396096
 20
4914.0879914976
 10
6364.8637755452
 20
4914.1070835175
 10
6364.8614357749
 20
4914.1102702264
 10
6364.8591018463
 20
4914.1111703232
 10
6364.8556130228
 20
4914.1080648392
 10
6364.8521401717
 20
4914.0993946194
 10
6364.8452308148
 20
4914.0698615435
  0
LWPOLYLINE
  5
4BF
330
1F
100
AcDbEntity
  8
0
  6
Continuous
 62
     7
100
AcDbPolyline
 90
       13
 70
   128
 43
0.0
 10
6364.0403747559
 20
4887.7569068196
 10
6364.0304933518
 20
4887.7599939753
 10
6364.0181405251
 20
4887.7878074104
 10
6363.9465246666
 20
4888.8339890608
 10
6363.6501498664
 20
4901.1103805984
 10
6363.3574291241
 20
4913.1147183641
 10
6363.2825397452
 20
4914.0879914976
 10
6363.2762756808
 20
4914.1070835175
 10
6363.2739359105
 20
4914.1102702264
 10
6363.2716019819
 20
4914.1111703232
 10
6363.2681131584
 20
4914.1080648392
 10
6363.2646403073
 20
4914.0993946194
 10
6363.2577309504
 20
4914.0698615435
  0
LWPOLYLINE
  5
4C0
330
1F
100
AcDbEntity
  8
0
  6
Continuous
 62
     7
100
AcDbPolyline
 90
        5
 70
   128
 43
0.0
 10
6369.8959350586
 20
4888.5560039404
 10
6369.5035861666
 20
4901.1189265399
 10
6369.2108538852
 20
4912.3372498597
 10
6369.1360785455
 20
4913.1627570899
 10
6369.1110616669
 20
4913.1863381687
  0
LWPOLYLINE
  5
4C1
330
1F
100
AcDbEntity
  8
0
  6
Continuous
 62
     7
100
AcDbPolyline
 90
        5
 70
   128
 43
0.0
 10
6368.3052062988
 20
4888.5560039404
 10
6367.9160852357
 20
4901.1189264982
 10
6367.6233531555
 20
4912.3372498455
 10
6367.5485783499
 20
4913.1627570882
 10
6367.5235627338
 20
4913.1863381687
  0
LWPOLYLINE
  5
4C2
330
1F
100
AcDbEntity
  8
0
  6
Continuous
 62
     7
100
AcDbPolyline
 90
        5
 70
   128
 43
0.0
 10
6366.7182922363
 20
4888.5560039404
 10
6366.3285854716
 20
4901.1189265199
 10
6366.0358541853
 20
4912.3372498598
 10
6365.9610780925
 20
4913.1627570883
 10
6365.9360619381
 20
4913.1863381687
  0
LWPOLYLINE
  5
4C3
330
1F
100
AcDbEntity
  8
0
  6
Continuous
 62
     7
100
AcDbPolyline
 90
        5
 70
   128
 43
0.0
 10
6365.1313781738
 20
4888.5560039404
 10
6364.741085677
 20
4901.1189265209
 10
6364.4483533938
 20
4912.3372498526
 10
6364.3735783211
 20
4913.1627570891
 10
6364.3485620737
 20
4913.1863381687
  0
LWPOLYLINE
  5
4C4
330
1F
100
AcDbEntity
  8
0
  6
Continuous
 62
     7
100
AcDbPolyline
 90
        5
 70
   128
 43
0.0
 10
6363.5444641113
 20
4888.5560039404
 10
6363.1535858126
 20
4901.1189265209
 10
6362.8608535294
 20
4912.3372498526
 10
6362.7860784567
 20
4913.1627570891
 10
6362.7610622093
 20
4913.1863381687
  0
ARC
  5
4C5
330
1F
100
AcDbEntity
  8
0
  6
Continuous
 62
     7
100
AcDbCircle
 10
6330.0378835023
 20
4906.182067291
 30
0.0
 40
41.07007022949664
100
AcDbArc
 50
353.9118211149
 51
9.7904424335
  0
LWPOLYLINE
  5
4C6
330
1F
100
AcDbEntity
  8
0
  6
Continuous
 62
     7
100
AcDbPolyline
 90
       12
 70
   128
 43
0.0
 10
6369.7052001953
 20
4888.5478902581
 10
6369.7000330268
 20
4888.5223489995
 10
6369.6969208677
 20
4888.5157081724
 10
6369.6938222001
 20
4888.5133602264
 10
6369.6907363583
 20
4888.5151061751
 10
6369.6876626762
 20
4888.5207470318
 10
6369.6815491275
 20
4888.5429175232
 10
6369.6097916071
 20
4889.4632310219
 10
6369.3142079978
 20
4900.6826140093
 10
6369.0215643705
 20
4912.1534531022
 10
6368.9473120452
 20
4913.1270397276
 10
6368.9223216966
 20
4913.1658323082
  0
LWPOLYLINE
  5
4C7
330
1F
100
AcDbEntity
  8
0
  6
Continuous
 62
     7
100
AcDbPolyline
 90
       12
 70
   128
 43
0.0
 10
6368.1182861328
 20
4888.5478902581
 10
6368.1125340939
 20
4888.5223489995
 10
6368.1094219354
 20
4888.5157081724
 10
6368.1063232688
 20
4888.5133602265
 10
6368.103237428
 20
4888.5151061752
 10
6368.1001637472
 20
4888.5207470319
 10
6368.0940502011
 20
4888.5429175234
 10
6368.0222926275
 20
4889.463231023
 10
6367.7267090609
 20
4900.6826140278
 10
6367.4340632565
 20
4912.1534530986
 10
6367.3598129168
 20
4913.1270397311
 10
6367.3348209009
 20
4913.1658323082
  0
LWPOLYLINE
  5
4C8
330
1F
100
AcDbEntity
  8
0
  6
Continuous
 62
     7
100
AcDbPolyline
 90
       12
 70
   128
 43
0.0
 10
6366.527557373
 20
4888.5478902581
 10
6366.5250333056
 20
4888.5223489996
 10
6366.5219211689
 20
4888.5157081726
 10
6366.5188225355
 20
4888.5133602268
 10
6366.5157367382
 20
4888.5151061757
 10
6366.5126631093
 20
4888.5207470328
 10
6366.5065496866
 20
4888.5429175249
 10
6366.4347922199
 20
4889.4632310246
 10
6366.139208269
 20
4900.6826140186
 10
6365.8465637008
 20
4912.153453102
 10
6365.7723122277
 20
4913.1270397294
 10
6365.7473210365
 20
4913.1658323082
  0
LWPOLYLINE
  5
4C9
330
1F
100
AcDbEntity
  8
0
  6
Continuous
 62
     7
100
AcDbPolyline
 90
       12
 70
   128
 43
0.0
 10
6364.9406433105
 20
4888.5478902581
 10
6364.9375334335
 20
4888.5223489995
 10
6364.9344212743
 20
4888.5157081724
 10
6364.9313226066
 20
4888.5133602264
 10
6364.9282367646
 20
4888.5151061751
 10
6364.9251630822
 20
4888.5207470318
 10
6364.919049533
 20
4888.5429175232
 10
6364.8472920227
 20
4889.4632310229
 10
6364.5517084047
 20
4900.6826140185
 10
6364.2590638364
 20
4912.153453102
 10
6364.1848123633
 20
4913.1270397294
 10
6364.1598211721
 20
4913.1658323082
  0
LWPOLYLINE
  5
4CA
330
1F
100
AcDbEntity
  8
0
  6
Continuous
 62
     7
100
AcDbPolyline
 90
       12
 70
   128
 43
0.0
 10
6363.353729248
 20
4888.5478902581
 10
6363.349958142
 20
4888.5221362016
 10
6363.3468087737
 20
4888.5155491634
 10
6363.3436732007
 20
4888.5133520569
 10
6363.3405507325
 20
4888.5153385898
 10
6363.3374406787
 20
4888.5213024696
 10
6363.3312550527
 20
4888.5443370997
 10
6363.2586291851
 20
4889.4848707323
 10
6362.9593769013
 20
4900.9142599948
 10
6362.6634502394
 20
4912.3173870883
 10
6362.587924391
 20
4913.1620547093
 10
6362.5626457974
 20
4913.1862916025
  0
LWPOLYLINE
  5
4CB
330
1F
100
AcDbEntity
  8
0
  6
Continuous
 62
     7
100
AcDbPolyline
 90
        9
 70
   128
 43
0.0
 10
6266.7808532715
 20
4911.9536826647
 10
6261.653898026
 20
4905.264983949
 10
6261.6545725324
 20
4896.8374316663
 10
6266.8178860829
 20
4890.1805068611
 10
6274.9857007193
 20
4888.1283029894
 10
6282.658100051
 20
4891.5944580028
 10
6286.4716411077
 20
4899.0974161531
 10
6284.7023962701
 20
4907.3231661778
 10
6278.1144591168
 20
4912.5516772243
  0
LWPOLYLINE
  5
4CC
330
1F
100
AcDbEntity
  8
0
  6
Continuous
 62
     7
100
AcDbPolyline
 90
        3
 70
   128
 43
0.0
 10
6268.6653137207
 20
4912.0317645344
 10
6278.6649772996
 20
4912.8696369394
 10
6285.0837545589
 20
4908.1238269779
  0
LWPOLYLINE
  5
4CD
330
1F
100
AcDbEntity
  8
0
  6
Continuous
 62
     7
100
AcDbPolyline
 90
        3
 70
   128
 43
0.0
 10
6278.1143188477
 20
4912.5516772243
 10
6272.7615008042
 20
4913.1908699549
 10
6268.6678679779
 20
4912.0317645344
  0
ARC
  5
4CE
330
1F
100
AcDbEntity
  8
0
  6
Continuous
 62
     7
100
AcDbCircle
 10
6274.0561693573
 20
4900.8576247173
 30
0.0
 40
13.20308935219157
100
AcDbArc
 50
142.2283811968
 51
33.3904146263
  0
LWPOLYLINE
  5
4CF
330
1F
100
AcDbEntity
  8
0
  6
Continuous
 62
     7
100
AcDbPolyline
 90
        3
 70
   128
 43
0.0
 10
6268.6653137207
 20
4912.0317645344
 10
6274.3156963098
 20
4913.2473665291
 10
6278.749010165
 20
4912.2466392788
  0
LWPOLYLINE
  5
4D0
330
1F
100
AcDbEntity
  8
0
  6
Continuous
 62
     7
100
AcDbPolyline
 90
        9
 70
   128
 43
0.0
 10
6178.0166625977
 20
4901.6220014515
 10
6177.8362250558
 20
4912.9909663347
 10
6177.7916811692
 20
4913.8491783335
 10
6177.7851931275
 20
4913.8808132386
 10
6177.7841053222
 20
4913.8822230308
 10
6177.7835607694
 20
4913.8824737272
 10
6177.7830157908
 20
4913.8824144522
 10
6177.7801022806
 20
4913.8766411954
 10
6177.7762012675
 20
4913.8544224176
  0
LWPOLYLINE
  5
4D1
330
1F
100
AcDbEntity
  8
0
  6
Continuous
 62
     7
100
AcDbPolyline
 90
        8
 70
   128
 43
0.0
 10
6177.2727966309
 20
4888.4546164396
 10
6177.2693379728
 20
4888.4476522587
 10
6177.2675479385
 20
4888.4454433224
 10
6177.2657558081
 20
4888.4447621709
 10
6177.2630621543
 20
4888.4477190502
 10
6177.2603603013
 20
4888.4567172361
 10
6177.2440297037
 20
4888.6259894525
 10
6177.1595018104
 20
4891.5102001253
  0
LWPOLYLINE
  5
4D2
330
1F
100
AcDbEntity
  8
0
  6
Continuous
 62
     7
100
AcDbPolyline
 90
        3
 70
   128
 43
0.0
 10
6177.1583557129
 20
4899.9511398348
 10
6177.6483499943
 20
4890.8744575466
 10
6178.0187623694
 20
4887.6885328415
  0
LWPOLYLINE
  5
4D3
330
1F
100
AcDbEntity
  8
0
  6
Continuous
 62
     7
100
AcDbPolyline
 90
        3
 70
   128
 43
0.0
 10
6177.1583557129
 20
4891.5102001253
 10
6177.1595018104
 20
4895.8263979371
 10
6177.1595018104
 20
4899.9511398348
  0
LWPOLYLINE
  5
4D4
330
1F
100
AcDbEntity
  8
0
  6
Continuous
 62
     7
100
AcDbPolyline
 90
        7
 70
   128
 43
0.0
 10
6178.0166625977
 20
4901.6220014515
 10
6178.3318755384
 20
4888.6256743337
 10
6178.4119214139
 20
4887.6763157409
 10
6178.4152547399
 20
4887.6715995547
 10
6178.4169173473
 20
4887.6707961928
 10
6178.4185770278
 20
4887.671058057
 10
6178.4382896617
 20
4887.742538375
  0
LWPOLYLINE
  5
4D5
330
1F
100
AcDbEntity
  8
0
  6
Continuous
 62
     7
100
AcDbPolyline
 90
       11
 70
   128
 43
0.0
 10
6179.2297363281
 20
4914.0204548809
 10
6179.2446573659
 20
4914.0172425699
 10
6179.2571391478
 20
4913.9884925776
 10
6179.3295470013
 20
4912.9203720569
 10
6179.6291549704
 20
4900.4448790179
 10
6179.9249787551
 20
4888.5200557218
 10
6180.0008468538
 20
4887.6737873394
 10
6180.0039982594
 20
4887.6708966873
 10
6180.0055702882
 20
4887.6708657599
 10
6180.0071396834
 20
4887.6718021144
 10
6180.0257997706
 20
4887.742538375
  0
LWPOLYLINE
  5
4D6
330
1F
100
AcDbEntity
  8
0
  6
Continuous
 62
     7
100
AcDbPolyline
 90
       11
 70
   128
 43
0.0
 10
6180.8166503906
 20
4914.0204548809
 10
6180.8321525884
 20
4914.0172425701
 10
6180.8446343617
 20
4913.9884925777
 10
6180.9170425437
 20
4912.9203720622
 10
6181.2166500872
 20
4900.4448790193
 10
6181.5124901888
 20
4888.5200558217
 10
6181.5883432793
 20
4887.6737873457
 10
6181.5914941238
 20
4887.6708966907
 10
6181.5930659183
 20
4887.6708657621
 10
6181.5946351123
 20
4887.6718021156
 10
6181.6132949784
 20
4887.742538375
  0
LWPOLYLINE
  5
4D7
330
1F
100
AcDbEntity
  8
0
  6
Continuous
 62
     7
100
AcDbPolyline
 90
       11
 70
   128
 43
0.0
 10
6182.4035644531
 20
4914.0204548809
 10
6182.4196479927
 20
4914.0172425721
 10
6182.4321296513
 20
4913.9884925785
 10
6182.5045426624
 20
4912.920372113
 10
6182.8041666297
 20
4900.4448794207
 10
6183.0999825095
 20
4888.5200558268
 10
6183.175856462
 20
4887.6737873375
 10
6183.1790065786
 20
4887.6708966819
 10
6183.1805778323
 20
4887.670865753
 10
6183.1821463605
 20
4887.6718021061
 10
6183.2007901862
 20
4887.742538375
  0
LWPOLYLINE
  5
4D8
330
1F
100
AcDbEntity
  8
0
  6
Continuous
 62
     7
100
AcDbPolyline
 90
       11
 70
   128
 43
0.0
 10
6183.9942932129
 20
4914.0204548809
 10
6184.0071578905
 20
4914.0172425699
 10
6184.0196396723
 20
4913.9884925776
 10
6184.0920475258
 20
4912.9203720569
 10
6184.3916554949
 20
4900.4448790179
 10
6184.6874792796
 20
4888.5200557218
 10
6184.7633473784
 20
4887.6737873394
 10
6184.7664987839
 20
4887.6708966873
 10
6184.7680708128
 20
4887.6708657599
 10
6184.7696402079
 20
4887.6718021144
 10
6184.7883002952
 20
4887.742538375
  0
LWPOLYLINE
  5
4D9
330
1F
100
AcDbEntity
  8
0
  6
Continuous
 62
     7
100
AcDbPolyline
 90
        5
 70
   128
 43
0.0
 10
6178.1387329102
 20
4913.2213577601
 10
6178.5339272874
 20
4900.6584348286
 10
6178.8266633459
 20
4889.440111838
 10
6178.9014285928
 20
4888.6146040785
 10
6178.9264517024
 20
4888.5910216692
  0
LWPOLYLINE
  5
4DA
330
1F
100
AcDbEntity
  8
0
  6
Continuous
 62
     7
100
AcDbPolyline
 90
        5
 70
   128
 43
0.0
 10
6179.7256469727
 20
4913.2213577601
 10
6180.1214227968
 20
4900.6584348321
 10
6180.4141581266
 20
4889.440111837
 10
6180.4889354154
 20
4888.6146041049
 10
6180.5139469102
 20
4888.5910216692
  0
LWPOLYLINE
  5
4DB
330
1F
100
AcDbEntity
  8
0
  6
Continuous
 62
     7
100
AcDbPolyline
 90
        5
 70
   128
 43
0.0
 10
6181.3125610352
 20
4913.2213577601
 10
6181.7089314605
 20
4900.6584349429
 10
6182.0016537526
 20
4889.4401118269
 10
6182.0764309734
 20
4888.614604108
 10
6182.101442118
 20
4888.5910216692
  0
LWPOLYLINE
  5
4DC
330
1F
100
AcDbEntity
  8
0
  6
Continuous
 62
     7
100
AcDbPolyline
 90
        5
 70
   128
 43
0.0
 10
6182.9032897949
 20
4913.2213577601
 10
6183.296427893
 20
4900.658434823
 10
6183.5891638704
 20
4889.4401118374
 10
6183.6639291173
 20
4888.6146040785
 10
6183.6889522269
 20
4888.5910216692
  0
LWPOLYLINE
  5
4DD
330
1F
100
AcDbEntity
  8
0
  6
Continuous
 62
     7
100
AcDbPolyline
 90
        5
 70
   128
 43
0.0
 10
6184.4902038574
 20
4913.2213577601
 10
6184.8839230217
 20
4900.6584348315
 10
6185.1766586511
 20
4889.4401118375
 10
6185.25143594
 20
4888.6146041049
 10
6185.2764474347
 20
4888.5910216692
  0
LWPOLYLINE
  5
4DE
330
1F
100
AcDbEntity
  8
0
  6
Continuous
 62
     7
100
AcDbPolyline
 90
       14
 70
   128
 43
0.0
 10
6178.825378418
 20
4914.0848726007
 10
6178.8374780799
 20
4914.1224024914
 10
6178.8392433623
 20
4914.1236478155
 10
6178.841004251
 20
4914.1234742581
 10
6178.8456794735
 20
4914.116368742
 10
6178.8518702676
 20
4914.0928944781
 10
6178.9244814902
 20
4913.0950763435
 10
6179.223713912
 20
4900.8872289389
 10
6179.5197294004
 20
4888.6772795248
 10
6179.5952628541
 20
4887.7195627646
 10
6179.6079241522
 20
4887.6869805666
 10
6179.6110743176
 20
4887.6860560516
 10
6179.6142198273
 20
4887.6871889953
 10
6179.6205030873
 20
4887.6928839806
  0
LWPOLYLINE
  5
4DF
330
1F
100
AcDbEntity
  8
0
  6
Continuous
 62
     7
100
AcDbPolyline
 90
       14
 70
   128
 43
0.0
 10
6180.4122924805
 20
4914.0848726007
 10
6180.4249584811
 20
4914.1224025275
 10
6180.426720498
 20
4914.1236478533
 10
6180.4284785798
 20
4914.1234742966
 10
6180.4331484027
 20
4914.1163687782
 10
6180.4393361624
 20
4914.0928945034
 10
6180.5119934102
 20
4913.0950763384
 10
6180.8112092432
 20
4900.8872287878
 10
6181.1072321047
 20
4888.6772795547
 10
6181.1827603848
 20
4887.7195627755
 10
6181.1954192118
 20
4887.6869805658
 10
6181.1985692414
 20
4887.6860560502
 10
6181.2017147635
 20
4887.687188994
 10
6181.2079982951
 20
4887.6928839806
  0
LWPOLYLINE
  5
4E0
330
1F
100
AcDbEntity
  8
0
  6
Continuous
 62
     7
100
AcDbPolyline
 90
       14
 70
   128
 43
0.0
 10
6181.999206543
 20
4914.0848726007
 10
6182.0124537307
 20
4914.1224025281
 10
6182.0142157684
 20
4914.1236478541
 10
6182.0159738739
 20
4914.1234742976
 10
6182.0206437701
 20
4914.1163687801
 10
6182.0268316375
 20
4914.0928945066
 10
6182.0994867788
 20
4913.0950763154
 10
6182.3987193634
 20
4900.887229071
 10
6182.6947273438
 20
4888.6772795557
 10
6182.7702555903
 20
4887.7195627755
 10
6182.7829144198
 20
4887.6869805658
 10
6182.7860644495
 20
4887.6860560502
 10
6182.7892099716
 20
4887.687188994
 10
6182.7954935029
 20
4887.6928839806
  0
LWPOLYLINE
  5
4E1
330
1F
100
AcDbEntity
  8
0
  6
Continuous
 62
     7
100
AcDbPolyline
 90
       14
 70
   128
 43
0.0
 10
6183.5861206055
 20
4914.0848726007
 10
6183.5999786044
 20
4914.1224024914
 10
6183.6017438869
 20
4914.1236478155
 10
6183.6035047755
 20
4914.1234742581
 10
6183.608179998
 20
4914.116368742
 10
6183.6143707921
 20
4914.0928944781
 10
6183.6869820147
 20
4913.0950763435
 10
6183.9862144365
 20
4900.8872289389
 10
6184.282229925
 20
4888.6772795248
 10
6184.3577633787
 20
4887.7195627646
 10
6184.3704246768
 20
4887.6869805666
 10
6184.3735748421
 20
4887.6860560516
 10
6184.3767203518
 20
4887.6871889953
 10
6184.3830036119
 20
4887.6928839806
  0
LWPOLYLINE
  5
4E2
330
1F
100
AcDbEntity
  8
0
  6
Continuous
 62
     7
100
AcDbPolyline
 90
        8
 70
   128
 43
0.0
 10
6185.173034668
 20
4914.0848726007
 10
6185.1829634663
 20
4914.1125921928
 10
6185.1890770901
 20
4914.1235999101
 10
6185.1911042507
 20
4914.1234089227
 10
6185.1931263373
 20
4914.121386611
 10
6185.1984950547
 20
4914.1074914088
 10
6185.2613923088
 20
4913.3415886988
 10
6185.5187552169
 20
4903.6749716821
  0
ARC
  5
4E3
330
1F
100
AcDbEntity
  8
0
  6
Continuous
 62
     7
100
AcDbCircle
 10
6218.123518225
 20
4895.6095832422
 30
0.0
 40
41.1945828148399
100
AcDbArc
 50
173.9502801802
 51
189.7807265176
  0
LWPOLYLINE
  5
4E4
330
1F
100
AcDbEntity
  8
0
  6
Continuous
 62
     7
100
AcDbPolyline
 90
       12
 70
   128
 43
0.0
 10
6178.3294677734
 20
4913.2294714424
 10
6178.3374889612
 20
4913.2550153251
 10
6178.340606983
 20
4913.2616570821
 10
6178.3437100509
 20
4913.2640056997
 10
6178.346798952
 20
4913.2622601866
 10
6178.3498744735
 20
4913.2566195519
 10
6178.3559885264
 20
4913.2344489532
 10
6178.4277106352
 20
4912.3141294502
 10
6178.7233055215
 20
4901.0947475295
 10
6179.0159416027
 20
4889.6239088806
 10
6179.0901948349
 20
4888.6503219854
 10
6179.1151898101
 20
4888.6115293923
  0
LWPOLYLINE
  5
4E5
330
1F
100
AcDbEntity
  8
0
  6
Continuous
 62
     7
100
AcDbPolyline
 90
       12
 70
   128
 43
0.0
 10
6179.9163818359
 20
4913.2294714424
 10
6179.9249776371
 20
4913.2550153591
 10
6179.9280878371
 20
4913.2616571274
 10
6179.9311850292
 20
4913.2640057537
 10
6179.9342698363
 20
4913.2622602471
 10
6179.9373428815
 20
4913.2566196169
 10
6179.9434561779
 20
4913.2344490214
 10
6180.0152169008
 20
4912.3141293724
 10
6180.3108008583
 20
4901.0947473954
 10
6180.6034484736
 20
4889.6239089664
 10
6180.6777027063
 20
4888.6503220077
 10
6180.7026850179
 20
4888.6115293923
  0
LWPOLYLINE
  5
4E6
330
1F
100
AcDbEntity
  8
0
  6
Continuous
 62
     7
100
AcDbPolyline
 90
       12
 70
   128
 43
0.0
 10
6181.5032958984
 20
4913.2294714424
 10
6181.5124728129
 20
4913.255015359
 10
6181.5155829214
 20
4913.2616571264
 10
6181.5186799785
 20
4913.2640057515
 10
6181.5217646179
 20
4913.2622602434
 10
6181.5248374732
 20
4913.2566196113
 10
6181.5309503661
 20
4913.2344490118
 10
6181.6027242282
 20
4912.3141294625
 10
6181.8982945187
 20
4901.0947471918
 10
6182.1909437356
 20
4889.6239088443
 10
6182.2651999593
 20
4888.6503219832
 10
6182.2901951268
 20
4888.6115293923
  0
LWPOLYLINE
  5
4E7
330
1F
100
AcDbEntity
  8
0
  6
Continuous
 62
     7
100
AcDbPolyline
 90
       12
 70
   128
 43
0.0
 10
6183.0902099609
 20
4913.2294714424
 10
6183.0999680291
 20
4913.2550153591
 10
6183.1030781618
 20
4913.2616571268
 10
6183.1061752546
 20
4913.2640057524
 10
6183.1092599383
 20
4913.2622602448
 10
6183.1123328438
 20
4913.2566196134
 10
6183.1184458432
 20
4913.2344490153
 10
6183.190217567
 20
4912.3141294375
 10
6183.4858060454
 20
4901.0947475242
 10
6183.7784421273
 20
4889.62390888
 10
6183.8526953594
 20
4888.6503219854
 10
6183.8776903346
 20
4888.6115293923
  0
LWPOLYLINE
  5
4E8
330
1F
100
AcDbEntity
  8
0
  6
Continuous
 62
     7
100
AcDbPolyline
 90
       12
 70
   128
 43
0.0
 10
6184.6809387207
 20
4913.2294714424
 10
6184.6875535355
 20
4913.2552281831
 10
6184.6907009367
 20
4913.2618161655
 10
6184.6938350366
 20
4913.2640139499
 10
6184.6969564812
 20
4913.2620278519
 10
6184.7000659162
 20
4913.2560641875
 10
6184.7062513409
 20
4913.2330294227
 10
6184.7788800501
 20
4912.292489756
 10
6185.0781324896
 20
4900.8631013049
 10
6185.3740637898
 20
4889.4599746521
 10
6185.4495928215
 20
4888.6153070338
 10
6185.4748712972
 20
4888.591070098
  0
LWPOLYLINE
  5
4E9
330
1F
100
AcDbEntity
  8
0
  6
Continuous
 62
     7
100
AcDbPolyline
 90
        3
 70
   128
 43
0.0
 10
6197.0252990723
 20
4851.8886793378
 10
6197.7549221746
 20
4850.3457520756
 10
6199.0287589028
 20
4849.8886827353
  0
LWPOLYLINE
  5
4EA
330
1F
100
AcDbEntity
  8
0
  6
Continuous
 62
     7
100
AcDbPolyline
 90
        3
 70
   128
 43
0.0
 10
6198.0285644531
 20
4851.8886793378
 10
6198.3918442201
 20
4851.1172189766
 10
6199.0287589028
 20
4850.8886773112
  0
LWPOLYLINE
  5
4EB
330
1F
100
AcDbEntity
  8
0
  6
Continuous
 62
     7
100
AcDbPolyline
 90
        3
 70
   128
 43
0.0
 10
6349.006652832
 20
4850.8886773112
 10
6349.7802167096
 20
4851.2517637567
 10
6350.0087553289
 20
4851.8886793378
  0
LWPOLYLINE
  5
4EC
330
1F
100
AcDbEntity
  8
0
  6
Continuous
 62
     7
100
AcDbPolyline
 90
        3
 70
   128
 43
0.0
 10
6349.006652832
 20
4849.8886827353
 10
6350.5516785171
 20
4850.614848743
 10
6351.0087553364
 20
4851.8886793378
  0
ENDSEC
  0
SECTION
  2
OBJECTS
  0
DICTIONARY
  5
C
330
0
100
AcDbDictionary
281
     1
  3
ACAD_GROUP
350
D
  3
ACAD_LAYOUT
350
1A
  3
ACAD_MLINESTYLE
350
17
  3
ACAD_PLOTSETTINGS
350
19
  3
ACAD_PLOTSTYLENAME
350
E
  3
ACAD_SCALELIST
350
47
  3
DWGPROPS
350
4ED
  0
DICTIONARY
  5
D
102
{ACAD_REACTORS
330
C
102
}
330
C
100
AcDbDictionary
281
     1
  0
DICTIONARY
  5
1A
102
{ACAD_REACTORS
330
C
102
}
330
C
100
AcDbDictionary
281
     1
  3
Layout1
350
1E
  3
Layout2
350
26
  3
Model
350
22
  0
DICTIONARY
  5
17
102
{ACAD_REACTORS
330
C
102
}
330
C
100
AcDbDictionary
281
     1
  3
Standard
350
18
  0
DICTIONARY
  5
19
102
{ACAD_REACTORS
330
C
102
}
330
C
100
AcDbDictionary
281
     1
  0
ACDBDICTIONARYWDFLT
  5
E
102
{ACAD_REACTORS
330
C
102
}
330
C
100
AcDbDictionary
281
     1
  3
Normal
350
F
100
AcDbDictionaryWithDefault
340
F
  0
DICTIONARY
  5
47
102
{ACAD_REACTORS
330
C
102
}
330
C
100
AcDbDictionary
281
     1
  3
A0
350
48
  3
A1
350
49
  3
A2
350
4A
  3
A3
350
4B
  3
A4
350
4C
  3
A5
350
4D
  3
A6
350
4E
  3
A7
350
4F
  3
A8
350
50
  3
A9
350
51
  3
B0
350
52
  3
B1
350
53
  3
B2
350
54
  3
B3
350
55
  3
B4
350
56
  3
B5
350
57
  3
B6
350
58
  3
B7
350
59
  3
B8
350
5A
  3
B9
350
5B
  3
C0
350
5C
  3
C1
350
5D
  3
C2
350
5E
  3
C3
350
5F
  3
C4
350
60
  3
C5
350
61
  3
C6
350
62
  3
C7
350
63
  3
C8
350
64
  3
C9
350
65
  3
D0
350
66
  3
D1
350
67
  3
D2
350
68
  0
XRECORD
  5
4ED
102
{ACAD_REACTORS
330
C
102
}
330
C
100
AcDbXrecord
280
     1
  1
DWGPROPS COOKIE
  2

  3

  4

  6

  7

  8
radek.stransky
  9

300
=
301
=
302
=
303
=
304
=
305
=
306
=
307
=
308
=
309
=
 40
0.0
 41
2459095.459109259
 42
2459095.459159769
  1

 90
        0
  0
LAYOUT
  5
1E
102
{ACAD_REACTORS
330
1A
102
}
330
1A
100
AcDbPlotSettings
  1

  2
none_device
  4

  6

 40
0.0
 41
0.0
 42
0.0
 43
0.0
 44
0.0
 45
0.0
 46
0.0
 47
0.0
 48
0.0
 49
0.0
140
0.0
141
0.0
142
1.0
143
1.0
 70
   688
 72
     1
 73
     0
 74
     5
  7

 75
    16
147
1.0
148
0.0
149
0.0
100
AcDbLayout
  1
Layout1
 70
     1
 71
     1
 10
0.0
 20
0.0
 11
420.0
 21
297.0
 12
0.0
 22
0.0
 32
0.0
 14
1.0000000000E+20
 24
1.0000000000E+20
 34
1.0000000000E+20
 15
-1.0000000000E+20
 25
-1.0000000000E+20
 35
-1.0000000000E+20
146
0.0
 13
0.0
 23
0.0
 33
0.0
 16
1.0
 26
0.0
 36
0.0
 17
0.0
 27
1.0
 37
0.0
 76
     0
330
1B
  0
LAYOUT
  5
26
102
{ACAD_REACTORS
330
1A
102
}
330
1A
100
AcDbPlotSettings
  1

  2
none_device
  4

  6

 40
0.0
 41
0.0
 42
0.0
 43
0.0
 44
0.0
 45
0.0
 46
0.0
 47
0.0
 48
0.0
 49
0.0
140
0.0
141
0.0
142
1.0
143
1.0
 70
   688
 72
     1
 73
     0
 74
     5
  7

 75
    16
147
1.0
148
0.0
149
0.0
100
AcDbLayout
  1
Layout2
 70
     1
 71
     2
 10
0.0
 20
0.0
 11
0.0
 21
0.0
 12
0.0
 22
0.0
 32
0.0
 14
0.0
 24
0.0
 34
0.0
 15
0.0
 25
0.0
 35
0.0
146
0.0
 13
0.0
 23
0.0
 33
0.0
 16
1.0
 26
0.0
 36
0.0
 17
0.0
 27
1.0
 37
0.0
 76
     0
330
23
  0
LAYOUT
  5
22
102
{ACAD_REACTORS
330
1A
102
}
330
1A
100
AcDbPlotSettings
  1

  2
none_device
  4
ANSI_A_(11.00_x_8.50_Inches)
  6

 40
6.35
 41
19.05
 42
6.35000508
 43
19.05000254
 44
279.4
 45
215.9
 46
-2334.5510978981
 47
-1858.3670693681
 48
0.0
 49
0.0
140
0.0
141
0.0
142
0.0151055369
143
1.0
 70
  1696
 72
     0
 73
     0
 74
     0
  7

 75
     0
147
0.0179189148
148
-1300.4909072572
149
0.0
100
AcDbLayout
  1
Model
 70
     1
 71
     0
 10
0.0
 20
0.0
 11
420.0
 21
297.0
 12
0.0
 22
0.0
 32
0.0
 14
6176.518751879
 24
4796.6886806014
 34
0.0
 15
6687.8317409947
 25
5353.7691778444
 35
0.0
146
0.0
 13
0.0
 23
0.0
 33
0.0
 16
1.0
 26
0.0
 36
0.0
 17
0.0
 27
1.0
 37
0.0
 76
     0
330
1F
331
29
  0
MLINESTYLE
  5
18
102
{ACAD_REACTORS
330
17
102
}
330
17
100
AcDbMlineStyle
  2
Standard
 70
     0
  3

 62
   256
 51
90.0
 52
90.0
 71
     2
 49
0.5
 62
   256
  6
BYLAYER
 49
-0.5
 62
   256
  6
BYLAYER
  0
ACDBPLACEHOLDER
  5
F
102
{ACAD_REACTORS
330
E
102
}
330
E
  0
SCALE
  5
48
102
{ACAD_REACTORS
330
47
102
}
330
47
100
AcDbScale
 70
     0
300
1:1
140
1.0
141
1.0
290
     1
  0
SCALE
  5
49
102
{ACAD_REACTORS
330
47
102
}
330
47
100
AcDbScale
 70
     0
300
1:2
140
1.0
141
2.0
290
     0
  0
SCALE
  5
4A
102
{ACAD_REACTORS
330
47
102
}
330
47
100
AcDbScale
 70
     0
300
1:4
140
1.0
141
4.0
290
     0
  0
SCALE
  5
4B
102
{ACAD_REACTORS
330
47
102
}
330
47
100
AcDbScale
 70
     0
300
1:5
140
1.0
141
5.0
290
     0
  0
SCALE
  5
4C
102
{ACAD_REACTORS
330
47
102
}
330
47
100
AcDbScale
 70
     0
300
1:8
140
1.0
141
8.0
290
     0
  0
SCALE
  5
4D
102
{ACAD_REACTORS
330
47
102
}
330
47
100
AcDbScale
 70
     0
300
1:10
140
1.0
141
10.0
290
     0
  0
SCALE
  5
4E
102
{ACAD_REACTORS
330
47
102
}
330
47
100
AcDbScale
 70
     0
300
1:16
140
1.0
141
16.0
290
     0
  0
SCALE
  5
4F
102
{ACAD_REACTORS
330
47
102
}
330
47
100
AcDbScale
 70
     0
300
1:20
140
1.0
141
20.0
290
     0
  0
SCALE
  5
50
102
{ACAD_REACTORS
330
47
102
}
330
47
100
AcDbScale
 70
     0
300
1:30
140
1.0
141
30.0
290
     0
  0
SCALE
  5
51
102
{ACAD_REACTORS
330
47
102
}
330
47
100
AcDbScale
 70
     0
300
1:40
140
1.0
141
40.0
290
     0
  0
SCALE
  5
52
102
{ACAD_REACTORS
330
47
102
}
330
47
100
AcDbScale
 70
     0
300
1:50
140
1.0
141
50.0
290
     0
  0
SCALE
  5
53
102
{ACAD_REACTORS
330
47
102
}
330
47
100
AcDbScale
 70
     0
300
1:100
140
1.0
141
100.0
290
     0
  0
SCALE
  5
54
102
{ACAD_REACTORS
330
47
102
}
330
47
100
AcDbScale
 70
     0
300
2:1
140
2.0
141
1.0
290
     0
  0
SCALE
  5
55
102
{ACAD_REACTORS
330
47
102
}
330
47
100
AcDbScale
 70
     0
300
4:1
140
4.0
141
1.0
290
     0
  0
SCALE
  5
56
102
{ACAD_REACTORS
330
47
102
}
330
47
100
AcDbScale
 70
     0
300
8:1
140
8.0
141
1.0
290
     0
  0
SCALE
  5
57
102
{ACAD_REACTORS
330
47
102
}
330
47
100
AcDbScale
 70
     0
300
10:1
140
10.0
141
1.0
290
     0
  0
SCALE
  5
58
102
{ACAD_REACTORS
330
47
102
}
330
47
100
AcDbScale
 70
     0
300
100:1
140
100.0
141
1.0
290
     0
  0
SCALE
  5
59
102
{ACAD_REACTORS
330
47
102
}
330
47
100
AcDbScale
 70
     0
300
1/128" = 1'-0"
140
0.0078125
141
12.0
290
     0
  0
SCALE
  5
5A
102
{ACAD_REACTORS
330
47
102
}
330
47
100
AcDbScale
 70
     0
300
1/64" = 1'-0"
140
0.015625
141
12.0
290
     0
  0
SCALE
  5
5B
102
{ACAD_REACTORS
330
47
102
}
330
47
100
AcDbScale
 70
     0
300
1/32" = 1'-0"
140
0.03125
141
12.0
290
     0
  0
SCALE
  5
5C
102
{ACAD_REACTORS
330
47
102
}
330
47
100
AcDbScale
 70
     0
300
1/16" = 1'-0"
140
0.0625
141
12.0
290
     0
  0
SCALE
  5
5D
102
{ACAD_REACTORS
330
47
102
}
330
47
100
AcDbScale
 70
     0
300
3/32" = 1'-0"
140
0.09375
141
12.0
290
     0
  0
SCALE
  5
5E
102
{ACAD_REACTORS
330
47
102
}
330
47
100
AcDbScale
 70
     0
300
1/8" = 1'-0"
140
0.125
141
12.0
290
     0
  0
SCALE
  5
5F
102
{ACAD_REACTORS
330
47
102
}
330
47
100
AcDbScale
 70
     0
300
3/16" = 1'-0"
140
0.1875
141
12.0
290
     0
  0
SCALE
  5
60
102
{ACAD_REACTORS
330
47
102
}
330
47
100
AcDbScale
 70
     0
300
1/4" = 1'-0"
140
0.25
141
12.0
290
     0
  0
SCALE
  5
61
102
{ACAD_REACTORS
330
47
102
}
330
47
100
AcDbScale
 70
     0
300
3/8" = 1'-0"
140
0.375
141
12.0
290
     0
  0
SCALE
  5
62
102
{ACAD_REACTORS
330
47
102
}
330
47
100
AcDbScale
 70
     0
300
1/2" = 1'-0"
140
0.5
141
12.0
290
     0
  0
SCALE
  5
63
102
{ACAD_REACTORS
330
47
102
}
330
47
100
AcDbScale
 70
     0
300
3/4" = 1'-0"
140
0.75
141
12.0
290
     0
  0
SCALE
  5
64
102
{ACAD_REACTORS
330
47
102
}
330
47
100
AcDbScale
 70
     0
300
1" = 1'-0"
140
1.0
141
12.0
290
     0
  0
SCALE
  5
65
102
{ACAD_REACTORS
330
47
102
}
330
47
100
AcDbScale
 70
     0
300
1-1/2" = 1'-0"
140
1.5
141
12.0
290
     0
  0
SCALE
  5
66
102
{ACAD_REACTORS
330
47
102
}
330
47
100
AcDbScale
 70
     0
300
3" = 1'-0"
140
3.0
141
12.0
290
     0
  0
SCALE
  5
67
102
{ACAD_REACTORS
330
47
102
}
330
47
100
AcDbScale
 70
     0
300
6" = 1'-0"
140
6.0
141
12.0
290
     0
  0
SCALE
  5
68
102
{ACAD_REACTORS
330
47
102
}
330
47
100
AcDbScale
 70
     0
300
1'-0" = 1'-0"
140
12.0
141
12.0
290
     0
  0
ENDSEC
  0
EOF
