  0
SECTION
  2
HEADER
  9
$ACADVER
  1
AC1015
  9
$ACADMAINTVER
 70
     6
  9
$DWGCODEPAGE
  3
ANSI_1250
  9
$INSBASE
 10
0.0
 20
0.0
 30
0.0
  9
$EXTMIN
 10
0.0
 20
0.0
 30
0.0
  9
$EXTMAX
 10
20000.0
 20
10000.0
 30
0.0
  9
$LIMMIN
 10
0.0
 20
0.0
  9
$LIMMAX
 10
20000.0
 20
10000.0
  9
$ORTHOMODE
 70
     0
  9
$REGENMODE
 70
     1
  9
$FILLMODE
 70
     1
  9
$QTEXTMODE
 70
     0
  9
$MIRRTEXT
 70
     1
  9
$LTSCALE
 40
1.0
  9
$ATTMODE
 70
     1
  9
$TEXTSIZE
 40
2.0
  9
$TRACEWID
 40
1.0
  9
$TEXTSTYLE
  7
STANDARD
  9
$CLAYER
  8
0
  9
$CELTYPE
  6
ByLayer
  9
$CECOLOR
 62
   256
  9
$CELTSCALE
 40
1.0
  9
$DISPSILH
 70
     0
  9
$DIMSCALE
 40
1.0
  9
$DIMASZ
 40
2.0
  9
$DIMEXO
 40
1.0
  9
$DIMDLI
 40
3.75
  9
$DIMRND
 40
0.0
  9
$DIMDLE
 40
0.0
  9
$DIMEXE
 40
1.0
  9
$DIMTP
 40
0.0
  9
$DIMTM
 40
0.0
  9
$DIMTXT
 40
2.0
  9
$DIMCEN
 40
2.5
  9
$DIMTSZ
 40
0.0
  9
$DIMTOL
 70
     0
  9
$DIMLIM
 70
     0
  9
$DIMTIH
 70
     1
  9
$DIMTOH
 70
     1
  9
$DIMSE1
 70
     0
  9
$DIMSE2
 70
     0
  9
$DIMTAD
 70
     1
  9
$DIMZIN
 70
     0
  9
$DIMBLK
  1

  9
$DIMASO
 70
     1
  9
$DIMSHO
 70
     1
  9
$DIMPOST
  1

  9
$DIMAPOST
  1

  9
$DIMALT
 70
     0
  9
$DIMALTD
 70
     3
  9
$DIMALTF
 40
0.0393700787
  9
$DIMLFAC
 40
1.0
  9
$DIMTOFL
 70
     1
  9
$DIMTVP
 40
0.0
  9
$DIMTIX
 70
     0
  9
$DIMSOXD
 70
     0
  9
$DIMSAH
 70
     0
  9
$DIMBLK1
  1

  9
$DIMBLK2
  1

  9
$DIMSTYLE
  2
ISO-25
  9
$DIMCLRD
 70
     0
  9
$DIMCLRE
 70
     0
  9
$DIMCLRT
 70
     0
  9
$DIMTFAC
 40
1.0
  9
$DIMGAP
 40
1.524
  9
$DIMJUST
 70
     0
  9
$DIMSD1
 70
     0
  9
$DIMSD2
 70
     0
  9
$DIMTOLJ
 70
     0
  9
$DIMTZIN
 70
     0
  9
$DIMALTZ
 70
     0
  9
$DIMALTTZ
 70
     0
  9
$DIMUPT
 70
     0
  9
$DIMDEC
 70
     2
  9
$DIMTDEC
 70
     0
  9
$DIMALTU
 70
     2
  9
$DIMALTTD
 70
     3
  9
$DIMTXSTY
  7
STANDARD
  9
$DIMAUNIT
 70
     0
  9
$DIMADEC
 70
     2
  9
$DIMALTRND
 40
0.0
  9
$DIMAZIN
 70
     0
  9
$DIMDSEP
 70
    44
  9
$DIMATFIT
 70
     3
  9
$DIMFRAC
 70
     0
  9
$DIMLDRBLK
  1

  9
$DIMLUNIT
 70
     2
  9
$DIMLWD
 70
    -2
  9
$DIMLWE
 70
    -2
  9
$DIMTMOVE
 70
     0
  9
$LUNITS
 70
     2
  9
$LUPREC
 70
     3
  9
$SKETCHINC
 40
1.0
  9
$FILLETRAD
 40
10.0
  9
$AUNITS
 70
     0
  9
$AUPREC
 70
     2
  9
$MENU
  1
.
  9
$ELEVATION
 40
0.0
  9
$PELEVATION
 40
0.0
  9
$THICKNESS
 40
0.0
  9
$LIMCHECK
 70
     0
  9
$CHAMFERA
 40
0.0
  9
$CHAMFERB
 40
0.0
  9
$CHAMFERC
 40
0.0
  9
$CHAMFERD
 40
0.0
  9
$SKPOLY
 70
     0
  9
$TDCREATE
 40
2460853.359148333
  9
$TDUCREATE
 40
2460853.275815
  9
$TDUPDATE
 40
2460853.359150185
  9
$TDUUPDATE
 40
2460853.275816852
  9
$TDINDWG
 40
0.0000000116
  9
$TDUSRTIMER
 40
0.0000000116
  9
$USRTIMER
 70
     1
  9
$ANGBASE
 50
0.0
  9
$ANGDIR
 70
     0
  9
$PDMODE
 70
     0
  9
$PDSIZE
 40
-1.0
  9
$PLINEWID
 40
0.0
  9
$SPLFRAME
 70
     0
  9
$SPLINETYPE
 70
     6
  9
$SPLINESEGS
 70
     8
  9
$HANDSEED
  5
44A
  9
$SURFTAB1
 70
     6
  9
$SURFTAB2
 70
     6
  9
$SURFTYPE
 70
     6
  9
$SURFU
 70
     6
  9
$SURFV
 70
     6
  9
$UCSBASE
  2

  9
$UCSNAME
  2

  9
$UCSORG
 10
0.0
 20
0.0
 30
0.0
  9
$UCSXDIR
 10
1.0
 20
0.0
 30
0.0
  9
$UCSYDIR
 10
0.0
 20
1.0
 30
0.0
  9
$UCSORTHOREF
  2

  9
$UCSORTHOVIEW
 70
     0
  9
$UCSORGTOP
 10
0.0
 20
0.0
 30
0.0
  9
$UCSORGBOTTOM
 10
0.0
 20
0.0
 30
0.0
  9
$UCSORGLEFT
 10
0.0
 20
0.0
 30
0.0
  9
$UCSORGRIGHT
 10
0.0
 20
0.0
 30
0.0
  9
$UCSORGFRONT
 10
0.0
 20
0.0
 30
0.0
  9
$UCSORGBACK
 10
0.0
 20
0.0
 30
0.0
  9
$PUCSBASE
  2

  9
$PUCSNAME
  2

  9
$PUCSORG
 10
0.0
 20
0.0
 30
0.0
  9
$PUCSXDIR
 10
1.0
 20
0.0
 30
0.0
  9
$PUCSYDIR
 10
0.0
 20
1.0
 30
0.0
  9
$PUCSORTHOREF
  2

  9
$PUCSORTHOVIEW
 70
     0
  9
$PUCSORGTOP
 10
0.0
 20
0.0
 30
0.0
  9
$PUCSORGBOTTOM
 10
0.0
 20
0.0
 30
0.0
  9
$PUCSORGLEFT
 10
0.0
 20
0.0
 30
0.0
  9
$PUCSORGRIGHT
 10
0.0
 20
0.0
 30
0.0
  9
$PUCSORGFRONT
 10
0.0
 20
0.0
 30
0.0
  9
$PUCSORGBACK
 10
0.0
 20
0.0
 30
0.0
  9
$USERI1
 70
     0
  9
$USERI2
 70
     0
  9
$USERI3
 70
     0
  9
$USERI4
 70
     0
  9
$USERI5
 70
     0
  9
$USERR1
 40
0.0
  9
$USERR2
 40
0.0
  9
$USERR3
 40
0.0
  9
$USERR4
 40
0.0
  9
$USERR5
 40
0.0
  9
$WORLDVIEW
 70
     1
  9
$SHADEDGE
 70
     3
  9
$SHADEDIF
 70
    70
  9
$TILEMODE
 70
     1
  9
$MAXACTVP
 70
    64
  9
$PINSBASE
 10
0.0
 20
0.0
 30
0.0
  9
$PLIMCHECK
 70
     0
  9
$PEXTMIN
 10
1.0000000000E+20
 20
1.0000000000E+20
 30
1.0000000000E+20
  9
$PEXTMAX
 10
-1.0000000000E+20
 20
-1.0000000000E+20
 30
-1.0000000000E+20
  9
$PLIMMIN
 10
0.0
 20
0.0
  9
$PLIMMAX
 10
420.0
 20
297.0
  9
$UNITMODE
 70
     0
  9
$VISRETAIN
 70
     1
  9
$PLINEGEN
 70
     0
  9
$PSLTSCALE
 70
     1
  9
$TREEDEPTH
 70
  3020
  9
$CMLSTYLE
  2
Standard
  9
$CMLJUST
 70
     0
  9
$CMLSCALE
 40
20.0
  9
$PROXYGRAPHICS
 70
     1
  9
$MEASUREMENT
 70
     1
  9
$CELWEIGHT
370
    -1
  9
$ENDCAPS
280
     0
  9
$JOINSTYLE
280
     0
  9
$LWDISPLAY
290
     1
  9
$INSUNITS
 70
     4
  9
$HYPERLINKBASE
  1

  9
$STYLESHEET
  1

  9
$XEDIT
290
     1
  9
$CEPSNTYPE
380
     0
  9
$PSTYLEMODE
290
     1
  9
$FINGERPRINTGUID
  2
{a951393d-745d-4fac-84b3-204763c2ba40}
  9
$VERSIONGUID
  2
{FAEB1C32-E019-11D5-929B-00C0DF256EC4}
  9
$EXTNAMES
290
     1
  9
$PSVPSCALE
 40
0.0
  9
$OLESTARTUP
290
     0
  0
ENDSEC
  0
SECTION
  2
CLASSES
  0
CLASS
  1
ACDBDICTIONARYWDFLT
  2
AcDbDictionaryWithDefault
  3
ObjectDBX Classes
 90
        0
280
     0
281
     0
  0
CLASS
  1
VISUALSTYLE
  2
AcDbVisualStyle
  3
ObjectDBX Classes
 90
     4095
280
     0
281
     0
  0
CLASS
  1
MATERIAL
  2
AcDbMaterial
  3
ObjectDBX Classes
 90
     1153
280
     0
281
     0
  0
CLASS
  1
SCALE
  2
AcDbScale
  3
ObjectDBX Classes
 90
     1153
280
     0
281
     0
  0
CLASS
  1
TABLESTYLE
  2
AcDbTableStyle
  3
ObjectDBX Classes
 90
     4095
280
     0
281
     0
  0
CLASS
  1
MLEADERSTYLE
  2
AcDbMLeaderStyle
  3
ACDB_MLEADERSTYLE_CLASS
 90
     4095
280
     0
281
     0
  0
CLASS
  1
SUN
  2
AcDbSun
  3
SCENEOE
 90
     1153
280
     0
281
     0
  0
CLASS
  1
ACDBPLACEHOLDER
  2
AcDbPlaceHolder
  3
ObjectDBX Classes
 90
        0
280
     0
281
     0
  0
CLASS
  1
LAYOUT
  2
AcDbLayout
  3
ObjectDBX Classes
 90
        0
280
     0
281
     0
  0
ENDSEC
  0
SECTION
  2
TABLES
  0
TABLE
  2
VPORT
  5
8
330
0
100
AcDbSymbolTable
 70
     1
  0
VPORT
  5
29
330
8
100
AcDbSymbolTableRecord
100
AcDbViewportTableRecord
  2
*Active
 70
     0
 10
0.0
 20
0.0
 11
1.0
 21
1.0
 12
10000.0
 22
5000.0
 13
0.0
 23
0.0
 14
10.0
 24
10.0
 15
10.0
 25
10.0
 16
0.0
 26
0.0
 36
1.0
 17
0.0
 27
0.0
 37
0.0
 40
10000.0
 41
2.0
 42
50.0
 43
0.0
 44
0.0
 50
0.0
 51
0.0
 71
     0
 72
  2000
 73
     1
 74
     3
 75
     0
 76
     0
 77
     0
 78
     0
281
     0
 65
     1
110
0.0
120
0.0
130
0.0
111
1.0
121
0.0
131
0.0
112
0.0
122
1.0
132
0.0
 79
     0
146
0.0
  0
ENDTAB
  0
TABLE
  2
LTYPE
  5
5
330
0
100
AcDbSymbolTable
 70
    10
  0
LTYPE
  5
14
330
5
100
AcDbSymbolTableRecord
100
AcDbLinetypeTableRecord
  2
ByBlock
 70
     0
  3

 72
    65
 73
     0
 40
0.0
  0
LTYPE
  5
15
330
5
100
AcDbSymbolTableRecord
100
AcDbLinetypeTableRecord
  2
ByLayer
 70
     0
  3

 72
    65
 73
     0
 40
0.0
  0
LTYPE
  5
16
330
5
100
AcDbSymbolTableRecord
100
AcDbLinetypeTableRecord
  2
Continuous
 70
     0
  3
Solid line
 72
    65
 73
     0
 40
0.0
  0
LTYPE
  5
6E
330
5
100
AcDbSymbolTableRecord
100
AcDbLinetypeTableRecord
  2
SLD-Plná
 70
     0
  3
SolidWorks Line Style
 72
    65
 73
     0
 40
0.0
  0
LTYPE
  5
6F
330
5
100
AcDbSymbolTableRecord
100
AcDbLinetypeTableRecord
  2
SLD-Čárkovaná
 70
     0
  3
SolidWorks Line Style
 72
    65
 73
     2
 40
1.905
 49
1.27
 74
     0
 49
-0.635
 74
     0
  0
LTYPE
  5
70
330
5
100
AcDbSymbolTableRecord
100
AcDbLinetypeTableRecord
  2
SLD-Dvojitě-čerchovaná
 70
     0
  3
SolidWorks Line Style
 72
    65
 73
     6
 40
12.7
 49
6.35
 74
     0
 49
-1.27
 74
     0
 49
1.27
 74
     0
 49
-1.27
 74
     0
 49
1.27
 74
     0
 49
-1.27
 74
     0
  0
LTYPE
  5
71
330
5
100
AcDbSymbolTableRecord
100
AcDbLinetypeTableRecord
  2
SLD-Čerchovaná
 70
     0
  3
SolidWorks Line Style
 72
    65
 73
     4
 40
10.16
 49
6.35
 74
     0
 49
-1.27
 74
     0
 49
1.27
 74
     0
 49
-1.27
 74
     0
  0
LTYPE
  5
72
330
5
100
AcDbSymbolTableRecord
100
AcDbLinetypeTableRecord
  2
SLD-Osa
 70
     0
  3
SolidWorks Line Style
 72
    65
 73
     4
 40
19.05
 49
15.24
 74
     0
 49
-1.27
 74
     0
 49
1.27
 74
     0
 49
-1.27
 74
     0
  0
LTYPE
  5
73
330
5
100
AcDbSymbolTableRecord
100
AcDbLinetypeTableRecord
  2
SLD-Tečkovaná
 70
     0
  3
SolidWorks Line Style
 72
    65
 73
     2
 40
0.635
 49
0.0
 74
     0
 49
-0.635
 74
     0
  0
LTYPE
  5
74
330
5
100
AcDbSymbolTableRecord
100
AcDbLinetypeTableRecord
  2
SLD-Hrubá-tenká-čerchovaná
 70
     0
  3
SolidWorks Line Style
 72
    65
 73
     4
 40
10.16
 49
6.35
 74
     0
 49
-1.27
 74
     0
 49
1.27
 74
     0
 49
-1.27
 74
     0
  0
LTYPE
  5
75
330
5
100
AcDbSymbolTableRecord
100
AcDbLinetypeTableRecord
  2
SLD-Řez-1
 70
     0
  3
SolidWorks Line Style
 72
    65
 73
     4
 40
8.128
 49
5.08
 74
     0
 49
-1.016
 74
     0
 49
1.016
 74
     0
 49
-1.016
 74
     0
  0
LTYPE
  5
76
330
5
100
AcDbSymbolTableRecord
100
AcDbLinetypeTableRecord
  2
SLD-Řez-2
 70
     0
  3
SolidWorks Line Style
 72
    65
 73
     2
 40
5080.0
 49
0.0
 74
     0
 49
-5080.0
 74
     0
  0
ENDTAB
  0
TABLE
  2
LAYER
  5
2
330
0
100
AcDbSymbolTable
 70
    13
  0
LAYER
  5
10
330
2
100
AcDbSymbolTableRecord
100
AcDbLayerTableRecord
  2
0
 70
     0
 62
     7
  6
Continuous
370
    -3
390
F
  0
LAYER
  5
77
330
2
100
AcDbSymbolTableRecord
100
AcDbLayerTableRecord
  2
FORMAT
 70
     0
 62
     7
  6
SLD-Plná
370
    -3
390
F
  0
LAYER
  5
78
330
2
100
AcDbSymbolTableRecord
100
AcDbLayerTableRecord
  2
OSA
 70
     0
 62
     7
  6
SLD-Hrubá-tenká-čerchovaná
370
    -3
390
F
  0
LAYER
  5
79
330
2
100
AcDbSymbolTableRecord
100
AcDbLayerTableRecord
  2
0_35
 70
     0
 62
     7
  6
SLD-Plná
370
    35
390
F
  0
LAYER
  5
7A
330
2
100
AcDbSymbolTableRecord
100
AcDbLayerTableRecord
  2
0_5
 70
     0
 62
     7
  6
SLD-Plná
370
    50
390
F
  0
LAYER
  5
7B
330
2
100
AcDbSymbolTableRecord
100
AcDbLayerTableRecord
  2
0_25
 70
     0
 62
     7
  6
SLD-Plná
370
    25
390
F
  0
LAYER
  5
7C
330
2
100
AcDbSymbolTableRecord
100
AcDbLayerTableRecord
  2
0_18
 70
     0
 62
     7
  6
SLD-Plná
370
    -3
390
F
  0
LAYER
  5
7D
330
2
100
AcDbSymbolTableRecord
100
AcDbLayerTableRecord
  2
SLD-0
 70
     0
 62
   179
  6
SLD-Plná
370
    -3
390
F
  0
LAYER
  5
7E
330
2
100
AcDbSymbolTableRecord
100
AcDbLayerTableRecord
  2
KOTY
 70
     0
 62
     7
  6
SLD-Plná
370
    -3
390
F
  0
LAYER
  5
7F
330
2
100
AcDbSymbolTableRecord
100
AcDbLayerTableRecord
  2
SILNA
 70
     0
 62
   179
  6
SLD-Plná
370
    -3
390
F
  0
LAYER
  5
80
330
2
100
AcDbSymbolTableRecord
100
AcDbLayerTableRecord
  2
0_18_1
 70
     0
 62
   179
  6
SLD-Plná
370
    -3
390
F
  0
LAYER
  5
81
330
2
100
AcDbSymbolTableRecord
100
AcDbLayerTableRecord
  2
0_35_1
 70
     0
 62
   179
  6
SLD-Plná
370
    35
390
F
  0
LAYER
  5
82
330
2
100
AcDbSymbolTableRecord
100
AcDbLayerTableRecord
  2
0_5_1
 70
     0
 62
   179
  6
SLD-Plná
370
    50
390
F
  0
ENDTAB
  0
TABLE
  2
STYLE
  5
3
330
0
100
AcDbSymbolTable
 70
     1
  0
STYLE
  5
11
330
3
100
AcDbSymbolTableRecord
100
AcDbTextStyleTableRecord
  2
STANDARD
 70
     0
 40
0.0
 41
1.0
 50
0.0
 71
     0
 42
2.0
  3
SWISOP1.TTF
  4

1001
ACAD
1000
SWISOP1
1071
        2
  0
ENDTAB
  0
TABLE
  2
VIEW
  5
6
330
0
100
AcDbSymbolTable
 70
     0
  0
ENDTAB
  0
TABLE
  2
UCS
  5
7
330
0
100
AcDbSymbolTable
 70
     0
  0
ENDTAB
  0
TABLE
  2
APPID
  5
9
330
0
100
AcDbSymbolTable
 70
     1
  0
APPID
  5
12
330
9
100
AcDbSymbolTableRecord
100
AcDbRegAppTableRecord
  2
ACAD
 70
     0
  0
ENDTAB
  0
TABLE
  2
DIMSTYLE
  5
A
330
0
100
AcDbSymbolTable
 70
     1
100
AcDbDimStyleTable
  0
DIMSTYLE
105
27
330
A
100
AcDbSymbolTableRecord
100
AcDbDimStyleTableRecord
  2
ISO-25
 70
     0
 41
2.5
 42
0.625
 43
3.75
 44
1.25
 73
     0
 74
     0
 77
     1
 78
     8
140
2.5
141
2.5
143
0.0393700787
147
0.625
171
     3
172
     1
178
     0
271
     2
272
     2
274
     3
278
    44
283
     0
284
     8
340
11
  0
ENDTAB
  0
TABLE
  2
BLOCK_RECORD
  5
1
330
0
100
AcDbSymbolTable
 70
     1
  0
BLOCK_RECORD
  5
1F
330
1
100
AcDbSymbolTableRecord
100
AcDbBlockTableRecord
  2
*Model_Space
340
22
  0
BLOCK_RECORD
  5
1B
330
1
100
AcDbSymbolTableRecord
100
AcDbBlockTableRecord
  2
*Paper_Space
340
1E
  0
BLOCK_RECORD
  5
23
330
1
100
AcDbSymbolTableRecord
100
AcDbBlockTableRecord
  2
*Paper_Space0
340
26
  0
ENDTAB
  0
ENDSEC
  0
SECTION
  2
BLOCKS
  0
BLOCK
  5
20
330
1F
100
AcDbEntity
  8
0
100
AcDbBlockBegin
  2
*Model_Space
 70
     0
 10
0.0
 20
0.0
 30
0.0
  3
*Model_Space
  1

  0
ENDBLK
  5
21
330
1F
100
AcDbEntity
  8
0
100
AcDbBlockEnd
  0
BLOCK
  5
1C
330
1B
100
AcDbEntity
 67
     1
  8
0
100
AcDbBlockBegin
  2
*Paper_Space
 70
     0
 10
0.0
 20
0.0
 30
0.0
  3
*Paper_Space
  1

  0
ENDBLK
  5
1D
330
1B
100
AcDbEntity
 67
     1
  8
0
100
AcDbBlockEnd
  0
BLOCK
  5
24
330
23
100
AcDbEntity
  8
0
100
AcDbBlockBegin
  2
*Paper_Space0
 70
     0
 10
0.0
 20
0.0
 30
0.0
  3
*Paper_Space0
  1

  0
ENDBLK
  5
25
330
23
100
AcDbEntity
  8
0
100
AcDbBlockEnd
  0
ENDSEC
  0
SECTION
  2
ENTITIES
  0
CIRCLE
  5
83
330
1F
100
AcDbEntity
  8
0
  6
SLD-Plná
 62
     7
370
    25
100
AcDbCircle
 10
6233.5187553361
 20
5245.6994545926
 30
0.0
 40
8.399999999998865
  0
CIRCLE
  5
84
330
1F
100
AcDbEntity
  8
0
  6
SLD-Plná
 62
     7
370
    25
100
AcDbCircle
 10
6233.5187553361
 20
5264.6994545926
 30
0.0
 40
8.399999999999654
  0
CIRCLE
  5
85
330
1F
100
AcDbEntity
  8
0
  6
SLD-Plná
 62
     7
370
    25
100
AcDbCircle
 10
6233.5187553361
 20
5283.6994545926
 30
0.0
 40
8.399999999999654
  0
LINE
  5
86
330
1F
100
AcDbEntity
  8
0
  6
SLD-Plná
 62
     7
370
    25
100
AcDbLine
 10
6223.9854220028
 20
5367.8494545926
 30
0.0
 11
6215.6520886694
 21
5367.8494545926
 31
0.0
  0
LINE
  5
87
330
1F
100
AcDbEntity
  8
0
  6
SLD-Plná
 62
     7
370
    25
100
AcDbLine
 10
6240.6520886694
 20
5367.8494545926
 30
0.0
 11
6232.3187553361
 21
5367.8494545926
 31
0.0
  0
LINE
  5
88
330
1F
100
AcDbEntity
  8
0
  6
SLD-Plná
 62
     7
370
    25
100
AcDbLine
 10
6257.3187553361
 20
5367.8494545926
 30
0.0
 11
6248.9854220028
 21
5367.8494545926
 31
0.0
  0
ARC
  5
89
330
1F
100
AcDbEntity
  8
0
  6
SLD-Plná
 62
     7
370
    25
100
AcDbCircle
 10
6257.535400015
 20
5367.4328099137
 30
0.0
 40
0.2166446789415204
100
AcDbArc
 50
37.0509748057
 51
180.0
  0
ARC
  5
8A
330
1F
100
AcDbEntity
  8
0
  6
SLD-Plná
 62
     7
370
    25
100
AcDbCircle
 10
6253.3187553361
 20
5364.2494545926
 30
0.0
 40
5.500000000000923
100
AcDbArc
 50
354.2608295225
 51
37.0509748058
  0
LINE
  5
8B
330
1F
100
AcDbEntity
  8
0
  6
SLD-Plná
 62
     7
370
    25
100
AcDbLine
 10
6299.0520886695
 20
5367.8494545927
 30
0.0
 11
6290.7187553362
 21
5367.8494545927
 31
0.0
  0
LINE
  5
8C
330
1F
100
AcDbEntity
  8
0
  6
SLD-Plná
 62
     7
370
    25
100
AcDbLine
 10
6315.7187553362
 20
5367.8494545927
 30
0.0
 11
6307.3854220029
 21
5367.8494545927
 31
0.0
  0
LINE
  5
8D
330
1F
100
AcDbEntity
  8
0
  6
SLD-Plná
 62
     7
370
    25
100
AcDbLine
 10
6332.3854220029
 20
5367.8494545927
 30
0.0
 11
6324.0520886695
 21
5367.8494545927
 31
0.0
  0
ARC
  5
8E
330
1F
100
AcDbEntity
  8
0
  6
SLD-Plná
 62
     7
370
    25
100
AcDbCircle
 10
6290.5021106573
 20
5367.4328099137
 30
0.0
 40
0.2166446789424299
100
AcDbArc
 50
0.0
 51
142.9490251943
  0
ARC
  5
8F
330
1F
100
AcDbEntity
  8
0
  6
SLD-Plná
 62
     7
370
    25
100
AcDbCircle
 10
6294.7187553362
 20
5364.2494545927
 30
0.0
 40
5.500000000000196
100
AcDbArc
 50
142.9490251942
 51
185.7391704777
  0
LINE
  5
90
330
1F
100
AcDbEntity
  8
0
  6
SLD-Plná
 62
     7
370
    25
100
AcDbLine
 10
6215.6520886694
 20
5367.8494545927
 30
0.0
 11
6207.3187553361
 21
5367.8494545927
 31
0.0
  0
LINE
  5
91
330
1F
100
AcDbEntity
  8
0
  6
SLD-Plná
 62
     7
370
    25
100
AcDbLine
 10
6232.3187553361
 20
5367.8494545927
 30
0.0
 11
6223.9854220028
 21
5367.8494545927
 31
0.0
  0
LINE
  5
92
330
1F
100
AcDbEntity
  8
0
  6
SLD-Plná
 62
     7
370
    25
100
AcDbLine
 10
6248.9854220028
 20
5367.8494545927
 30
0.0
 11
6240.6520886694
 21
5367.8494545927
 31
0.0
  0
ARC
  5
93
330
1F
100
AcDbEntity
  8
0
  6
SLD-Plná
 62
     7
370
    25
100
AcDbCircle
 10
6207.1021106571
 20
5367.4328099137
 30
0.0
 40
0.2166446789415204
100
AcDbArc
 50
0.0
 51
142.9490251943
  0
ARC
  5
94
330
1F
100
AcDbEntity
  8
0
  6
SLD-Plná
 62
     7
370
    25
100
AcDbCircle
 10
6211.3187553361
 20
5364.2494545927
 30
0.0
 40
5.500000000000196
100
AcDbArc
 50
142.9490251942
 51
185.7391704777
  0
LINE
  5
95
330
1F
100
AcDbEntity
  8
0
  6
SLD-Plná
 62
     7
370
    25
100
AcDbLine
 10
6307.3854220029
 20
5367.8494545926
 30
0.0
 11
6299.0520886695
 21
5367.8494545926
 31
0.0
  0
LINE
  5
96
330
1F
100
AcDbEntity
  8
0
  6
SLD-Plná
 62
     7
370
    25
100
AcDbLine
 10
6324.0520886695
 20
5367.8494545926
 30
0.0
 11
6315.7187553362
 21
5367.8494545926
 31
0.0
  0
LINE
  5
97
330
1F
100
AcDbEntity
  8
0
  6
SLD-Plná
 62
     7
370
    25
100
AcDbLine
 10
6340.7187553362
 20
5367.8494545926
 30
0.0
 11
6332.3854220029
 21
5367.8494545926
 31
0.0
  0
ARC
  5
98
330
1F
100
AcDbEntity
  8
0
  6
SLD-Plná
 62
     7
370
    25
100
AcDbCircle
 10
6340.9354000151
 20
5367.4328099137
 30
0.0
 40
0.2166446789415204
100
AcDbArc
 50
37.0509748057
 51
180.0
  0
ARC
  5
99
330
1F
100
AcDbEntity
  8
0
  6
SLD-Plná
 62
     7
370
    25
100
AcDbCircle
 10
6336.7187553362
 20
5364.2494545926
 30
0.0
 40
5.500000000000196
100
AcDbArc
 50
354.2608295225
 51
37.0509748058
  0
ARC
  5
9A
330
1F
100
AcDbEntity
  8
0
  6
SLD-Plná
 62
     7
370
    25
100
AcDbCircle
 10
6233.5187553361
 20
5283.6994545926
 30
0.0
 40
9.099999999999838
100
AcDbArc
 50
210.0
 51
230.4627619358
  0
ARC
  5
9B
330
1F
100
AcDbEntity
  8
0
  6
SLD-Plná
 62
     7
370
    25
100
AcDbCircle
 10
6233.5187553361
 20
5283.6994545926
 30
0.0
 40
9.100000000000612
100
AcDbArc
 50
249.423517271
 51
289.9219703413
  0
ARC
  5
9C
330
1F
100
AcDbEntity
  8
0
  6
SLD-Plná
 62
     7
370
    25
100
AcDbCircle
 10
6233.5187553361
 20
5283.6994545926
 30
0.0
 40
9.100000000000685
100
AcDbArc
 50
310.5550472175
 51
349.4455782962
  0
ARC
  5
9D
330
1F
100
AcDbEntity
  8
0
  6
SLD-Plná
 62
     7
370
    25
100
AcDbCircle
 10
6233.5187553361
 20
5283.6994545926
 30
0.0
 40
9.10000000000008
100
AcDbArc
 50
11.1299023637
 51
49.0540078321
  0
ARC
  5
9E
330
1F
100
AcDbEntity
  8
0
  6
SLD-Plná
 62
     7
370
    25
100
AcDbCircle
 10
6233.5187553361
 20
5283.6994545926
 30
0.0
 40
9.100000000000422
100
AcDbArc
 50
71.3415481459
 51
108.7753810187
  0
ARC
  5
9F
330
1F
100
AcDbEntity
  8
0
  6
SLD-Plná
 62
     7
370
    25
100
AcDbCircle
 10
6233.5187553361
 20
5283.6994545926
 30
0.0
 40
9.10000000000054
100
AcDbArc
 50
131.3041974699
 51
168.6497173388
  0
LWPOLYLINE
  5
A0
330
1F
100
AcDbEntity
  8
0
  6
SLD-Plná
 62
     7
370
    25
100
AcDbPolyline
 90
        3
 70
   128
 43
0.0
 10
6224.588678884
 20
5281.9491018966
 10
6224.9823290113
 20
5280.5467691338
 10
6225.6379241617
 20
5279.1494545926
  0
ARC
  5
A1
330
1F
100
AcDbEntity
  8
0
  6
SLD-Plná
 62
     7
370
    25
100
AcDbCircle
 10
6233.5187553361
 20
5245.6994545926
 30
0.0
 40
9.10000000000054
100
AcDbArc
 50
210.0
 51
230.4627619358
  0
ARC
  5
A2
330
1F
100
AcDbEntity
  8
0
  6
SLD-Plná
 62
     7
370
    25
100
AcDbCircle
 10
6233.5187553361
 20
5245.6994545926
 30
0.0
 40
9.100000000000081
100
AcDbArc
 50
249.423517271
 51
289.9219703413
  0
ARC
  5
A3
330
1F
100
AcDbEntity
  8
0
  6
SLD-Plná
 62
     7
370
    25
100
AcDbCircle
 10
6233.5187553361
 20
5245.6994545926
 30
0.0
 40
9.099999999999403
100
AcDbArc
 50
310.5550472175
 51
349.4455782962
  0
ARC
  5
A4
330
1F
100
AcDbEntity
  8
0
  6
SLD-Plná
 62
     7
370
    25
100
AcDbCircle
 10
6233.5187553361
 20
5245.6994545926
 30
0.0
 40
9.099999999999483
100
AcDbArc
 50
11.1299023637
 51
49.0540078321
  0
ARC
  5
A5
330
1F
100
AcDbEntity
  8
0
  6
SLD-Plná
 62
     7
370
    25
100
AcDbCircle
 10
6233.5187553361
 20
5245.6994545926
 30
0.0
 40
9.100000000000717
100
AcDbArc
 50
71.341548146
 51
108.7753810187
  0
ARC
  5
A6
330
1F
100
AcDbEntity
  8
0
  6
SLD-Plná
 62
     7
370
    25
100
AcDbCircle
 10
6233.5187553361
 20
5245.6994545926
 30
0.0
 40
9.10000000000114
100
AcDbArc
 50
131.3041974699
 51
168.6497173388
  0
LWPOLYLINE
  5
A7
330
1F
100
AcDbEntity
  8
0
  6
SLD-Plná
 62
     7
370
    25
100
AcDbPolyline
 90
        3
 70
   128
 43
0.0
 10
6224.588678884
 20
5243.9491018966
 10
6224.9823290113
 20
5242.5467691338
 10
6225.6379241617
 20
5241.1494545926
  0
ARC
  5
A8
330
1F
100
AcDbEntity
  8
0
  6
SLD-Plná
 62
     7
370
    25
100
AcDbCircle
 10
6233.5187553361
 20
5264.6994545926
 30
0.0
 40
9.10000000000054
100
AcDbArc
 50
210.0
 51
230.4627619358
  0
ARC
  5
A9
330
1F
100
AcDbEntity
  8
0
  6
SLD-Plná
 62
     7
370
    25
100
AcDbCircle
 10
6233.5187553361
 20
5264.6994545926
 30
0.0
 40
9.1
100
AcDbArc
 50
249.423517271
 51
289.9219703413
  0
ARC
  5
AA
330
1F
100
AcDbEntity
  8
0
  6
SLD-Plná
 62
     7
370
    25
100
AcDbCircle
 10
6233.5187553361
 20
5264.6994545926
 30
0.0
 40
9.100000000000094
100
AcDbArc
 50
310.5550472175
 51
349.4455782962
  0
ARC
  5
AB
330
1F
100
AcDbEntity
  8
0
  6
SLD-Plná
 62
     7
370
    25
100
AcDbCircle
 10
6233.5187553361
 20
5264.6994545926
 30
0.0
 40
9.099999999999552
100
AcDbArc
 50
11.1299023637
 51
49.0540078321
  0
ARC
  5
AC
330
1F
100
AcDbEntity
  8
0
  6
SLD-Plná
 62
     7
370
    25
100
AcDbCircle
 10
6233.5187553361
 20
5264.6994545926
 30
0.0
 40
9.100000000000131
100
AcDbArc
 50
71.341548146
 51
108.7753810187
  0
ARC
  5
AD
330
1F
100
AcDbEntity
  8
0
  6
SLD-Plná
 62
     7
370
    25
100
AcDbCircle
 10
6233.5187553361
 20
5264.6994545926
 30
0.0
 40
9.10000000000054
100
AcDbArc
 50
131.3041974699
 51
168.6497173388
  0
LWPOLYLINE
  5
AE
330
1F
100
AcDbEntity
  8
0
  6
SLD-Plná
 62
     7
370
    25
100
AcDbPolyline
 90
        3
 70
   128
 43
0.0
 10
6224.588678884
 20
5262.9491018966
 10
6224.9823290113
 20
5261.5467691338
 10
6225.6379241617
 20
5260.1494545926
  0
SPLINE
  5
AF
330
1F
100
AcDbEntity
  8
0
  6
SLD-Plná
 62
     7
370
    25
100
AcDbSpline
210
0.0
220
0.0
230
1.0
 70
    11
 71
     3
 72
    31
 73
    27
 74
     0
 42
0.00000001
 43
0.00000001
 40
0.0
 40
0.0
 40
0.0
 40
0.0
 40
0.0598642110986526
 40
0.0920901650595473
 40
0.125000000000005
 40
0.1579098349404624
 40
0.1901357889013572
 40
0.2500000000000046
 40
0.3098642110986524
 40
0.3420901650595474
 40
0.3750000000000048
 40
0.4079098349404624
 40
0.440135788901357
 40
0.5000000000000048
 40
0.5598642110986525
 40
0.5920901650595473
 40
0.6250000000000049
 40
0.6579098349404624
 40
0.6901357889013572
 40
0.7500000000000049
 40
0.8098642110986528
 40
0.8420901650595475
 40
0.8750000000000048
 40
0.9079098349404622
 40
0.9401357889013572
 40
1.0
 40
1.0
 40
1.0
 40
1.0
 10
6231.668755336091
 20
5248.903748586623
 30
0.0
 10
6232.096527155139
 20
5249.093652204805
 30
0.0
 10
6232.754576041127
 20
5249.385784268735
 30
0.0
 10
6233.731495595764
 20
5249.417051921235
 30
0.0
 10
6234.48289844851
 20
5249.299472415939
 30
0.0
 10
6235.195496099344
 20
5249.026423732096
 30
0.0
 10
6236.013264651175
 20
5248.503886678019
 30
0.0
 10
6236.800458875256
 20
5247.594112235146
 30
0.0
 10
6237.194673089141
 20
5246.45762723897
 30
0.0
 10
6237.238449779522
 20
5245.48792416052
 30
0.0
 10
6237.118206674643
 20
5244.734984674671
 30
0.0
 10
6236.845869756196
 20
5244.022797641586
 30
0.0
 10
6236.323110662141
 20
5243.20490099657
 30
0.0
 10
6235.413439073176
 20
5242.417766095714
 30
0.0
 10
6234.276924458348
 20
5242.023534840998
 30
0.0
 10
6233.307225639065
 20
5241.979760507994
 30
0.0
 10
6232.554285116945
 20
5242.100003334773
 30
0.0
 10
6231.842098842248
 20
5242.372339494243
 30
0.0
 10
6231.024199687372
 20
5242.895102759431
 30
0.0
 10
6230.237081916605
 20
5243.804744781277
 30
0.0
 10
6229.842791249405
 20
5244.94136219848
 30
0.0
 10
6229.799145162071
 20
5245.910839065819
 30
0.0
 10
6229.918976890811
 20
5246.664491076041
 30
0.0
 10
6230.192851478632
 20
5247.374014787642
 30
0.0
 10
6230.708389837334
 20
5248.204418113162
 30
0.0
 10
6231.29040806895
 20
5248.628239133395
 30
0.0
 10
6231.668755336091
 20
5248.903748586623
 30
0.0
  0
CIRCLE
  5
B0
330
1F
100
AcDbEntity
  8
0
  6
SLD-Plná
 62
     7
370
    25
100
AcDbCircle
 10
6233.5187553361
 20
5245.6994545926
 30
0.0
 40
5.300000000000196
  0
CIRCLE
  5
B1
330
1F
100
AcDbEntity
  8
0
  6
SLD-Plná
 62
     7
370
    25
100
AcDbCircle
 10
6233.5170065055
 20
5245.6987215531
 30
0.0
 40
5.814562096921011
  0
SPLINE
  5
B2
330
1F
100
AcDbEntity
  8
0
  6
SLD-Plná
 62
     7
370
    25
100
AcDbSpline
210
0.0
220
0.0
230
1.0
 70
    11
 71
     3
 72
    39
 73
    35
 74
     0
 42
0.00000001
 43
0.00000001
 40
0.0
 40
0.0
 40
0.0
 40
0.0
 40
0.0312500000000007
 40
0.0625000000000008
 40
0.0937500000000007
 40
0.1250000000000009
 40
0.1562500000000008
 40
0.1875000000000009
 40
0.2187500000000008
 40
0.2500000000000009
 40
0.2812500000000009
 40
0.312500000000001
 40
0.343750000000001
 40
0.375000000000001
 40
0.406250000000001
 40
0.4375000000000011
 40
0.468750000000001
 40
0.5000000000000011
 40
0.5312500000000011
 40
0.562500000000001
 40
0.5937500000000012
 40
0.6250000000000013
 40
0.6562500000000012
 40
0.6875000000000011
 40
0.7187500000000012
 40
0.7500000000000013
 40
0.7812500000000014
 40
0.8125000000000016
 40
0.8437500000000016
 40
0.8750000000000017
 40
0.9062500000000014
 40
0.9375000000000017
 40
0.9687500000000017
 40
1.0
 40
1.0
 40
1.0
 40
1.0
 10
6227.586481329201
 20
5242.274454576975
 30
0.0
 10
6227.832723410206
 20
5241.898938234726
 30
0.0
 10
6228.325207572217
 20
5241.147905550231
 30
0.0
 10
6229.324604382566
 20
5240.231537695711
 30
0.0
 10
6230.46881226781
 20
5239.515848870686
 30
0.0
 10
6231.734613491963
 20
5239.04032465233
 30
0.0
 10
6233.06780313188
 20
5238.820028587182
 30
0.0
 10
6234.418637493874
 20
5238.86428680247
 30
0.0
 10
6235.734805516889
 20
5239.171167970349
 30
0.0
 10
6236.965834581724
 20
5239.728940584458
 30
0.0
 10
6238.064388266635
 20
5240.516153206207
 30
0.0
 10
6238.988257450391
 20
5241.50255813053
 30
0.0
 10
6239.701936300305
 20
5242.650247181143
 30
0.0
 10
6240.177999089869
 20
5243.915115629847
 30
0.0
 10
6240.398150845296
 20
5245.248555206193
 30
0.0
 10
6240.353931297685
 20
5246.599322597924
 30
0.0
 10
6240.047039768824
 20
5247.915508565561
 30
0.0
 10
6239.489269930964
 20
5249.146532822168
 30
0.0
 10
6238.702056565202
 20
5250.245087795372
 30
0.0
 10
6237.71565184068
 20
5251.168956634185
 30
0.0
 10
6236.567962734878
 20
5251.882635575573
 30
0.0
 10
6235.303094307126
 20
5252.358698344186
 30
0.0
 10
6233.969654702161
 20
5252.578850091945
 30
0.0
 10
6232.618887403961
 20
5252.534630595957
 30
0.0
 10
6231.30270109082
 20
5252.22773886827
 30
0.0
 10
6230.071678122693
 20
5251.669969774096
 30
0.0
 10
6228.973118341073
 20
5250.882753632411
 30
0.0
 10
6228.049267447444
 20
5249.896359267897
 30
0.0
 10
6227.335521533735
 20
5248.748631497983
 30
0.0
 10
6226.859708709219
 20
5247.48390736667
 30
0.0
 10
6226.638624157392
 20
5246.149929240067
 30
0.0
 10
6226.686324925561
 20
5244.801171731974
 30
0.0
 10
6226.980224368594
 20
5243.477484780042
 30
0.0
 10
6227.384395675665
 20
5242.675464644663
 30
0.0
 10
6227.586481329201
 20
5242.274454576975
 30
0.0
  0
SPLINE
  5
B3
330
1F
100
AcDbEntity
  8
0
  6
SLD-Plná
 62
     7
370
    25
100
AcDbSpline
210
0.0
220
0.0
230
1.0
 70
     8
 71
     3
 72
     9
 73
     5
 74
     0
 42
0.00000001
 43
0.00000001
 40
0.0
 40
0.0
 40
0.0
 40
0.0
 40
0.4952156616863527
 40
1.0
 40
1.0
 40
1.0
 40
1.0
 10
6223.703800748463
 20
5245.699454612372
 30
0.0
 10
6224.513827162516
 20
5244.29644771096
 30
0.0
 10
6226.149531516642
 20
5241.463324669911
 30
0.0
 10
6227.785477908328
 20
5238.629782368382
 30
0.0
 10
6228.611278025171
 20
5237.199454592621
 30
0.0
  0
SPLINE
  5
B4
330
1F
100
AcDbEntity
  8
0
  6
SLD-Plná
 62
     7
370
    25
100
AcDbSpline
210
0.0
220
0.0
230
1.0
 70
     8
 71
     3
 72
     9
 73
     5
 74
     0
 42
0.00000001
 43
0.00000001
 40
0.0
 40
0.0
 40
0.0
 40
0.0
 40
0.4952156616863539
 40
1.0
 40
1.0
 40
1.0
 40
1.0
 10
6228.611278059382
 20
5254.199454612372
 30
0.0
 10
6227.8012516481
 20
5252.796447709361
 30
0.0
 10
6226.165547299567
 20
5249.963324665082
 30
0.0
 10
6224.529600879589
 20
5247.129782379888
 30
0.0
 10
6223.703800748463
 20
5245.699454612372
 30
0.0
  0
SPLINE
  5
B5
330
1F
100
AcDbEntity
  8
0
  6
SLD-Plná
 62
     7
370
    25
100
AcDbSpline
210
0.0
220
0.0
230
1.0
 70
     8
 71
     3
 72
     9
 73
     5
 74
     0
 42
0.00000001
 43
0.00000001
 40
0.0
 40
0.0
 40
0.0
 40
0.0
 40
0.49521566168635
 40
1.0
 40
1.0
 40
1.0
 40
1.0
 10
6238.42623264701
 20
5254.19945459262
 30
0.0
 10
6236.806179821675
 20
5254.199454591022
 30
0.0
 10
6233.534771119016
 20
5254.199454587792
 30
0.0
 10
6230.262878307352
 20
5254.199454604127
 30
0.0
 10
6228.611278059382
 20
5254.199454612372
 30
0.0
  0
SPLINE
  5
B6
330
1F
100
AcDbEntity
  8
0
  6
SLD-Plná
 62
     7
370
    25
100
AcDbSpline
210
0.0
220
0.0
230
1.0
 70
     8
 71
     3
 72
     9
 73
     5
 74
     0
 42
0.00000001
 43
0.00000001
 40
0.0
 40
0.0
 40
0.0
 40
0.0
 40
0.4952156654701729
 40
1.0
 40
1.0
 40
1.0
 40
1.0
 10
6243.333709888132
 20
5245.699454634504
 30
0.0
 10
6242.523683473632
 20
5247.102461536694
 30
0.0
 10
6240.887979131097
 20
5249.935584557667
 30
0.0
 10
6239.25203275154
 20
5252.769126838186
 30
0.0
 10
6238.42623264701
 20
5254.19945459262
 30
0.0
  0
SPLINE
  5
B7
330
1F
100
AcDbEntity
  8
0
  6
SLD-Plná
 62
     7
370
    25
100
AcDbSpline
210
0.0
220
0.0
230
1.0
 70
     8
 71
     3
 72
     9
 73
     5
 74
     0
 42
0.00000001
 43
0.00000001
 40
0.0
 40
0.0
 40
0.0
 40
0.0
 40
0.495215666569047
 40
1.0
 40
1.0
 40
1.0
 40
1.0
 10
6238.426232612799
 20
5237.199454572869
 30
0.0
 10
6239.236259039305
 20
5238.602461492269
 30
0.0
 10
6240.871963402452
 20
5241.435584541705
 30
0.0
 10
6242.507909784262
 20
5244.269126862735
 30
0.0
 10
6243.333709888132
 20
5245.699454634504
 30
0.0
  0
SPLINE
  5
B8
330
1F
100
AcDbEntity
  8
0
  6
SLD-Plná
 62
     7
370
    25
100
AcDbSpline
210
0.0
220
0.0
230
1.0
 70
     8
 71
     3
 72
     9
 73
     5
 74
     0
 42
0.00000001
 43
0.00000001
 40
0.0
 40
0.0
 40
0.0
 40
0.0
 40
0.4952156616863609
 40
1.0
 40
1.0
 40
1.0
 40
1.0
 10
6228.611278025171
 20
5237.199454592621
 30
0.0
 10
6230.231330850505
 20
5237.199454594221
 30
0.0
 10
6233.502739553164
 20
5237.199454597449
 30
0.0
 10
6236.77463236483
 20
5237.199454581115
 30
0.0
 10
6238.426232612799
 20
5237.199454572869
 30
0.0
  0
SPLINE
  5
B9
330
1F
100
AcDbEntity
  8
0
  6
SLD-Plná
 62
     7
370
    25
100
AcDbSpline
210
0.0
220
0.0
230
1.0
 70
    11
 71
     3
 72
    31
 73
    27
 74
     0
 42
0.00000001
 43
0.00000001
 40
0.0
 40
0.0
 40
0.0
 40
0.0
 40
0.0598642110986526
 40
0.0920901650595473
 40
0.1250000000000051
 40
0.1579098349404625
 40
0.1901357889013572
 40
0.2500000000000047
 40
0.3098642110986528
 40
0.3420901650595475
 40
0.3750000000000049
 40
0.4079098349404624
 40
0.440135788901357
 40
0.5000000000000049
 40
0.5598642110986526
 40
0.5920901650595474
 40
0.6250000000000051
 40
0.6579098349404625
 40
0.6901357889013572
 40
0.7500000000000051
 40
0.8098642110986527
 40
0.8420901650595475
 40
0.8750000000000048
 40
0.9079098349404622
 40
0.9401357889013572
 40
1.0
 40
1.0
 40
1.0
 40
1.0
 10
6231.668755336091
 20
5267.903748586624
 30
0.0
 10
6232.096527155139
 20
5268.093652204805
 30
0.0
 10
6232.754576041127
 20
5268.385784268734
 30
0.0
 10
6233.731495595765
 20
5268.417051921235
 30
0.0
 10
6234.48289844851
 20
5268.299472415938
 30
0.0
 10
6235.195496099345
 20
5268.026423732096
 30
0.0
 10
6236.013264651175
 20
5267.503886678019
 30
0.0
 10
6236.800458875256
 20
5266.594112235146
 30
0.0
 10
6237.194673089141
 20
5265.45762723897
 30
0.0
 10
6237.238449779523
 20
5264.48792416052
 30
0.0
 10
6237.118206674644
 20
5263.734984674671
 30
0.0
 10
6236.845869756196
 20
5263.022797641587
 30
0.0
 10
6236.323110662141
 20
5262.204900996569
 30
0.0
 10
6235.413439073176
 20
5261.417766095713
 30
0.0
 10
6234.276924458348
 20
5261.023534840998
 30
0.0
 10
6233.307225639065
 20
5260.979760507994
 30
0.0
 10
6232.554285116945
 20
5261.100003334774
 30
0.0
 10
6231.842098842248
 20
5261.372339494244
 30
0.0
 10
6231.024199687373
 20
5261.895102759431
 30
0.0
 10
6230.237081916606
 20
5262.804744781277
 30
0.0
 10
6229.842791249406
 20
5263.94136219848
 30
0.0
 10
6229.799145162071
 20
5264.910839065819
 30
0.0
 10
6229.918976890811
 20
5265.664491076041
 30
0.0
 10
6230.192851478633
 20
5266.374014787642
 30
0.0
 10
6230.708389837334
 20
5267.204418113162
 30
0.0
 10
6231.29040806895
 20
5267.628239133395
 30
0.0
 10
6231.668755336091
 20
5267.903748586624
 30
0.0
  0
CIRCLE
  5
BA
330
1F
100
AcDbEntity
  8
0
  6
SLD-Plná
 62
     7
370
    25
100
AcDbCircle
 10
6233.5187553361
 20
5264.6994545926
 30
0.0
 40
5.300000000000196
  0
CIRCLE
  5
BB
330
1F
100
AcDbEntity
  8
0
  6
SLD-Plná
 62
     7
370
    25
100
AcDbCircle
 10
6233.5170065055
 20
5264.6987215531
 30
0.0
 40
5.814562096922375
  0
SPLINE
  5
BC
330
1F
100
AcDbEntity
  8
0
  6
SLD-Plná
 62
     7
370
    25
100
AcDbSpline
210
0.0
220
0.0
230
1.0
 70
    11
 71
     3
 72
    39
 73
    35
 74
     0
 42
0.00000001
 43
0.00000001
 40
0.0
 40
0.0
 40
0.0
 40
0.0
 40
0.0312500000000007
 40
0.0625000000000008
 40
0.0937500000000007
 40
0.1250000000000008
 40
0.1562500000000008
 40
0.1875000000000009
 40
0.2187500000000008
 40
0.2500000000000009
 40
0.2812500000000009
 40
0.3125000000000008
 40
0.3437500000000009
 40
0.3750000000000008
 40
0.4062500000000009
 40
0.437500000000001
 40
0.4687500000000009
 40
0.500000000000001
 40
0.5312500000000011
 40
0.562500000000001
 40
0.5937500000000011
 40
0.6250000000000012
 40
0.6562500000000012
 40
0.687500000000001
 40
0.7187500000000011
 40
0.7500000000000012
 40
0.7812500000000013
 40
0.8125000000000014
 40
0.8437500000000013
 40
0.8750000000000014
 40
0.9062500000000012
 40
0.9375000000000016
 40
0.9687500000000014
 40
1.0
 40
1.0
 40
1.0
 40
1.0
 10
6227.586481329201
 20
5261.274454576975
 30
0.0
 10
6227.832723410207
 20
5260.898938234726
 30
0.0
 10
6228.325207572217
 20
5260.147905550231
 30
0.0
 10
6229.324604382566
 20
5259.231537695712
 30
0.0
 10
6230.46881226781
 20
5258.515848870686
 30
0.0
 10
6231.734613491963
 20
5258.040324652329
 30
0.0
 10
6233.06780313188
 20
5257.820028587182
 30
0.0
 10
6234.418637493874
 20
5257.86428680247
 30
0.0
 10
6235.734805516889
 20
5258.171167970349
 30
0.0
 10
6236.965834581725
 20
5258.728940584458
 30
0.0
 10
6238.064388266636
 20
5259.516153206207
 30
0.0
 10
6238.988257450391
 20
5260.50255813053
 30
0.0
 10
6239.701936300306
 20
5261.650247181143
 30
0.0
 10
6240.177999089869
 20
5262.915115629847
 30
0.0
 10
6240.398150845297
 20
5264.248555206192
 30
0.0
 10
6240.353931297685
 20
5265.599322597924
 30
0.0
 10
6240.047039768825
 20
5266.915508565561
 30
0.0
 10
6239.489269930964
 20
5268.146532822168
 30
0.0
 10
6238.702056565203
 20
5269.245087795372
 30
0.0
 10
6237.71565184068
 20
5270.168956634185
 30
0.0
 10
6236.567962734878
 20
5270.882635575573
 30
0.0
 10
6235.303094307127
 20
5271.358698344186
 30
0.0
 10
6233.969654702161
 20
5271.578850091945
 30
0.0
 10
6232.618887403961
 20
5271.534630595957
 30
0.0
 10
6231.302701090821
 20
5271.22773886827
 30
0.0
 10
6230.071678122693
 20
5270.669969774095
 30
0.0
 10
6228.973118341074
 20
5269.882753632411
 30
0.0
 10
6228.049267447444
 20
5268.896359267897
 30
0.0
 10
6227.335521533735
 20
5267.748631497984
 30
0.0
 10
6226.85970870922
 20
5266.48390736667
 30
0.0
 10
6226.638624157392
 20
5265.149929240068
 30
0.0
 10
6226.686324925561
 20
5263.801171731974
 30
0.0
 10
6226.980224368595
 20
5262.477484780042
 30
0.0
 10
6227.384395675665
 20
5261.675464644663
 30
0.0
 10
6227.586481329201
 20
5261.274454576975
 30
0.0
  0
SPLINE
  5
BD
330
1F
100
AcDbEntity
  8
0
  6
SLD-Plná
 62
     7
370
    25
100
AcDbSpline
210
0.0
220
0.0
230
1.0
 70
     8
 71
     3
 72
     9
 73
     5
 74
     0
 42
0.00000001
 43
0.00000001
 40
0.0
 40
0.0
 40
0.0
 40
0.0
 40
0.4952156616863529
 40
1.0
 40
1.0
 40
1.0
 40
1.0
 10
6223.703800748463
 20
5264.699454612373
 30
0.0
 10
6224.513827162516
 20
5263.29644771096
 30
0.0
 10
6226.149531516642
 20
5260.463324669911
 30
0.0
 10
6227.785477908328
 20
5257.629782368383
 30
0.0
 10
6228.611278025171
 20
5256.199454592621
 30
0.0
  0
SPLINE
  5
BE
330
1F
100
AcDbEntity
  8
0
  6
SLD-Plná
 62
     7
370
    25
100
AcDbSpline
210
0.0
220
0.0
230
1.0
 70
     8
 71
     3
 72
     9
 73
     5
 74
     0
 42
0.00000001
 43
0.00000001
 40
0.0
 40
0.0
 40
0.0
 40
0.0
 40
0.4952156616863536
 40
1.0
 40
1.0
 40
1.0
 40
1.0
 10
6228.611278059382
 20
5273.199454612372
 30
0.0
 10
6227.801251648101
 20
5271.796447709361
 30
0.0
 10
6226.165547299568
 20
5268.963324665082
 30
0.0
 10
6224.529600879589
 20
5266.129782379889
 30
0.0
 10
6223.703800748463
 20
5264.699454612373
 30
0.0
  0
SPLINE
  5
BF
330
1F
100
AcDbEntity
  8
0
  6
SLD-Plná
 62
     7
370
    25
100
AcDbSpline
210
0.0
220
0.0
230
1.0
 70
     8
 71
     3
 72
     9
 73
     5
 74
     0
 42
0.00000001
 43
0.00000001
 40
0.0
 40
0.0
 40
0.0
 40
0.0
 40
0.4952156616863496
 40
1.0
 40
1.0
 40
1.0
 40
1.0
 10
6238.42623264701
 20
5273.19945459262
 30
0.0
 10
6236.806179821675
 20
5273.199454591022
 30
0.0
 10
6233.534771119017
 20
5273.199454587792
 30
0.0
 10
6230.262878307352
 20
5273.199454604127
 30
0.0
 10
6228.611278059382
 20
5273.199454612372
 30
0.0
  0
SPLINE
  5
C0
330
1F
100
AcDbEntity
  8
0
  6
SLD-Plná
 62
     7
370
    25
100
AcDbSpline
210
0.0
220
0.0
230
1.0
 70
     8
 71
     3
 72
     9
 73
     5
 74
     0
 42
0.00000001
 43
0.00000001
 40
0.0
 40
0.0
 40
0.0
 40
0.0
 40
0.4952156654701729
 40
0.9999999999999999
 40
0.9999999999999999
 40
0.9999999999999999
 40
0.9999999999999999
 10
6243.333709888133
 20
5264.699454634505
 30
0.0
 10
6242.523683473632
 20
5266.102461536694
 30
0.0
 10
6240.887979131097
 20
5268.935584557667
 30
0.0
 10
6239.25203275154
 20
5271.769126838186
 30
0.0
 10
6238.42623264701
 20
5273.19945459262
 30
0.0
  0
SPLINE
  5
C1
330
1F
100
AcDbEntity
  8
0
  6
SLD-Plná
 62
     7
370
    25
100
AcDbSpline
210
0.0
220
0.0
230
1.0
 70
     8
 71
     3
 72
     9
 73
     5
 74
     0
 42
0.00000001
 43
0.00000001
 40
0.0
 40
0.0
 40
0.0
 40
0.0
 40
0.495215666569047
 40
1.0
 40
1.0
 40
1.0
 40
1.0
 10
6238.426232612799
 20
5256.199454572869
 30
0.0
 10
6239.236259039305
 20
5257.602461492268
 30
0.0
 10
6240.871963402452
 20
5260.435584541705
 30
0.0
 10
6242.507909784262
 20
5263.269126862735
 30
0.0
 10
6243.333709888133
 20
5264.699454634505
 30
0.0
  0
SPLINE
  5
C2
330
1F
100
AcDbEntity
  8
0
  6
SLD-Plná
 62
     7
370
    25
100
AcDbSpline
210
0.0
220
0.0
230
1.0
 70
     8
 71
     3
 72
     9
 73
     5
 74
     0
 42
0.00000001
 43
0.00000001
 40
0.0
 40
0.0
 40
0.0
 40
0.0
 40
0.4952156616863609
 40
1.0
 40
1.0
 40
1.0
 40
1.0
 10
6228.611278025171
 20
5256.199454592621
 30
0.0
 10
6230.231330850506
 20
5256.199454594221
 30
0.0
 10
6233.502739553165
 20
5256.19945459745
 30
0.0
 10
6236.77463236483
 20
5256.199454581115
 30
0.0
 10
6238.426232612799
 20
5256.199454572869
 30
0.0
  0
SPLINE
  5
C3
330
1F
100
AcDbEntity
  8
0
  6
SLD-Plná
 62
     7
370
    25
100
AcDbSpline
210
0.0
220
0.0
230
1.0
 70
    11
 71
     3
 72
    31
 73
    27
 74
     0
 42
0.00000001
 43
0.00000001
 40
0.0
 40
0.0
 40
0.0
 40
0.0
 40
0.0598642110986526
 40
0.0920901650595473
 40
0.1250000000000051
 40
0.1579098349404626
 40
0.190135788901357
 40
0.2500000000000048
 40
0.3098642110986528
 40
0.3420901650595476
 40
0.3750000000000047
 40
0.4079098349404625
 40
0.4401357889013571
 40
0.5000000000000049
 40
0.5598642110986527
 40
0.5920901650595474
 40
0.6250000000000051
 40
0.6579098349404626
 40
0.690135788901357
 40
0.7500000000000049
 40
0.8098642110986528
 40
0.8420901650595476
 40
0.8750000000000047
 40
0.9079098349404623
 40
0.9401357889013571
 40
1.0
 40
1.0
 40
1.0
 40
1.0
 10
6231.668755336091
 20
5286.903748586624
 30
0.0
 10
6232.096527155139
 20
5287.093652204804
 30
0.0
 10
6232.754576041127
 20
5287.385784268734
 30
0.0
 10
6233.731495595765
 20
5287.417051921235
 30
0.0
 10
6234.48289844851
 20
5287.299472415938
 30
0.0
 10
6235.195496099345
 20
5287.026423732096
 30
0.0
 10
6236.013264651175
 20
5286.503886678019
 30
0.0
 10
6236.800458875256
 20
5285.594112235146
 30
0.0
 10
6237.194673089142
 20
5284.45762723897
 30
0.0
 10
6237.238449779523
 20
5283.487924160519
 30
0.0
 10
6237.118206674644
 20
5282.734984674671
 30
0.0
 10
6236.845869756196
 20
5282.022797641587
 30
0.0
 10
6236.323110662141
 20
5281.204900996569
 30
0.0
 10
6235.413439073177
 20
5280.417766095713
 30
0.0
 10
6234.276924458348
 20
5280.023534840998
 30
0.0
 10
6233.307225639065
 20
5279.979760507994
 30
0.0
 10
6232.554285116945
 20
5280.100003334773
 30
0.0
 10
6231.842098842248
 20
5280.372339494244
 30
0.0
 10
6231.024199687373
 20
5280.89510275943
 30
0.0
 10
6230.237081916606
 20
5281.804744781277
 30
0.0
 10
6229.842791249406
 20
5282.94136219848
 30
0.0
 10
6229.799145162071
 20
5283.910839065819
 30
0.0
 10
6229.918976890812
 20
5284.664491076041
 30
0.0
 10
6230.192851478633
 20
5285.374014787642
 30
0.0
 10
6230.708389837334
 20
5286.204418113162
 30
0.0
 10
6231.29040806895
 20
5286.628239133395
 30
0.0
 10
6231.668755336091
 20
5286.903748586624
 30
0.0
  0
CIRCLE
  5
C4
330
1F
100
AcDbEntity
  8
0
  6
SLD-Plná
 62
     7
370
    25
100
AcDbCircle
 10
6233.5187553361
 20
5283.6994545926
 30
0.0
 40
5.300000000000196
  0
CIRCLE
  5
C5
330
1F
100
AcDbEntity
  8
0
  6
SLD-Plná
 62
     7
370
    25
100
AcDbCircle
 10
6233.5170065055
 20
5283.6987215531
 30
0.0
 40
5.814562096922375
  0
SPLINE
  5
C6
330
1F
100
AcDbEntity
  8
0
  6
SLD-Plná
 62
     7
370
    25
100
AcDbSpline
210
0.0
220
0.0
230
1.0
 70
    11
 71
     3
 72
    39
 73
    35
 74
     0
 42
0.00000001
 43
0.00000001
 40
0.0
 40
0.0
 40
0.0
 40
0.0
 40
0.0312500000000006
 40
0.0625000000000008
 40
0.0937500000000007
 40
0.1250000000000008
 40
0.1562500000000007
 40
0.1875000000000008
 40
0.2187500000000007
 40
0.2500000000000008
 40
0.2812500000000008
 40
0.3125000000000007
 40
0.3437500000000008
 40
0.3750000000000009
 40
0.4062500000000008
 40
0.4375000000000009
 40
0.468750000000001
 40
0.5000000000000008
 40
0.5312500000000008
 40
0.5625000000000009
 40
0.593750000000001
 40
0.6250000000000011
 40
0.656250000000001
 40
0.6875000000000009
 40
0.718750000000001
 40
0.7500000000000011
 40
0.7812500000000012
 40
0.8125000000000012
 40
0.8437500000000013
 40
0.8750000000000011
 40
0.9062500000000011
 40
0.9375000000000016
 40
0.9687500000000013
 40
1.0
 40
1.0
 40
1.0
 40
1.0
 10
6227.586481329201
 20
5280.274454576975
 30
0.0
 10
6227.832723410207
 20
5279.898938234726
 30
0.0
 10
6228.325207572217
 20
5279.147905550231
 30
0.0
 10
6229.324604382566
 20
5278.231537695712
 30
0.0
 10
6230.468812267811
 20
5277.515848870686
 30
0.0
 10
6231.734613491963
 20
5277.040324652329
 30
0.0
 10
6233.06780313188
 20
5276.820028587183
 30
0.0
 10
6234.418637493874
 20
5276.864286802471
 30
0.0
 10
6235.73480551689
 20
5277.171167970348
 30
0.0
 10
6236.965834581725
 20
5277.728940584458
 30
0.0
 10
6238.064388266636
 20
5278.516153206207
 30
0.0
 10
6238.988257450392
 20
5279.50255813053
 30
0.0
 10
6239.701936300306
 20
5280.650247181143
 30
0.0
 10
6240.17799908987
 20
5281.915115629847
 30
0.0
 10
6240.398150845297
 20
5283.248555206192
 30
0.0
 10
6240.353931297685
 20
5284.599322597923
 30
0.0
 10
6240.047039768825
 20
5285.915508565561
 30
0.0
 10
6239.489269930964
 20
5287.146532822168
 30
0.0
 10
6238.702056565203
 20
5288.245087795372
 30
0.0
 10
6237.71565184068
 20
5289.168956634186
 30
0.0
 10
6236.567962734878
 20
5289.882635575573
 30
0.0
 10
6235.303094307127
 20
5290.358698344186
 30
0.0
 10
6233.969654702161
 20
5290.578850091944
 30
0.0
 10
6232.618887403962
 20
5290.534630595956
 30
0.0
 10
6231.302701090821
 20
5290.22773886827
 30
0.0
 10
6230.071678122693
 20
5289.669969774096
 30
0.0
 10
6228.973118341074
 20
5288.882753632411
 30
0.0
 10
6228.049267447444
 20
5287.896359267897
 30
0.0
 10
6227.335521533735
 20
5286.748631497984
 30
0.0
 10
6226.85970870922
 20
5285.483907366669
 30
0.0
 10
6226.638624157392
 20
5284.149929240068
 30
0.0
 10
6226.686324925561
 20
5282.801171731973
 30
0.0
 10
6226.980224368595
 20
5281.477484780042
 30
0.0
 10
6227.384395675666
 20
5280.675464644663
 30
0.0
 10
6227.586481329201
 20
5280.274454576975
 30
0.0
  0
SPLINE
  5
C7
330
1F
100
AcDbEntity
  8
0
  6
SLD-Plná
 62
     7
370
    25
100
AcDbSpline
210
0.0
220
0.0
230
1.0
 70
     8
 71
     3
 72
     9
 73
     5
 74
     0
 42
0.00000001
 43
0.00000001
 40
0.0
 40
0.0
 40
0.0
 40
0.0
 40
0.4952156616863536
 40
1.0
 40
1.0
 40
1.0
 40
1.0
 10
6223.703800748463
 20
5283.699454612372
 30
0.0
 10
6224.513827162516
 20
5282.296447710961
 30
0.0
 10
6226.149531516643
 20
5279.463324669911
 30
0.0
 10
6227.785477908328
 20
5276.629782368382
 30
0.0
 10
6228.611278025172
 20
5275.199454592621
 30
0.0
  0
SPLINE
  5
C8
330
1F
100
AcDbEntity
  8
0
  6
SLD-Plná
 62
     7
370
    25
100
AcDbSpline
210
0.0
220
0.0
230
1.0
 70
     8
 71
     3
 72
     9
 73
     5
 74
     0
 42
0.00000001
 43
0.00000001
 40
0.0
 40
0.0
 40
0.0
 40
0.0
 40
0.4952156616863536
 40
1.0
 40
1.0
 40
1.0
 40
1.0
 10
6228.611278059382
 20
5292.199454612372
 30
0.0
 10
6227.801251648101
 20
5290.79644770936
 30
0.0
 10
6226.165547299568
 20
5287.963324665082
 30
0.0
 10
6224.529600879589
 20
5285.129782379888
 30
0.0
 10
6223.703800748463
 20
5283.699454612372
 30
0.0
  0
SPLINE
  5
C9
330
1F
100
AcDbEntity
  8
0
  6
SLD-Plná
 62
     7
370
    25
100
AcDbSpline
210
0.0
220
0.0
230
1.0
 70
     8
 71
     3
 72
     9
 73
     5
 74
     0
 42
0.00000001
 43
0.00000001
 40
0.0
 40
0.0
 40
0.0
 40
0.0
 40
0.4952156616863496
 40
1.0
 40
1.0
 40
1.0
 40
1.0
 10
6238.42623264701
 20
5292.199454592621
 30
0.0
 10
6236.806179821676
 20
5292.199454591021
 30
0.0
 10
6233.534771119017
 20
5292.199454587792
 30
0.0
 10
6230.262878307352
 20
5292.199454604127
 30
0.0
 10
6228.611278059382
 20
5292.199454612372
 30
0.0
  0
SPLINE
  5
CA
330
1F
100
AcDbEntity
  8
0
  6
SLD-Plná
 62
     7
370
    25
100
AcDbSpline
210
0.0
220
0.0
230
1.0
 70
     8
 71
     3
 72
     9
 73
     5
 74
     0
 42
0.00000001
 43
0.00000001
 40
0.0
 40
0.0
 40
0.0
 40
0.0
 40
0.4952156654701733
 40
1.0
 40
1.0
 40
1.0
 40
1.0
 10
6243.333709888133
 20
5283.699454634504
 30
0.0
 10
6242.523683473632
 20
5285.102461536694
 30
0.0
 10
6240.887979131097
 20
5287.935584557667
 30
0.0
 10
6239.25203275154
 20
5290.769126838186
 30
0.0
 10
6238.42623264701
 20
5292.199454592621
 30
0.0
  0
SPLINE
  5
CB
330
1F
100
AcDbEntity
  8
0
  6
SLD-Plná
 62
     7
370
    25
100
AcDbSpline
210
0.0
220
0.0
230
1.0
 70
     8
 71
     3
 72
     9
 73
     5
 74
     0
 42
0.00000001
 43
0.00000001
 40
0.0
 40
0.0
 40
0.0
 40
0.0
 40
0.4952156665690478
 40
0.9999999999999999
 40
0.9999999999999999
 40
0.9999999999999999
 40
0.9999999999999999
 10
6238.426232612799
 20
5275.199454572868
 30
0.0
 10
6239.236259039306
 20
5276.602461492268
 30
0.0
 10
6240.871963402452
 20
5279.435584541705
 30
0.0
 10
6242.507909784262
 20
5282.269126862735
 30
0.0
 10
6243.333709888133
 20
5283.699454634504
 30
0.0
  0
SPLINE
  5
CC
330
1F
100
AcDbEntity
  8
0
  6
SLD-Plná
 62
     7
370
    25
100
AcDbSpline
210
0.0
220
0.0
230
1.0
 70
     8
 71
     3
 72
     9
 73
     5
 74
     0
 42
0.00000001
 43
0.00000001
 40
0.0
 40
0.0
 40
0.0
 40
0.0
 40
0.4952156616863609
 40
1.0
 40
1.0
 40
1.0
 40
1.0
 10
6228.611278025172
 20
5275.199454592621
 30
0.0
 10
6230.231330850506
 20
5275.19945459422
 30
0.0
 10
6233.502739553165
 20
5275.19945459745
 30
0.0
 10
6236.77463236483
 20
5275.199454581115
 30
0.0
 10
6238.426232612799
 20
5275.199454572868
 30
0.0
  0
ARC
  5
CD
330
1F
100
AcDbEntity
  8
0
  6
SLD-Plná
 62
     7
370
    25
100
AcDbCircle
 10
6274.0187553361
 20
5102.6994545926
 30
0.0
 40
5.599999999999954
100
AcDbArc
 50
94.4980126049
 51
84.2523695851
  0
SPLINE
  5
CE
330
1F
100
AcDbEntity
  8
0
  6
SLD-Plná
 62
     7
370
    25
100
AcDbSpline
210
0.0
220
0.0
230
1.0
 70
    24
 71
     3
 72
    13
 73
     9
 74
     0
 42
0.00000001
 43
0.00000001
 40
0.0
 40
0.0
 40
0.0
 40
0.0
 40
0.0254342784919342
 40
0.2391405405228668
 40
0.4528843033372799
 40
0.6670512278740933
 40
0.8818628295038904
 40
1.0
 40
1.0
 40
1.0
 40
1.0
 10
6273.579578046369
 20
5108.282206898441
 30
0.0
 10
6273.579578046369
 20
5108.282172886157
 30
0.0
 10
6273.579578046369
 20
5108.281853092698
 30
0.0
 10
6273.579578046369
 20
5108.271664496185
 30
0.0
 10
6273.579578046369
 20
5108.236280243136
 30
0.0
 10
6273.579578046369
 20
5108.18345948623
 30
0.0
 10
6273.579578046369
 20
5108.128720310415
 30
0.0
 10
6273.579578046369
 20
5108.093915487278
 30
0.0
 10
6273.579578046369
 20
5108.081566009912
 30
0.0
  0
ARC
  5
CF
330
1F
100
AcDbEntity
  8
0
  6
SLD-Plná
 62
     7
370
    25
100
AcDbCircle
 10
6274.0187553361
 20
5102.6994545926
 30
0.0
 40
5.400000000000178
100
AcDbArc
 50
94.6649681226
 51
84.0387368535
  0
SPLINE
  5
D0
330
1F
100
AcDbEntity
  8
0
  6
SLD-Plná
 62
     7
370
    25
100
AcDbSpline
210
0.0
220
0.0
230
1.0
 70
    24
 71
     3
 72
    13
 73
     9
 74
     0
 42
0.00000001
 43
0.00000001
 40
0.0
 40
0.0
 40
0.0
 40
0.0
 40
0.0078315083444775
 40
0.2242134010656828
 40
0.440506527411377
 40
0.6560344530517136
 40
0.8704785517425164
 40
0.9999999999999999
 40
0.9999999999999999
 40
0.9999999999999999
 40
0.9999999999999999
 10
6274.57957804637
 20
5108.070253219226
 30
0.0
 10
6274.57957804637
 20
5108.071071858029
 30
0.0
 10
6274.57957804637
 20
5108.094509206486
 30
0.0
 10
6274.57957804637
 20
5108.140812713231
 30
0.0
 10
6274.57957804637
 20
5108.200814926087
 30
0.0
 10
6274.57957804637
 20
5108.245629808208
 30
0.0
 10
6274.57957804637
 20
5108.268275692328
 30
0.0
 10
6274.57957804637
 20
5108.27047379151
 30
0.0
 10
6274.57957804637
 20
5108.271301493563
 30
0.0
  0
ARC
  5
D1
330
1F
100
AcDbEntity
  8
0
  6
SLD-Plná
 62
     7
370
    25
100
AcDbCircle
 10
6273.5795780464
 20
5104.4847829441
 30
0.0
 40
0.5331629282974953
100
AcDbArc
 50
310.711185677
 51
90.0
  0
LINE
  5
D2
330
1F
100
AcDbEntity
  8
0
  6
SLD-Plná
 62
     7
370
    25
100
AcDbLine
 10
6273.5795780464
 20
5102.7526892956
 30
0.0
 11
6273.7658047081
 21
5102.5704762981
 31
0.0
  0
ARC
  5
D3
330
1F
100
AcDbEntity
  8
0
  6
SLD-Plná
 62
     7
370
    25
100
AcDbCircle
 10
6274.2658047081
 20
5100.0760594805
 30
0.0
 40
0.5000000000009095
100
AcDbArc
 50
180.0
 51
0.0
  0
LINE
  5
D4
330
1F
100
AcDbEntity
  8
0
  6
SLD-Plná
 62
     7
370
    25
100
AcDbLine
 10
6274.7658047081
 20
5100.0760594805
 30
0.0
 11
6274.7658047081
 21
5102.9910854708
 31
0.0
  0
LINE
  5
D5
330
1F
100
AcDbEntity
  8
0
  6
SLD-Plná
 62
     7
370
    25
100
AcDbLine
 10
6274.7658047081
 20
5102.9910854708
 30
0.0
 11
6274.5795780464
 21
5103.1732984684
 31
0.0
  0
LINE
  5
D6
330
1F
100
AcDbEntity
  8
0
  6
SLD-Plná
 62
     7
370
    25
100
AcDbLine
 10
6274.5795780464
 20
5103.1732984684
 30
0.0
 11
6274.5795780464
 21
5103.32263469
 31
0.0
  0
ARC
  5
D7
330
1F
100
AcDbEntity
  8
0
  6
SLD-Plná
 62
     7
370
    25
100
AcDbCircle
 10
6273.5795780464
 20
5104.4847829441
 30
0.0
 40
1.533162928297243
100
AcDbArc
 50
310.7111856769
 51
49.2888143231
  0
LINE
  5
D8
330
1F
100
AcDbEntity
  8
0
  6
SLD-Plná
 62
     7
370
    25
100
AcDbLine
 10
6273.5795780464
 20
5103.32263469
 30
0.0
 11
6273.5795780464
 21
5102.7526892956
 31
0.0
  0
LINE
  5
D9
330
1F
100
AcDbEntity
  8
0
  6
SLD-Plná
 62
     7
370
    25
100
AcDbLine
 10
6273.7658047081
 20
5102.5704762981
 30
0.0
 11
6273.7658047081
 21
5100.0760594805
 31
0.0
  0
ARC
  5
DA
330
1F
100
AcDbEntity
  8
0
  6
SLD-Plná
 62
     7
370
    25
100
AcDbCircle
 10
6274.5795780464
 20
5103.32263469
 30
0.0
 40
1.000000000000909
100
AcDbArc
 50
130.7111856769
 51
180.0
  0
LINE
  5
DB
330
1F
100
AcDbEntity
  8
0
  6
SLD-Plná
 62
     7
370
    25
100
AcDbLine
 10
6273.5795780464
 20
5108.0815660099
 30
0.0
 11
6273.5795780464
 21
5105.0179458724
 31
0.0
  0
LINE
  5
DC
330
1F
100
AcDbEntity
  8
0
  6
SLD-Plná
 62
     7
370
    25
100
AcDbLine
 10
6274.5795780464
 20
5105.6469311983
 30
0.0
 11
6274.5795780464
 21
5108.0702532192
 31
0.0
  0
CIRCLE
  5
DD
330
1F
100
AcDbEntity
  8
0
  6
SLD-Plná
 62
     7
370
    25
100
AcDbCircle
 10
6274.0187553361
 20
5098.6994545926
 30
0.0
 40
11.0
  0
ARC
  5
DE
330
1F
100
AcDbEntity
  8
0
  6
SLD-Plná
 62
     7
370
    25
100
AcDbCircle
 10
6274.0187553361
 20
5102.6994545926
 30
0.0
 40
5.599999999999954
100
AcDbArc
 50
84.2523695851
 51
94.4980126049
  0
CIRCLE
  5
DF
330
1F
100
AcDbEntity
  8
0
  6
SLD-Plná
 62
     7
370
    25
100
AcDbCircle
 10
6274.0187553361
 20
5098.6994545926
 30
0.0
 40
12.0
  0
LINE
  5
E0
330
1F
100
AcDbEntity
  8
0
  6
SLD-Plná
 62
     7
370
    25
100
AcDbLine
 10
6266.4187553361
 20
5338.5994545926
 30
0.0
 11
6206.6187553361
 21
5338.5994545926
 31
0.0
  0
LINE
  5
E1
330
1F
100
AcDbEntity
  8
0
  6
SLD-Plná
 62
     7
370
    25
100
AcDbLine
 10
6206.6187553361
 20
5308.7994545926
 30
0.0
 11
6266.4187553361
 21
5308.7994545926
 31
0.0
  0
LINE
  5
E2
330
1F
100
AcDbEntity
  8
0
  6
SLD-Plná
 62
     7
370
    25
100
AcDbLine
 10
6206.6187553361
 20
5338.5994545926
 30
0.0
 11
6206.6187553361
 21
5308.7994545926
 31
0.0
  0
LINE
  5
E3
330
1F
100
AcDbEntity
  8
0
  6
SLD-Plná
 62
     7
370
    25
100
AcDbLine
 10
6266.4187553361
 20
5308.7994545926
 30
0.0
 11
6266.4187553361
 21
5338.5994545926
 31
0.0
  0
LINE
  5
E4
330
1F
100
AcDbEntity
  8
0
  6
SLD-Plná
 62
     7
370
    25
100
AcDbLine
 10
6309.0120491257
 20
5215.1326838838
 30
0.0
 11
6308.4342320045
 21
5215.1326838838
 31
0.0
  0
ELLIPSE
  5
E5
330
1F
100
AcDbEntity
  8
0
  6
SLD-Plná
 62
     7
370
    25
100
AcDbEllipse
 10
6309.1342345802
 20
5215.1326838838
 30
0.0
 11
-3.637978807091712E-12
 21
7.000000000003637
 31
0.0
210
0.0
220
0.0
230
1.0
 40
0.0174550649
 41
1.570796327061369
 42
3.124139361071398
  0
LINE
  5
E6
330
1F
100
AcDbEntity
  8
0
  6
SLD-Plná
 62
     7
370
    25
100
AcDbLine
 10
6308.2798585186
 20
5208.1337500177
 30
0.0
 11
6309.13210215
 21
5208.1337500177
 31
0.0
  0
SPLINE
  5
E7
330
1F
100
AcDbEntity
  8
0
  6
SLD-Plná
 62
     7
370
    25
100
AcDbSpline
210
0.0
220
0.0
230
1.0
 70
     8
 71
     3
 72
    13
 73
     9
 74
     0
 42
0.00000001
 43
0.00000001
 40
0.0
 40
0.0
 40
0.0
 40
0.0
 40
0.1541635107559951
 40
0.300060298694916
 40
0.4376848620389396
 40
0.56703214511564
 40
0.7999180805073607
 40
1.0
 40
1.0
 40
1.0
 40
1.0
 10
6308.27985851912
 20
5208.133750017745
 30
0.0
 10
6308.292133936348
 20
5208.182079690793
 30
0.0
 10
6308.316026525081
 20
5208.276147450794
 30
0.0
 10
6308.347313551906
 20
5208.873639907993
 30
0.0
 10
6308.374033243622
 20
5209.704908587762
 30
0.0
 10
6308.401880016347
 20
5211.004457921666
 30
0.0
 10
6308.427443932464
 20
5212.837258295432
 30
0.0
 10
6308.432086564193
 20
5214.407190918879
 30
0.0
 10
6308.434232004455
 20
5215.132683883839
 30
0.0
  0
LINE
  5
E8
330
1F
100
AcDbEntity
  8
0
  6
SLD-Plná
 62
     7
370
    25
100
AcDbLine
 10
6315.9015786624
 20
5215.1326838838
 30
0.0
 11
6315.3237615412
 21
5215.1326838838
 31
0.0
  0
LINE
  5
E9
330
1F
100
AcDbEntity
  8
0
  6
SLD-Plná
 62
     7
370
    25
100
AcDbLine
 10
6315.3237615412
 20
5215.2985497717
 30
0.0
 11
6315.3237615412
 21
5215.1326838838
 31
0.0
  0
LINE
  5
EA
330
1F
100
AcDbEntity
  8
0
  6
SLD-Plná
 62
     7
370
    25
100
AcDbLine
 10
6309.0120491257
 20
5215.2985497717
 30
0.0
 11
6315.3237615412
 21
5215.2985497717
 31
0.0
  0
LINE
  5
EB
330
1F
100
AcDbEntity
  8
0
  6
SLD-Plná
 62
     7
370
    25
100
AcDbLine
 10
6309.0120491257
 20
5215.132683882
 30
0.0
 11
6309.0120491257
 21
5215.2985497717
 31
0.0
  0
LINE
  5
EC
330
1F
100
AcDbEntity
  8
0
  6
SLD-Plná
 62
     7
370
    25
100
AcDbLine
 10
6308.4342320045
 20
5215.1326838838
 30
0.0
 11
6308.4342320045
 21
5218.1504332477
 31
0.0
  0
LINE
  5
ED
330
1F
100
AcDbEntity
  8
0
  6
SLD-Plná
 62
     7
370
    25
100
AcDbLine
 10
6308.4342320045
 20
5218.1504332477
 30
0.0
 11
6315.9015786624
 21
5218.1504332477
 31
0.0
  0
LINE
  5
EE
330
1F
100
AcDbEntity
  8
0
  6
SLD-Plná
 62
     7
370
    25
100
AcDbLine
 10
6315.9015786624
 20
5218.1504332477
 30
0.0
 11
6315.9015786624
 21
5215.1326838838
 31
0.0
  0
SPLINE
  5
EF
330
1F
100
AcDbEntity
  8
0
  6
SLD-Plná
 62
     7
370
    25
100
AcDbSpline
210
0.0
220
0.0
230
1.0
 70
    24
 71
     3
 72
    11
 73
     7
 74
     0
 42
0.00000001
 43
0.00000001
 40
0.0
 40
0.0
 40
0.0
 40
0.0
 40
0.2500000000000281
 40
0.5000000000000222
 40
0.7500000000000107
 40
1.0
 40
1.0
 40
1.0
 40
1.0
 10
6307.43457467948
 20
5215.132683883839
 30
0.0
 10
6307.452467262567
 20
5215.132683883839
 30
0.0
 10
6307.488252428743
 20
5215.132683883839
 30
0.0
 10
6307.720679889576
 20
5215.132683883839
 30
0.0
 10
6308.047677280635
 20
5215.132683883839
 30
0.0
 10
6308.305380429848
 20
5215.132683883839
 30
0.0
 10
6308.434232004455
 20
5215.132683883839
 30
0.0
  0
LINE
  5
F0
330
1F
100
AcDbEntity
  8
0
  6
SLD-Plná
 62
     7
370
    25
100
AcDbLine
 10
6307.4345746795
 20
5218.235631725
 30
0.0
 11
6307.4345746795
 21
5215.1326838838
 31
0.0
  0
ELLIPSE
  5
F1
330
1F
100
AcDbEntity
  8
0
  6
SLD-Plná
 62
     7
370
    25
100
AcDbEllipse
 10
6308.4342320045
 20
5218.2379219112
 30
0.0
 11
1.0
 21
9.094947017729282E-13
 31
0.0
210
0.0
220
0.0
230
1.0
 40
0.0874886635
 41
3.167772592363786
 42
4.712388980384612
  0
LINE
  5
F2
330
1F
100
AcDbEntity
  8
0
  6
SLD-Plná
 62
     7
370
    25
100
AcDbLine
 10
6315.2037085169
 20
5208.1337500177
 30
0.0
 11
6316.0559521484
 21
5208.1337500177
 31
0.0
  0
ELLIPSE
  5
F3
330
1F
100
AcDbEntity
  8
0
  6
SLD-Plná
 62
     7
370
    25
100
AcDbEllipse
 10
6315.2015760867
 20
5215.1326838838
 30
0.0
 11
-4.547473508864641E-12
 21
7.000000000003637
 31
0.0
210
0.0
220
0.0
230
1.0
 40
0.0174550649
 41
3.159045946094265
 42
4.712388980384679
  0
SPLINE
  5
F4
330
1F
100
AcDbEntity
  8
0
  6
SLD-Plná
 62
     7
370
    25
100
AcDbSpline
210
0.0
220
0.0
230
1.0
 70
     8
 71
     3
 72
    13
 73
     9
 74
     0
 42
0.00000001
 43
0.00000001
 40
0.0
 40
0.0
 40
0.0
 40
0.0
 40
0.2000819194929259
 40
0.4329678548847417
 40
0.5623151379614175
 40
0.6999397013053669
 40
0.845836489244174
 40
0.9999999999999999
 40
0.9999999999999999
 40
0.9999999999999999
 40
0.9999999999999999
 10
6315.901578662449
 20
5215.132683883844
 30
0.0
 10
6315.903724102711
 20
5214.407190918881
 30
0.0
 10
6315.908366734442
 20
5212.837258295434
 30
0.0
 10
6315.933930650562
 20
5211.00445792167
 30
0.0
 10
6315.961777423287
 20
5209.704908587767
 30
0.0
 10
6315.988497115003
 20
5208.873639907999
 30
0.0
 10
6316.019784141829
 20
5208.276147450801
 30
0.0
 10
6316.043676730563
 20
5208.182079690799
 30
0.0
 10
6316.055952147791
 20
5208.13375001775
 30
0.0
  0
LINE
  5
F5
330
1F
100
AcDbEntity
  8
0
  6
SLD-Plná
 62
     7
370
    25
100
AcDbLine
 10
6316.9012359874
 20
5215.1326838838
 30
0.0
 11
6316.9012359874
 21
5218.235631725
 31
0.0
  0
SPLINE
  5
F6
330
1F
100
AcDbEntity
  8
0
  6
SLD-Plná
 62
     7
370
    25
100
AcDbSpline
210
0.0
220
0.0
230
1.0
 70
    24
 71
     3
 72
    11
 73
     7
 74
     0
 42
0.00000001
 43
0.00000001
 40
0.0
 40
0.0
 40
0.0
 40
0.0
 40
0.2500000000000021
 40
0.5000000000000072
 40
0.7500000000000043
 40
1.0
 40
1.0
 40
1.0
 40
1.0
 10
6315.901578662449
 20
5215.132683883844
 30
0.0
 10
6316.030430237055
 20
5215.132683883844
 30
0.0
 10
6316.288133386269
 20
5215.132683883844
 30
0.0
 10
6316.615130777328
 20
5215.132683883844
 30
0.0
 10
6316.847558238161
 20
5215.132683883844
 30
0.0
 10
6316.883343404337
 20
5215.132683883844
 30
0.0
 10
6316.901235987424
 20
5215.132683883844
 30
0.0
  0
ELLIPSE
  5
F7
330
1F
100
AcDbEntity
  8
0
  6
SLD-Plná
 62
     7
370
    25
100
AcDbEllipse
 10
6315.9015786624
 20
5218.2379219112
 30
0.0
 11
1.000000000000909
 21
9.094947017729282E-13
 31
0.0
210
0.0
220
0.0
230
1.0
 40
0.0874886635
 41
4.712388980384612
 42
6.257005368395255
  0
ELLIPSE
  5
F8
330
1F
100
AcDbEntity
  8
0
  6
SLD-Plná
 62
     7
370
    25
100
AcDbEllipse
 10
6317.0583515168
 20
5215.1326838838
 30
0.0
 11
-3.637978807091713E-12
 21
6.000000000000909
 31
0.0
210
0.0
220
0.0
230
1.0
 40
0.0261859216
 41
1.570796326794881
 42
3.124139361066205
  0
SPLINE
  5
F9
330
1F
100
AcDbEntity
  8
0
  6
SLD-Plná
 62
     7
370
    25
100
AcDbSpline
210
0.0
220
0.0
230
1.0
 70
     8
 71
     3
 72
    11
 73
     7
 74
     0
 42
0.00000001
 43
0.00000001
 40
0.0
 40
0.0
 40
0.0
 40
0.0
 40
0.2500000000000163
 40
0.5000000000000193
 40
0.7500000000000197
 40
1.0
 40
1.0
 40
1.0
 40
1.0
 10
6316.055952148354
 20
5208.133750017751
 30
0.0
 10
6316.186906179331
 20
5208.148830215406
 30
0.0
 10
6316.448814241287
 20
5208.178990610716
 30
0.0
 10
6316.779184882635
 20
5208.410227249504
 30
0.0
 10
6317.010377493889
 20
5208.740660805316
 30
0.0
 10
6317.040532146473
 20
5209.002618743872
 30
0.0
 10
6317.055609472765
 20
5209.13359771315
 30
0.0
  0
ELLIPSE
  5
FA
330
1F
100
AcDbEntity
  8
0
  6
SLD-Plná
 62
     7
370
    25
100
AcDbEllipse
 10
6307.2774591501
 20
5215.1326838838
 30
0.0
 11
-3.637978807091713E-12
 21
5.999999999995452
 31
0.0
210
0.0
220
0.0
230
1.0
 40
0.0261859216
 41
3.159045946108134
 42
4.712388980385128
  0
SPLINE
  5
FB
330
1F
100
AcDbEntity
  8
0
  6
SLD-Plná
 62
     7
370
    25
100
AcDbSpline
210
0.0
220
0.0
230
1.0
 70
     8
 71
     3
 72
    11
 73
     7
 74
     0
 42
0.00000001
 43
0.00000001
 40
0.0
 40
0.0
 40
0.0
 40
0.0
 40
0.2500000000000007
 40
0.4999999999999974
 40
0.7500000000000028
 40
0.9999999999999999
 40
0.9999999999999999
 40
0.9999999999999999
 40
0.9999999999999999
 10
6307.280201194144
 20
5209.133597713146
 30
0.0
 10
6307.295278520436
 20
5209.002618743868
 30
0.0
 10
6307.32543317302
 20
5208.740660805311
 30
0.0
 10
6307.556625784275
 20
5208.410227249498
 30
0.0
 10
6307.886996425624
 20
5208.178990610711
 30
0.0
 10
6308.148904487579
 20
5208.148830215401
 30
0.0
 10
6308.279858518557
 20
5208.133750017746
 30
0.0
  0
LINE
  5
FC
330
1F
100
AcDbEntity
  8
0
  6
SLD-Plná
 62
     7
370
    25
100
AcDbLine
 10
6306.9887285453
 20
5219.7252291912
 30
0.0
 11
6307.4345746795
 21
5218.235631725
 31
0.0
  0
LINE
  5
FD
330
1F
100
AcDbEntity
  8
0
  6
SLD-Plná
 62
     7
370
    25
100
AcDbLine
 10
6306.9887285453
 20
5219.7252291912
 30
0.0
 11
6309.0702326704
 21
5219.7252291912
 31
0.0
  0
LINE
  5
FE
330
1F
100
AcDbEntity
  8
0
  6
SLD-Plná
 62
     7
370
    25
100
AcDbLine
 10
6309.3439650648
 20
5218.3532216137
 30
0.0
 11
6309.0702326704
 21
5219.7252291912
 31
0.0
  0
LINE
  5
FF
330
1F
100
AcDbEntity
  8
0
  6
SLD-Plná
 62
     7
370
    25
100
AcDbLine
 10
6309.3439650648
 20
5218.3532216137
 30
0.0
 11
6314.9918456021
 21
5218.3532216137
 31
0.0
  0
LINE
  5
100
330
1F
100
AcDbEntity
  8
0
  6
SLD-Plná
 62
     7
370
    25
100
AcDbLine
 10
6315.2655779965
 20
5219.7252291912
 30
0.0
 11
6314.9918456021
 21
5218.3532216137
 31
0.0
  0
LINE
  5
101
330
1F
100
AcDbEntity
  8
0
  6
SLD-Plná
 62
     7
370
    25
100
AcDbLine
 10
6315.2655779965
 20
5219.7252291912
 30
0.0
 11
6317.3470821216
 21
5219.7252291912
 31
0.0
  0
LINE
  5
102
330
1F
100
AcDbEntity
  8
0
  6
SLD-Plná
 62
     7
370
    25
100
AcDbLine
 10
6317.3470821216
 20
5219.7252291912
 30
0.0
 11
6316.9012359874
 21
5218.235631725
 31
0.0
  0
LINE
  5
103
330
1F
100
AcDbEntity
  8
0
  6
SLD-Plná
 62
     7
370
    25
100
AcDbLine
 10
6309.0120491257
 20
5215.2985497717
 30
0.0
 11
6309.1982364824
 21
5214.7395334669
 31
0.0
  0
LINE
  5
104
330
1F
100
AcDbEntity
  8
0
  6
SLD-Plná
 62
     7
370
    25
100
AcDbLine
 10
6309.1982364824
 20
5214.7395334669
 30
0.0
 11
6309.5357010735
 21
5213.7263163932
 31
0.0
  0
LINE
  5
105
330
1F
100
AcDbEntity
  8
0
  6
SLD-Plná
 62
     7
370
    25
100
AcDbLine
 10
6309.5357010735
 20
5209.7207831502
 30
0.0
 11
6309.5357010735
 21
5213.7263163932
 31
0.0
  0
LINE
  5
106
330
1F
100
AcDbEntity
  8
0
  6
SLD-Plná
 62
     7
370
    25
100
AcDbLine
 10
6309.1863746666
 20
5209.0219174064
 30
0.0
 11
6309.5357010735
 21
5209.7207831502
 31
0.0
  0
LINE
  5
107
330
1F
100
AcDbEntity
  8
0
  6
SLD-Plná
 62
     7
370
    25
100
AcDbLine
 10
6309.1863746666
 20
5209.0219174064
 30
0.0
 11
6309.1863746666
 21
5208.0794775011
 31
0.0
  0
LINE
  5
108
330
1F
100
AcDbEntity
  8
0
  6
SLD-Plná
 62
     7
370
    25
100
AcDbLine
 10
6309.1863746666
 20
5208.0794775011
 30
0.0
 11
6309.13210215
 21
5208.1337500177
 31
0.0
  0
LINE
  5
109
330
1F
100
AcDbEntity
  8
0
  6
SLD-Plná
 62
     7
370
    25
100
AcDbLine
 10
6315.3237615412
 20
5215.2985497717
 30
0.0
 11
6315.1375741845
 21
5214.7395334669
 31
0.0
  0
LINE
  5
10A
330
1F
100
AcDbEntity
  8
0
  6
SLD-Plná
 62
     7
370
    25
100
AcDbLine
 10
6314.9918456021
 20
5215.1770747428
 30
0.0
 11
6315.1375741845
 21
5214.7395334669
 31
0.0
  0
LINE
  5
10B
330
1F
100
AcDbEntity
  8
0
  6
SLD-Plná
 62
     7
370
    25
100
AcDbLine
 10
6309.3439650648
 20
5215.1770747428
 30
0.0
 11
6314.9918456021
 21
5215.1770747428
 31
0.0
  0
LINE
  5
10C
330
1F
100
AcDbEntity
  8
0
  6
SLD-Plná
 62
     7
370
    25
100
AcDbLine
 10
6309.1982364824
 20
5214.7395334669
 30
0.0
 11
6309.3439650648
 21
5215.1770747428
 31
0.0
  0
LINE
  5
10D
330
1F
100
AcDbEntity
  8
0
  6
SLD-Plná
 62
     7
370
    25
100
AcDbLine
 10
6315.2037085169
 20
5208.1337500177
 30
0.0
 11
6315.1494360003
 21
5208.0794775011
 31
0.0
  0
LINE
  5
10E
330
1F
100
AcDbEntity
  8
0
  6
SLD-Plná
 62
     7
370
    25
100
AcDbLine
 10
6315.1494360003
 20
5209.0219174064
 30
0.0
 11
6315.1494360003
 21
5208.0794775011
 31
0.0
  0
LINE
  5
10F
330
1F
100
AcDbEntity
  8
0
  6
SLD-Plná
 62
     7
370
    25
100
AcDbLine
 10
6314.8001095934
 20
5209.7207831502
 30
0.0
 11
6315.1494360003
 21
5209.0219174064
 31
0.0
  0
LINE
  5
110
330
1F
100
AcDbEntity
  8
0
  6
SLD-Plná
 62
     7
370
    25
100
AcDbLine
 10
6314.8001095934
 20
5209.7207831502
 30
0.0
 11
6314.8001095934
 21
5213.7263163932
 31
0.0
  0
LINE
  5
111
330
1F
100
AcDbEntity
  8
0
  6
SLD-Plná
 62
     7
370
    25
100
AcDbLine
 10
6315.1375741845
 20
5214.7395334669
 30
0.0
 11
6314.8001095934
 21
5213.7263163932
 31
0.0
  0
LINE
  5
112
330
1F
100
AcDbEntity
  8
0
  6
SLD-Plná
 62
     7
370
    25
100
AcDbLine
 10
6317.3994539647
 20
5247.5841574782
 30
0.0
 11
6317.4570629922
 21
5247.6994545926
 31
0.0
  0
LINE
  5
113
330
1F
100
AcDbEntity
  8
0
  6
SLD-Plná
 62
     7
370
    25
100
AcDbLine
 10
6317.3994539647
 20
5246.614751707
 30
0.0
 11
6317.3994539647
 21
5247.5841574782
 31
0.0
  0
LINE
  5
114
330
1F
100
AcDbEntity
  8
0
  6
SLD-Plná
 62
     7
370
    25
100
AcDbLine
 10
6317.4570629922
 20
5246.4994545926
 30
0.0
 11
6317.3994539647
 21
5246.614751707
 31
0.0
  0
LINE
  5
115
330
1F
100
AcDbEntity
  8
0
  6
SLD-Plná
 62
     7
370
    25
100
AcDbLine
 10
6317.3994539648
 20
5215.1841574782
 30
0.0
 11
6317.4570629922
 21
5215.2994545926
 31
0.0
  0
LINE
  5
116
330
1F
100
AcDbEntity
  8
0
  6
SLD-Plná
 62
     7
370
    25
100
AcDbLine
 10
6317.3994539648
 20
5214.214751707
 30
0.0
 11
6317.3994539648
 21
5215.1841574782
 31
0.0
  0
LINE
  5
117
330
1F
100
AcDbEntity
  8
0
  6
SLD-Plná
 62
     7
370
    25
100
AcDbLine
 10
6317.4570629922
 20
5214.0994545926
 30
0.0
 11
6317.3994539648
 21
5214.214751707
 31
0.0
  0
LINE
  5
118
330
1F
100
AcDbEntity
  8
0
  6
SLD-Plná
 62
     7
370
    25
100
AcDbLine
 10
6317.3470821216
 20
5219.7252291912
 30
0.0
 11
6317.3470821216
 21
5248.1606048621
 31
0.0
  0
LINE
  5
119
330
1F
100
AcDbEntity
  8
0
  6
SLD-Plná
 62
     7
370
    25
100
AcDbLine
 10
6317.3470821216
 20
5248.1606048621
 30
0.0
 11
6317.4570629922
 21
5248.2705857327
 31
0.0
  0
LINE
  5
11A
330
1F
100
AcDbEntity
  8
0
  6
SLD-Plná
 62
     7
370
    25
100
AcDbLine
 10
6306.9887285453
 20
5248.1606048621
 30
0.0
 11
6306.9887285453
 21
5219.7252291912
 31
0.0
  0
LINE
  5
11B
330
1F
100
AcDbEntity
  8
0
  6
SLD-Plná
 62
     7
370
    25
100
AcDbLine
 10
6306.9363567022
 20
5214.214751707
 30
0.0
 11
6306.8787476747
 21
5214.0994545926
 31
0.0
  0
LINE
  5
11C
330
1F
100
AcDbEntity
  8
0
  6
SLD-Plná
 62
     7
370
    25
100
AcDbLine
 10
6306.9363567021
 20
5215.1841574782
 30
0.0
 11
6306.9363567022
 21
5214.214751707
 31
0.0
  0
LINE
  5
11D
330
1F
100
AcDbEntity
  8
0
  6
SLD-Plná
 62
     7
370
    25
100
AcDbLine
 10
6306.8787476747
 20
5215.2994545926
 30
0.0
 11
6306.9363567021
 21
5215.1841574782
 31
0.0
  0
LINE
  5
11E
330
1F
100
AcDbEntity
  8
0
  6
SLD-Plná
 62
     7
370
    25
100
AcDbLine
 10
6306.8787476747
 20
5248.2705857327
 30
0.0
 11
6306.9887285453
 21
5248.1606048621
 31
0.0
  0
LINE
  5
11F
330
1F
100
AcDbEntity
  8
0
  6
SLD-Plná
 62
     7
370
    25
100
AcDbLine
 10
6315.1494360003
 20
5208.0794775011
 30
0.0
 11
6309.1863746666
 21
5208.0794775011
 31
0.0
  0
LINE
  5
120
330
1F
100
AcDbEntity
  8
0
  6
SLD-Plná
 62
     7
370
    25
100
AcDbLine
 10
6309.5357010735
 20
5209.7207831502
 30
0.0
 11
6314.8001095934
 21
5209.7207831502
 31
0.0
  0
LINE
  5
121
330
1F
100
AcDbEntity
  8
0
  6
SLD-Plná
 62
     7
370
    25
100
AcDbLine
 10
6309.1863746666
 20
5209.0219174064
 30
0.0
 11
6315.1494360003
 21
5209.0219174064
 31
0.0
  0
LINE
  5
122
330
1F
100
AcDbEntity
  8
0
  6
SLD-Plná
 62
     7
370
    25
100
AcDbLine
 10
6322.9263439902
 20
5289.0633766609
 30
0.0
 11
6322.8041526101
 21
5288.9411847337
 31
0.0
  0
ARC
  5
123
330
1F
100
AcDbEntity
  8
0
  6
SLD-Plná
 62
     7
370
    25
100
AcDbCircle
 10
6322.9263515963
 20
5288.4634065675
 30
0.0
 40
0.5999700934671731
100
AcDbArc
 50
359.9992736378
 51
90.0007263622
  0
LINE
  5
124
330
1F
100
AcDbEntity
  8
0
  6
SLD-Plná
 62
     7
370
    25
100
AcDbLine
 10
6323.4041297626
 20
5288.3412075813
 30
0.0
 11
6323.5263216897
 21
5288.4633989614
 31
0.0
  0
ARC
  5
125
330
1F
100
AcDbEntity
  8
0
  6
SLD-Plná
 62
     7
370
    25
100
AcDbCircle
 10
6322.8041409737
 20
5288.3411959448
 30
0.0
 40
0.5999887890012082
100
AcDbArc
 50
0.0011112162
 51
89.9988887835
  0
LINE
  5
126
330
1F
100
AcDbEntity
  8
0
  6
SLD-Plná
 62
     7
370
    25
100
AcDbLine
 10
6323.5263216897
 20
5272.9355102238
 30
0.0
 11
6323.4041297626
 21
5273.0577016039
 31
0.0
  0
ARC
  5
127
330
1F
100
AcDbEntity
  8
0
  6
SLD-Plná
 62
     7
370
    25
100
AcDbCircle
 10
6322.9263515963
 20
5272.9355026177
 30
0.0
 40
0.5999700934662636
100
AcDbArc
 50
269.9992736378
 51
0.0007263623
  0
LINE
  5
128
330
1F
100
AcDbEntity
  8
0
  6
SLD-Plná
 62
     7
370
    25
100
AcDbLine
 10
6322.8041526101
 20
5272.4577244515
 30
0.0
 11
6322.9263439902
 21
5272.3355325243
 31
0.0
  0
ARC
  5
129
330
1F
100
AcDbEntity
  8
0
  6
SLD-Plná
 62
     7
370
    25
100
AcDbCircle
 10
6322.8041409737
 20
5273.0577132404
 30
0.0
 40
0.5999887890021177
100
AcDbArc
 50
270.0011112166
 51
359.9988887836
  0
LINE
  5
12A
330
1F
100
AcDbEntity
  8
0
  6
SLD-Plná
 62
     7
370
    25
100
AcDbLine
 10
6305.2984775531
 20
5288.4633989614
 30
0.0
 11
6305.4206694803
 21
5288.3412075813
 31
0.0
  0
ARC
  5
12B
330
1F
100
AcDbEntity
  8
0
  6
SLD-Plná
 62
     7
370
    25
100
AcDbCircle
 10
6305.8984476466
 20
5288.4634065675
 30
0.0
 40
0.5999700934653541
100
AcDbArc
 50
89.9992736378
 51
180.0007263623
  0
LINE
  5
12C
330
1F
100
AcDbEntity
  8
0
  6
SLD-Plná
 62
     7
370
    25
100
AcDbLine
 10
6306.0206466328
 20
5288.9411847337
 30
0.0
 11
6305.8984552526
 21
5289.0633766609
 31
0.0
  0
ARC
  5
12D
330
1F
100
AcDbEntity
  8
0
  6
SLD-Plná
 62
     7
370
    25
100
AcDbCircle
 10
6306.0206582692
 20
5288.3411959448
 30
0.0
 40
0.5999887890002987
100
AcDbArc
 50
90.0011112164
 51
179.9988887836
  0
LINE
  5
12E
330
1F
100
AcDbEntity
  8
0
  6
SLD-Plná
 62
     7
370
    25
100
AcDbLine
 10
6305.8984552526
 20
5272.3355325243
 30
0.0
 11
6306.0206466328
 21
5272.4577244515
 31
0.0
  0
ARC
  5
12F
330
1F
100
AcDbEntity
  8
0
  6
SLD-Plná
 62
     7
370
    25
100
AcDbCircle
 10
6305.8984476466
 20
5272.9355026177
 30
0.0
 40
0.5999700934653541
100
AcDbArc
 50
179.9992736378
 51
270.0007263623
  0
LINE
  5
130
330
1F
100
AcDbEntity
  8
0
  6
SLD-Plná
 62
     7
370
    25
100
AcDbLine
 10
6305.4206694803
 20
5273.0577016039
 30
0.0
 11
6305.2984775532
 21
5272.9355102238
 31
0.0
  0
ARC
  5
131
330
1F
100
AcDbEntity
  8
0
  6
SLD-Plná
 62
     7
370
    25
100
AcDbCircle
 10
6306.0206582692
 20
5273.0577132404
 30
0.0
 40
0.5999887890021177
100
AcDbArc
 50
180.0011112165
 51
269.9988887835
  0
LINE
  5
132
330
1F
100
AcDbEntity
  8
0
  6
SLD-Plná
 62
     7
370
    25
100
AcDbLine
 10
6322.6123996214
 20
5289.0022880407
 30
0.0
 11
6322.7346155404
 21
5288.9411847351
 31
0.0
  0
LINE
  5
133
330
1F
100
AcDbEntity
  8
0
  6
SLD-Plná
 62
     7
370
    25
100
AcDbLine
 10
6317.0123996214
 20
5289.0022880407
 30
0.0
 11
6322.6123996214
 21
5289.0022880407
 31
0.0
  0
LINE
  5
134
330
1F
100
AcDbEntity
  8
0
  6
SLD-Plná
 62
     7
370
    25
100
AcDbLine
 10
6316.8901837025
 20
5288.9411847351
 30
0.0
 11
6317.0123996214
 21
5289.0022880407
 31
0.0
  0
LINE
  5
135
330
1F
100
AcDbEntity
  8
0
  6
SLD-Plná
 62
     7
370
    25
100
AcDbLine
 10
6316.8901837025
 20
5288.9411847351
 30
0.0
 11
6306.0206466328
 21
5288.9411847337
 31
0.0
  0
LINE
  5
136
330
1F
100
AcDbEntity
  8
0
  6
SLD-Plná
 62
     7
370
    25
100
AcDbLine
 10
6322.9263439902
 20
5289.0633766609
 30
0.0
 11
6305.8984552526
 21
5289.0633766609
 31
0.0
  0
LINE
  5
137
330
1F
100
AcDbEntity
  8
0
  6
SLD-Plná
 62
     7
370
    25
100
AcDbLine
 10
6322.8041526101
 20
5288.9411847337
 30
0.0
 11
6322.7346155404
 21
5288.9411847351
 31
0.0
  0
LINE
  5
138
330
1F
100
AcDbEntity
  8
0
  6
SLD-Plná
 62
     7
370
    25
100
AcDbLine
 10
6305.8984552526
 20
5272.3355325243
 30
0.0
 11
6322.9263439902
 21
5272.3355325243
 31
0.0
  0
LINE
  5
139
330
1F
100
AcDbEntity
  8
0
  6
SLD-Plná
 62
     7
370
    25
100
AcDbLine
 10
6306.0206466328
 20
5272.4577244515
 30
0.0
 11
6308.9401837025
 21
5272.4577244501
 31
0.0
  0
LINE
  5
13A
330
1F
100
AcDbEntity
  8
0
  6
SLD-Plná
 62
     7
370
    25
100
AcDbLine
 10
6309.0623996214
 20
5272.3966211445
 30
0.0
 11
6308.9401837025
 21
5272.4577244501
 31
0.0
  0
LINE
  5
13B
330
1F
100
AcDbEntity
  8
0
  6
SLD-Plná
 62
     7
370
    25
100
AcDbLine
 10
6314.6623996214
 20
5272.3966211445
 30
0.0
 11
6309.0623996214
 21
5272.3966211445
 31
0.0
  0
LINE
  5
13C
330
1F
100
AcDbEntity
  8
0
  6
SLD-Plná
 62
     7
370
    25
100
AcDbLine
 10
6314.7846155404
 20
5272.4577244501
 30
0.0
 11
6314.6623996214
 21
5272.3966211445
 31
0.0
  0
LINE
  5
13D
330
1F
100
AcDbEntity
  8
0
  6
SLD-Plná
 62
     7
370
    25
100
AcDbLine
 10
6314.7846155404
 20
5272.4577244501
 30
0.0
 11
6322.8041526101
 21
5272.4577244515
 31
0.0
  0
LINE
  5
13E
330
1F
100
AcDbEntity
  8
0
  6
SLD-Plná
 62
     7
370
    25
100
AcDbLine
 10
6305.2984775531
 20
5288.4633989614
 30
0.0
 11
6305.2984775532
 21
5272.9355102238
 31
0.0
  0
LINE
  5
13F
330
1F
100
AcDbEntity
  8
0
  6
SLD-Plná
 62
     7
370
    25
100
AcDbLine
 10
6305.4206694803
 20
5288.3412075813
 30
0.0
 11
6305.4206694803
 21
5273.0577016039
 31
0.0
  0
LINE
  5
140
330
1F
100
AcDbEntity
  8
0
  6
SLD-Plná
 62
     7
370
    25
100
AcDbLine
 10
6303.8623996214
 20
5271.3908032242
 30
0.0
 11
6303.8623996214
 21
5290.008105961
 31
0.0
  0
LINE
  5
141
330
1F
100
AcDbEntity
  8
0
  6
SLD-Plná
 62
     7
370
    25
100
AcDbLine
 10
6303.8623996214
 20
5290.008105961
 30
0.0
 11
6324.9623996214
 21
5290.008105961
 31
0.0
  0
LINE
  5
142
330
1F
100
AcDbEntity
  8
0
  6
SLD-Plná
 62
     7
370
    25
100
AcDbLine
 10
6324.9623996214
 20
5290.008105961
 30
0.0
 11
6324.9623996214
 21
5271.3908032242
 31
0.0
  0
LINE
  5
143
330
1F
100
AcDbEntity
  8
0
  6
SLD-Plná
 62
     7
370
    25
100
AcDbLine
 10
6324.9623996214
 20
5271.3908032242
 30
0.0
 11
6303.8623996214
 21
5271.3908032242
 31
0.0
  0
LINE
  5
144
330
1F
100
AcDbEntity
  8
0
  6
SLD-Plná
 62
     7
370
    25
100
AcDbLine
 10
6323.5263216897
 20
5272.9355102238
 30
0.0
 11
6323.5263216897
 21
5288.4633989614
 31
0.0
  0
LINE
  5
145
330
1F
100
AcDbEntity
  8
0
  6
SLD-Plná
 62
     7
370
    25
100
AcDbLine
 10
6323.4041297626
 20
5273.0577016039
 30
0.0
 11
6323.4041297626
 21
5288.3412075813
 31
0.0
  0
LINE
  5
146
330
1F
100
AcDbEntity
  8
0
  6
SLD-Plná
 62
     7
370
    25
100
AcDbLine
 10
6303.7489622482
 20
5270.7860172194
 30
0.0
 11
6303.8538244054
 21
5270.8908793766
 31
0.0
  0
LINE
  5
147
330
1F
100
AcDbEntity
  8
0
  6
SLD-Plná
 62
     7
370
    25
100
AcDbLine
 10
6303.7454506864
 20
5276.3994545926
 30
0.0
 11
6303.722759102
 21
5276.3767630082
 31
0.0
  0
LINE
  5
148
330
1F
100
AcDbEntity
  8
0
  6
SLD-Plná
 62
     7
370
    25
100
AcDbLine
 10
6303.7454506864
 20
5284.9994545926
 30
0.0
 11
6303.7454506864
 21
5276.3994545926
 31
0.0
  0
LINE
  5
149
330
1F
100
AcDbEntity
  8
0
  6
SLD-Plná
 62
     7
370
    25
100
AcDbLine
 10
6303.722759102
 20
5285.022146177
 30
0.0
 11
6303.7454506864
 21
5284.9994545926
 31
0.0
  0
LINE
  5
14A
330
1F
100
AcDbEntity
  8
0
  6
SLD-Plná
 62
     7
370
    25
100
AcDbLine
 10
6303.722759102
 20
5290.639095112
 30
0.0
 11
6303.8538244054
 21
5290.5080298086
 31
0.0
  0
ELLIPSE
  5
14B
330
1F
100
AcDbEntity
  8
0
  6
SLD-Plná
 62
     7
370
    25
100
AcDbEllipse
 10
6303.853672089
 20
5290.008105961
 30
0.0
 11
0.0
 21
0.5
 31
0.0
210
0.0
220
0.0
230
1.0
 40
0.0174550649
 41
4.71238898038469
 42
6.265732014661721
  0
ELLIPSE
  5
14C
330
1F
100
AcDbEntity
  8
0
  6
SLD-Plná
 62
     7
370
    25
100
AcDbEllipse
 10
6303.853672089
 20
5271.3908032242
 30
0.0
 11
0.0
 21
0.5000000000009095
 31
0.0
210
0.0
220
0.0
230
1.0
 40
0.0174550649
 41
3.159045946109322
 42
4.71238898038469
  0
LINE
  5
14D
330
1F
100
AcDbEntity
  8
0
  6
SLD-Plná
 62
     7
370
    25
100
AcDbLine
 10
6324.9709748374
 20
5290.5080298086
 30
0.0
 11
6303.8538244054
 21
5290.5080298086
 31
0.0
  0
ELLIPSE
  5
14E
330
1F
100
AcDbEntity
  8
0
  6
SLD-Plná
 62
     7
370
    25
100
AcDbEllipse
 10
6324.9711271539
 20
5290.008105961
 30
0.0
 11
-9.094947017729282E-13
 21
0.5
 31
0.0
210
0.0
220
0.0
230
1.0
 40
0.0174550649
 41
0.0174532925187068
 42
1.570796326794865
  0
LINE
  5
14F
330
1F
100
AcDbEntity
  8
0
  6
SLD-Plná
 62
     7
370
    25
100
AcDbLine
 10
6325.0793485563
 20
5290.6164035275
 30
0.0
 11
6324.9709748374
 21
5290.5080298086
 31
0.0
  0
LINE
  5
150
330
1F
100
AcDbEntity
  8
0
  6
SLD-Plná
 62
     7
370
    25
100
AcDbLine
 10
6325.0758369946
 20
5270.7860172194
 30
0.0
 11
6324.9709748375
 21
5270.8908793766
 31
0.0
  0
ELLIPSE
  5
151
330
1F
100
AcDbEntity
  8
0
  6
SLD-Plná
 62
     7
370
    25
100
AcDbEllipse
 10
6324.9711271539
 20
5271.3908032242
 30
0.0
 11
-9.094947017729282E-13
 21
0.4999999999990905
 31
0.0
210
0.0
220
0.0
230
1.0
 40
0.0174550649
 41
1.570796326794865
 42
3.124139360860978
  0
LINE
  5
152
330
1F
100
AcDbEntity
  8
0
  6
SLD-Plná
 62
     7
370
    25
100
AcDbLine
 10
6303.8538244054
 20
5270.8908793766
 30
0.0
 11
6324.9709748375
 21
5270.8908793766
 31
0.0
  0
LINE
  5
153
330
1F
100
AcDbEntity
  8
0
  6
SLD-Plná
 62
     7
370
    25
100
AcDbLine
 10
6318.747102507
 20
5270.798215216
 30
0.0
 11
6318.7837262559
 21
5270.7860172194
 31
0.0
  0
LINE
  5
154
330
1F
100
AcDbEntity
  8
0
  6
SLD-Plná
 62
     7
370
    25
100
AcDbLine
 10
6317.7776967359
 20
5270.798215216
 30
0.0
 11
6318.747102507
 21
5270.798215216
 31
0.0
  0
LINE
  5
155
330
1F
100
AcDbEntity
  8
0
  6
SLD-Plná
 62
     7
370
    25
100
AcDbLine
 10
6317.741072987
 20
5270.7860172194
 30
0.0
 11
6317.7776967359
 21
5270.798215216
 31
0.0
  0
LINE
  5
156
330
1F
100
AcDbEntity
  8
0
  6
SLD-Plná
 62
     7
370
    25
100
AcDbLine
 10
6303.722759102
 20
5290.639095112
 30
0.0
 11
6307.5187553362
 21
5290.639095112
 31
0.0
  0
LINE
  5
157
330
1F
100
AcDbEntity
  8
0
  6
SLD-Plná
 62
     7
370
    25
100
AcDbLine
 10
6307.5187553362
 20
5290.639095112
 30
0.0
 11
6307.5920666089
 21
5290.5657838393
 31
0.0
  0
LINE
  5
158
330
1F
100
AcDbEntity
  8
0
  6
SLD-Plná
 62
     7
370
    25
100
AcDbLine
 10
6307.5920666089
 20
5290.5657838393
 30
0.0
 11
6315.5699725512
 21
5290.5657838393
 31
0.0
  0
LINE
  5
159
330
1F
100
AcDbEntity
  8
0
  6
SLD-Plná
 62
     7
370
    25
100
AcDbLine
 10
6315.5699725512
 20
5290.5657838393
 30
0.0
 11
6315.6432838239
 21
5290.639095112
 31
0.0
  0
LINE
  5
15A
330
1F
100
AcDbEntity
  8
0
  6
SLD-Plná
 62
     7
370
    25
100
AcDbLine
 10
6315.6432838239
 20
5290.639095112
 30
0.0
 11
6316.9949445565
 21
5290.639095112
 31
0.0
  0
LINE
  5
15B
330
1F
100
AcDbEntity
  8
0
  6
SLD-Plná
 62
     7
370
    25
100
AcDbLine
 10
6317.0123996214
 20
5290.6216400471
 30
0.0
 11
6316.9949445565
 21
5290.639095112
 31
0.0
  0
LINE
  5
15C
330
1F
100
AcDbEntity
  8
0
  6
SLD-Plná
 62
     7
370
    25
100
AcDbLine
 10
6322.6123996214
 20
5290.6216400471
 30
0.0
 11
6317.0123996214
 21
5290.6216400471
 31
0.0
  0
LINE
  5
15D
330
1F
100
AcDbEntity
  8
0
  6
SLD-Plná
 62
     7
370
    25
100
AcDbLine
 10
6322.6298546864
 20
5290.639095112
 30
0.0
 11
6322.6123996214
 21
5290.6216400471
 31
0.0
  0
LINE
  5
15E
330
1F
100
AcDbEntity
  8
0
  6
SLD-Plná
 62
     7
370
    25
100
AcDbLine
 10
6322.6298546864
 20
5290.639095112
 30
0.0
 11
6325.0793485563
 21
5290.639095112
 31
0.0
  0
LINE
  5
15F
330
1F
100
AcDbEntity
  8
0
  6
SLD-Plná
 62
     7
370
    25
100
AcDbLine
 10
6314.7631749439
 20
5220.7750931535
 30
0.0
 11
6314.7631749439
 21
5246.4496755898
 31
0.0
  0
LINE
  5
160
330
1F
100
AcDbEntity
  8
0
  6
SLD-Plná
 62
     7
370
    25
100
AcDbLine
 10
6314.7631749439
 20
5246.4496755898
 30
0.0
 11
6314.972635723
 21
5246.6591363689
 31
0.0
  0
LINE
  5
161
330
1F
100
AcDbEntity
  8
0
  6
SLD-Plná
 62
     7
370
    25
100
AcDbLine
 10
6314.972635723
 20
5219.7252291912
 30
0.0
 11
6314.972635723
 21
5246.6591363689
 31
0.0
  0
LINE
  5
162
330
1F
100
AcDbEntity
  8
0
  6
SLD-Plná
 62
     7
370
    25
100
AcDbLine
 10
6314.7631749439
 20
5220.7750931535
 30
0.0
 11
6314.972635723
 21
5219.7252291912
 31
0.0
  0
LINE
  5
163
330
1F
100
AcDbEntity
  8
0
  6
SLD-Plná
 62
     7
370
    25
100
AcDbLine
 10
6315.5699725512
 20
5290.5657838393
 30
0.0
 11
6315.5699725512
 21
5322.4526803258
 31
0.0
  0
LINE
  5
164
330
1F
100
AcDbEntity
  8
0
  6
SLD-Plná
 62
     7
370
    25
100
AcDbLine
 10
6307.5920666089
 20
5322.4526803258
 30
0.0
 11
6307.5920666089
 21
5290.5657838393
 31
0.0
  0
ELLIPSE
  5
165
330
1F
100
AcDbEntity
  8
0
  6
SLD-Plná
 62
     7
370
    25
100
AcDbEllipse
 10
6308.5922189369
 20
5322.451765684
 30
0.0
 11
-0.3164782047242625
 21
0.9502067146440822
 31
0.0
210
0.0
220
0.0
230
1.0
 40
0.9984778551
 41
5.962134956624194
 42
7.532017894912436
  0
LINE
  5
166
330
1F
100
AcDbEntity
  8
0
  6
SLD-Plná
 62
     7
370
    25
100
AcDbLine
 10
6314.5707337506
 20
5323.45313803
 30
0.0
 11
6308.5913054094
 21
5323.45313803
 31
0.0
  0
ELLIPSE
  5
167
330
1F
100
AcDbEntity
  8
0
  6
SLD-Plná
 62
     7
370
    25
100
AcDbEllipse
 10
6314.5698202231
 20
5322.451765684
 30
0.0
 11
0.3164782046906112
 21
0.9502067146549963
 31
0.0
210
0.0
220
0.0
230
1.0
 40
0.9984778551
 41
5.034352719411296
 42
6.604235657700707
  0
LINE
  5
168
330
1F
100
AcDbEntity
  8
0
  6
SLD-Plná
 62
     7
370
    25
100
AcDbLine
 10
6309.3341687701
 20
5292.9078636948
 30
0.0
 11
6309.3341687701
 21
5290.9078636948
 31
0.0
  0
LINE
  5
169
330
1F
100
AcDbEntity
  8
0
  6
SLD-Plná
 62
     7
370
    25
100
AcDbLine
 10
6313.8277789931
 20
5290.9078636948
 30
0.0
 11
6309.3341687701
 21
5290.9078636948
 31
0.0
  0
LINE
  5
16A
330
1F
100
AcDbEntity
  8
0
  6
SLD-Plná
 62
     7
370
    25
100
AcDbLine
 10
6313.8277789931
 20
5292.9078636948
 30
0.0
 11
6313.8277789931
 21
5290.9078636948
 31
0.0
  0
LINE
  5
16B
330
1F
100
AcDbEntity
  8
0
  6
SLD-Plná
 62
     7
370
    25
100
AcDbLine
 10
6313.8277789931
 20
5292.9078636948
 30
0.0
 11
6313.8277789931
 21
5322.41058471
 31
0.0
  0
LINE
  5
16C
330
1F
100
AcDbEntity
  8
0
  6
SLD-Plná
 62
     7
370
    25
100
AcDbLine
 10
6313.8277789931
 20
5322.41058471
 30
0.0
 11
6309.3341687701
 21
5322.41058471
 31
0.0
  0
LINE
  5
16D
330
1F
100
AcDbEntity
  8
0
  6
SLD-Plná
 62
     7
370
    25
100
AcDbLine
 10
6309.3341687701
 20
5322.41058471
 30
0.0
 11
6309.3341687701
 21
5292.9078636948
 31
0.0
  0
LINE
  5
16E
330
1F
100
AcDbEntity
  8
0
  6
SLD-Plná
 62
     7
370
    25
100
AcDbLine
 10
6316.3474247966
 20
5249.1602621871
 30
0.0
 11
6307.9883858702
 21
5249.1602621871
 31
0.0
  0
LINE
  5
16F
330
1F
100
AcDbEntity
  8
0
  6
SLD-Plná
 62
     7
370
    25
100
AcDbLine
 10
6307.9883858702
 20
5249.1602621871
 30
0.0
 11
6307.8784049997
 21
5249.2702430577
 31
0.0
  0
LINE
  5
170
330
1F
100
AcDbEntity
  8
0
  6
SLD-Plná
 62
     7
370
    25
100
AcDbLine
 10
6307.8784049997
 20
5249.2702430577
 30
0.0
 11
6308.3623996214
 21
5249.2702430577
 31
0.0
  0
LINE
  5
171
330
1F
100
AcDbEntity
  8
0
  6
SLD-Plná
 62
     7
370
    25
100
AcDbLine
 10
6308.4776967359
 20
5249.2126340303
 30
0.0
 11
6308.3623996214
 21
5249.2702430577
 31
0.0
  0
LINE
  5
172
330
1F
100
AcDbEntity
  8
0
  6
SLD-Plná
 62
     7
370
    25
100
AcDbLine
 10
6309.447102507
 20
5249.2126340303
 30
0.0
 11
6308.4776967359
 21
5249.2126340303
 31
0.0
  0
LINE
  5
173
330
1F
100
AcDbEntity
  8
0
  6
SLD-Plná
 62
     7
370
    25
100
AcDbLine
 10
6309.5623996214
 20
5249.2702430577
 30
0.0
 11
6309.447102507
 21
5249.2126340303
 31
0.0
  0
LINE
  5
174
330
1F
100
AcDbEntity
  8
0
  6
SLD-Plná
 62
     7
370
    25
100
AcDbLine
 10
6309.5623996214
 20
5249.2702430577
 30
0.0
 11
6316.4574056672
 21
5249.2702430577
 31
0.0
  0
LINE
  5
175
330
1F
100
AcDbEntity
  8
0
  6
SLD-Plná
 62
     7
370
    25
100
AcDbLine
 10
6316.4574056672
 20
5249.2702430577
 30
0.0
 11
6316.3474247966
 21
5249.1602621871
 31
0.0
  0
LINE
  5
176
330
1F
100
AcDbEntity
  8
0
  6
SLD-Plná
 62
     7
370
    25
100
AcDbLine
 10
6313.7230565796
 20
5311.1994545926
 30
0.0
 11
6313.7230565796
 21
5299.8578636948
 31
0.0
  0
LINE
  5
177
330
1F
100
AcDbEntity
  8
0
  6
SLD-Plná
 62
     7
370
    25
100
AcDbLine
 10
6313.49266727
 20
5312.1213629072
 30
0.0
 11
6313.7230565796
 21
5311.1994545926
 31
0.0
  0
LINE
  5
178
330
1F
100
AcDbEntity
  8
0
  6
SLD-Plná
 62
     7
370
    25
100
AcDbLine
 10
6313.49266727
 20
5314.3779358172
 30
0.0
 11
6313.49266727
 21
5312.1213629072
 31
0.0
  0
ELLIPSE
  5
179
330
1F
100
AcDbEntity
  8
0
  6
SLD-Plná
 62
     7
370
    25
100
AcDbEllipse
 10
6313.5537553445
 20
5314.3779358172
 30
0.0
 11
-4.547473508864640E-12
 21
7.0
 31
0.0
210
0.0
220
0.0
230
1.0
 40
0.0087268678
 41
0.0349065850164043
 42
1.570796326794631
  0
LINE
  5
17A
330
1F
100
AcDbEntity
  8
0
  6
SLD-Plná
 62
     7
370
    25
100
AcDbLine
 10
6313.7937372977
 20
5322.3424961336
 30
0.0
 11
6313.5516234014
 21
5321.3736716063
 31
0.0
  0
LINE
  5
17B
330
1F
100
AcDbEntity
  8
0
  6
SLD-Plná
 62
     7
370
    25
100
AcDbLine
 10
6313.7937372977
 20
5322.3424961336
 30
0.0
 11
6313.8277789931
 21
5322.41058471
 31
0.0
  0
LINE
  5
17C
330
1F
100
AcDbEntity
  8
0
  6
SLD-Plná
 62
     7
370
    25
100
AcDbLine
 10
6313.7230565797
 20
5293.117324474
 30
0.0
 11
6313.8277789931
 21
5292.9078636948
 31
0.0
  0
LINE
  5
17D
330
1F
100
AcDbEntity
  8
0
  6
SLD-Plná
 62
     7
370
    25
100
AcDbLine
 10
6313.7230565796
 20
5299.8578636948
 30
0.0
 11
6313.7230565797
 21
5293.117324474
 31
0.0
  0
LINE
  5
17E
330
1F
100
AcDbEntity
  8
0
  6
SLD-Plná
 62
     7
370
    25
100
AcDbLine
 10
6307.5187553362
 20
5290.639095112
 30
0.0
 11
6307.5187553362
 21
5290.6652982582
 31
0.0
  0
LINE
  5
17F
330
1F
100
AcDbEntity
  8
0
  6
SLD-Plná
 62
     7
370
    25
100
AcDbLine
 10
6307.557156479
 20
5296.814751707
 30
0.0
 11
6307.5187553362
 21
5296.6994545926
 31
0.0
  0
LINE
  5
180
330
1F
100
AcDbEntity
  8
0
  6
SLD-Plná
 62
     7
370
    25
100
AcDbLine
 10
6307.557156479
 20
5297.7841574782
 30
0.0
 11
6307.557156479
 21
5296.814751707
 31
0.0
  0
LINE
  5
181
330
1F
100
AcDbEntity
  8
0
  6
SLD-Plná
 62
     7
370
    25
100
AcDbLine
 10
6307.5187553362
 20
5297.8994545926
 30
0.0
 11
6307.557156479
 21
5297.7841574782
 31
0.0
  0
LINE
  5
182
330
1F
100
AcDbEntity
  8
0
  6
SLD-Plná
 62
     7
370
    25
100
AcDbLine
 10
6307.557156479
 20
5314.214751707
 30
0.0
 11
6307.5187553362
 21
5314.0994545926
 31
0.0
  0
LINE
  5
183
330
1F
100
AcDbEntity
  8
0
  6
SLD-Plná
 62
     7
370
    25
100
AcDbLine
 10
6307.557156479
 20
5315.1841574782
 30
0.0
 11
6307.557156479
 21
5314.214751707
 31
0.0
  0
LINE
  5
184
330
1F
100
AcDbEntity
  8
0
  6
SLD-Plná
 62
     7
370
    25
100
AcDbLine
 10
6307.5187553362
 20
5315.2994545926
 30
0.0
 11
6307.557156479
 21
5315.1841574782
 31
0.0
  0
LINE
  5
185
330
1F
100
AcDbEntity
  8
0
  6
SLD-Plná
 62
     7
370
    25
100
AcDbLine
 10
6307.5187553362
 20
5322.6727929988
 30
0.0
 11
6307.5920666089
 21
5322.4526803258
 31
0.0
  0
LINE
  5
186
330
1F
100
AcDbEntity
  8
0
  6
SLD-Plná
 62
     7
370
    25
100
AcDbLine
 10
6309.4388911836
 20
5293.117324474
 30
0.0
 11
6309.4388911836
 21
5299.8578636948
 31
0.0
  0
LINE
  5
187
330
1F
100
AcDbEntity
  8
0
  6
SLD-Plná
 62
     7
370
    25
100
AcDbLine
 10
6309.3682104655
 20
5322.3424961336
 30
0.0
 11
6309.3341687701
 21
5322.41058471
 31
0.0
  0
LINE
  5
188
330
1F
100
AcDbEntity
  8
0
  6
SLD-Plná
 62
     7
370
    25
100
AcDbLine
 10
6309.6103243618
 20
5321.3736716063
 30
0.0
 11
6309.3682104655
 21
5322.3424961336
 31
0.0
  0
ELLIPSE
  5
189
330
1F
100
AcDbEntity
  8
0
  6
SLD-Plná
 62
     7
370
    25
100
AcDbEllipse
 10
6309.6081924187
 20
5314.3779358172
 30
0.0
 11
-3.637978807091713E-12
 21
7.000000000010913
 31
0.0
210
0.0
220
0.0
230
1.0
 40
0.0087268678
 41
4.712388980384945
 42
6.248278722120218
  0
LINE
  5
18A
330
1F
100
AcDbEntity
  8
0
  6
SLD-Plná
 62
     7
370
    25
100
AcDbLine
 10
6309.6692804932
 20
5312.1213629072
 30
0.0
 11
6309.6692804932
 21
5314.3779358172
 31
0.0
  0
LINE
  5
18B
330
1F
100
AcDbEntity
  8
0
  6
SLD-Plná
 62
     7
370
    25
100
AcDbLine
 10
6309.4388911836
 20
5311.1994545926
 30
0.0
 11
6309.6692804932
 21
5312.1213629072
 31
0.0
  0
LINE
  5
18C
330
1F
100
AcDbEntity
  8
0
  6
SLD-Plná
 62
     7
370
    25
100
AcDbLine
 10
6309.4388911836
 20
5299.8578636948
 30
0.0
 11
6309.4388911836
 21
5311.1994545926
 31
0.0
  0
LINE
  5
18D
330
1F
100
AcDbEntity
  8
0
  6
SLD-Plná
 62
     7
370
    25
100
AcDbLine
 10
6309.3341687701
 20
5292.9078636948
 30
0.0
 11
6309.4388911836
 21
5293.117324474
 31
0.0
  0
LINE
  5
18E
330
1F
100
AcDbEntity
  8
0
  6
SLD-Plná
 62
     7
370
    25
100
AcDbLine
 10
6309.3631749439
 20
5246.6591363689
 30
0.0
 11
6314.972635723
 21
5246.6591363689
 31
0.0
  0
LINE
  5
18F
330
1F
100
AcDbEntity
  8
0
  6
SLD-Plná
 62
     7
370
    25
100
AcDbLine
 10
6309.3631749439
 20
5219.7252291912
 30
0.0
 11
6309.3631749439
 21
5246.6591363689
 31
0.0
  0
LINE
  5
190
330
1F
100
AcDbEntity
  8
0
  6
SLD-Plná
 62
     7
370
    25
100
AcDbLine
 10
6309.0702326704
 20
5219.7252291912
 30
0.0
 11
6309.3631749439
 21
5219.7252291912
 31
0.0
  0
ELLIPSE
  5
191
330
1F
100
AcDbEntity
  8
0
  6
SLD-Plná
 62
     7
370
    25
100
AcDbEllipse
 10
6307.9890713378
 20
5248.1599193946
 30
0.0
 11
-0.7075914799743259
 21
0.7075914799124802
 31
0.0
210
0.0
220
0.0
230
1.0
 40
0.999315002
 41
5.49812976007767
 42
7.068240854195933
  0
ELLIPSE
  5
192
330
1F
100
AcDbEntity
  8
0
  6
SLD-Plná
 62
     7
370
    25
100
AcDbEllipse
 10
6316.3467393291
 20
5248.1599193946
 30
0.0
 11
0.7075914799506791
 21
0.707591479936127
 31
0.0
210
0.0
220
0.0
230
1.0
 40
0.999315002
 41
5.498129760131067
 42
7.068240854249595
  0
LINE
  5
193
330
1F
100
AcDbEntity
  8
0
  6
SLD-Plná
 62
     7
370
    25
100
AcDbLine
 10
6315.2655779965
 20
5219.7252291912
 30
0.0
 11
6314.972635723
 21
5219.7252291912
 31
0.0
  0
LINE
  5
194
330
1F
100
AcDbEntity
  8
0
  6
SLD-Plná
 62
     7
370
    25
100
AcDbLine
 10
6314.7631749439
 20
5246.4496755898
 30
0.0
 11
6309.572635723
 21
5246.4496755898
 31
0.0
  0
LINE
  5
195
330
1F
100
AcDbEntity
  8
0
  6
SLD-Plná
 62
     7
370
    25
100
AcDbLine
 10
6309.3631749439
 20
5246.6591363689
 30
0.0
 11
6309.572635723
 21
5246.4496755898
 31
0.0
  0
LINE
  5
196
330
1F
100
AcDbEntity
  8
0
  6
SLD-Plná
 62
     7
370
    25
100
AcDbLine
 10
6315.604882681
 20
5315.1841574782
 30
0.0
 11
6315.6432838239
 21
5315.2994545926
 31
0.0
  0
LINE
  5
197
330
1F
100
AcDbEntity
  8
0
  6
SLD-Plná
 62
     7
370
    25
100
AcDbLine
 10
6315.604882681
 20
5314.214751707
 30
0.0
 11
6315.604882681
 21
5315.1841574782
 31
0.0
  0
LINE
  5
198
330
1F
100
AcDbEntity
  8
0
  6
SLD-Plná
 62
     7
370
    25
100
AcDbLine
 10
6315.6432838239
 20
5314.0994545926
 30
0.0
 11
6315.604882681
 21
5314.214751707
 31
0.0
  0
LINE
  5
199
330
1F
100
AcDbEntity
  8
0
  6
SLD-Plná
 62
     7
370
    25
100
AcDbLine
 10
6315.604882681
 20
5297.7841574782
 30
0.0
 11
6315.6432838239
 21
5297.8994545926
 31
0.0
  0
LINE
  5
19A
330
1F
100
AcDbEntity
  8
0
  6
SLD-Plná
 62
     7
370
    25
100
AcDbLine
 10
6315.604882681
 20
5296.814751707
 30
0.0
 11
6315.604882681
 21
5297.7841574782
 31
0.0
  0
LINE
  5
19B
330
1F
100
AcDbEntity
  8
0
  6
SLD-Plná
 62
     7
370
    25
100
AcDbLine
 10
6315.6432838239
 20
5296.6994545926
 30
0.0
 11
6315.604882681
 21
5296.814751707
 31
0.0
  0
LINE
  5
19C
330
1F
100
AcDbEntity
  8
0
  6
SLD-Plná
 62
     7
370
    25
100
AcDbLine
 10
6315.6432838239
 20
5290.6652982582
 30
0.0
 11
6315.6432838239
 21
5290.639095112
 31
0.0
  0
LINE
  5
19D
330
1F
100
AcDbEntity
  8
0
  6
SLD-Plná
 62
     7
370
    25
100
AcDbLine
 10
6315.5699725512
 20
5322.4526803258
 30
0.0
 11
6315.6432838239
 21
5322.6727929988
 31
0.0
  0
LINE
  5
19E
330
1F
100
AcDbEntity
  8
0
  6
SLD-Plná
 62
     7
370
    25
100
AcDbLine
 10
6309.572635723
 20
5246.4496755898
 30
0.0
 11
6309.572635723
 21
5220.7750931535
 31
0.0
  0
LINE
  5
19F
330
1F
100
AcDbEntity
  8
0
  6
SLD-Plná
 62
     7
370
    25
100
AcDbLine
 10
6309.572635723
 20
5220.7750931535
 30
0.0
 11
6309.3631749439
 21
5219.7252291912
 31
0.0
  0
ELLIPSE
  5
1A0
330
1F
100
AcDbEntity
  8
0
  6
SLD-Plná
 62
     7
370
    25
100
AcDbEllipse
 10
6316.4567201997
 20
5248.2699002652
 30
0.0
 11
0.7075914799388554
 21
0.707591479947041
 31
0.0
210
0.0
220
0.0
230
1.0
 40
0.999315002
 41
5.498129760113769
 42
7.068240854233849
  0
ELLIPSE
  5
1A1
330
1F
100
AcDbEntity
  8
0
  6
SLD-Plná
 62
     7
370
    25
100
AcDbEllipse
 10
6307.8790904672
 20
5248.2699002652
 30
0.0
 11
-0.707591479952498
 21
0.7075914799333987
 31
0.0
210
0.0
220
0.0
230
1.0
 40
0.999315002
 41
5.498129760107609
 42
7.068240854225495
  0
LINE
  5
1A2
330
1F
100
AcDbEntity
  8
0
  6
SLD-Plná
 62
     7
370
    25
100
AcDbLine
 10
6314.6440450233
 20
5323.673250703
 30
0.0
 11
6314.5707337506
 21
5323.45313803
 31
0.0
  0
ELLIPSE
  5
1A3
330
1F
100
AcDbEntity
  8
0
  6
SLD-Plná
 62
     7
370
    25
100
AcDbEllipse
 10
6314.6431314958
 20
5322.671878357
 30
0.0
 11
0.3164782047306289
 21
0.9502067146422633
 31
0.0
210
0.0
220
0.0
230
1.0
 40
0.9984778551
 41
5.034352719452913
 42
6.604235657742035
  0
LINE
  5
1A4
330
1F
100
AcDbEntity
  8
0
  6
SLD-Plná
 62
     7
370
    25
100
AcDbLine
 10
6309.3682104655
 20
5322.3424961336
 30
0.0
 11
6313.7937372977
 21
5322.3424961336
 31
0.0
  0
ELLIPSE
  5
1A5
330
1F
100
AcDbEntity
  8
0
  6
SLD-Plná
 62
     7
370
    25
100
AcDbEllipse
 10
6308.5189076642
 20
5322.671878357
 30
0.0
 11
-0.3164782046915207
 21
0.9502067146559057
 31
0.0
210
0.0
220
0.0
230
1.0
 40
0.9984778551
 41
5.962134956659549
 42
7.532017894947487
  0
LINE
  5
1A6
330
1F
100
AcDbEntity
  8
0
  6
SLD-Plná
 62
     7
370
    25
100
AcDbLine
 10
6308.5913054094
 20
5323.45313803
 30
0.0
 11
6308.5179941367
 21
5323.673250703
 31
0.0
  0
LINE
  5
1A7
330
1F
100
AcDbEntity
  8
0
  6
SLD-Plná
 62
     7
370
    25
100
AcDbLine
 10
6308.5179941367
 20
5323.673250703
 30
0.0
 11
6308.2913325239
 21
5323.673250703
 31
0.0
  0
LINE
  5
1A8
330
1F
100
AcDbEntity
  8
0
  6
SLD-Plná
 62
     7
370
    25
100
AcDbLine
 10
6314.8707066359
 20
5323.673250703
 30
0.0
 11
6314.6440450233
 21
5323.673250703
 31
0.0
  0
LINE
  5
1A9
330
1F
100
AcDbEntity
  8
0
  6
SLD-Plná
 62
     7
370
    25
100
AcDbLine
 10
6315.604882681
 20
5315.1841574782
 30
0.0
 11
6315.6432838238
 21
5315.1841574782
 31
0.0
  0
LINE
  5
1AA
330
1F
100
AcDbEntity
  8
0
  6
SLD-Plná
 62
     7
370
    25
100
AcDbLine
 10
6307.5187553361
 20
5315.1841574782
 30
0.0
 11
6307.557156479
 21
5315.1841574782
 31
0.0
  0
LINE
  5
1AB
330
1F
100
AcDbEntity
  8
0
  6
SLD-Plná
 62
     7
370
    25
100
AcDbLine
 10
6315.6432838238
 20
5296.814751707
 30
0.0
 11
6315.604882681
 21
5296.814751707
 31
0.0
  0
LINE
  5
1AC
330
1F
100
AcDbEntity
  8
0
  6
SLD-Plná
 62
     7
370
    25
100
AcDbLine
 10
6315.604882681
 20
5297.7841574782
 30
0.0
 11
6315.6432838238
 21
5297.7841574782
 31
0.0
  0
LINE
  5
1AD
330
1F
100
AcDbEntity
  8
0
  6
SLD-Plná
 62
     7
370
    25
100
AcDbLine
 10
6315.6432838238
 20
5314.214751707
 30
0.0
 11
6315.604882681
 21
5314.214751707
 31
0.0
  0
LINE
  5
1AE
330
1F
100
AcDbEntity
  8
0
  6
SLD-Plná
 62
     7
370
    25
100
AcDbLine
 10
6318.747102507
 20
5270.7860172194
 30
0.0
 11
6318.747102507
 21
5270.798215216
 31
0.0
  0
LINE
  5
1AF
330
1F
100
AcDbEntity
  8
0
  6
SLD-Plná
 62
     7
370
    25
100
AcDbLine
 10
6317.4570629921
 20
5214.214751707
 30
0.0
 11
6317.3994539648
 21
5214.214751707
 31
0.0
  0
LINE
  5
1B0
330
1F
100
AcDbEntity
  8
0
  6
SLD-Plná
 62
     7
370
    25
100
AcDbLine
 10
6317.4570629921
 20
5247.5841574782
 30
0.0
 11
6317.3994539647
 21
5247.5841574782
 31
0.0
  0
LINE
  5
1B1
330
1F
100
AcDbEntity
  8
0
  6
SLD-Plná
 62
     7
370
    25
100
AcDbLine
 10
6317.7776967359
 20
5270.798215216
 30
0.0
 11
6317.7776967359
 21
5270.7860172194
 31
0.0
  0
LINE
  5
1B2
330
1F
100
AcDbEntity
  8
0
  6
SLD-Plná
 62
     7
370
    25
100
AcDbLine
 10
6308.4776967359
 20
5249.2126340303
 30
0.0
 11
6308.4776967359
 21
5249.2964454605
 31
0.0
  0
LINE
  5
1B3
330
1F
100
AcDbEntity
  8
0
  6
SLD-Plná
 62
     7
370
    25
100
AcDbLine
 10
6308.3623996214
 20
5249.2702430577
 30
0.0
 11
6308.3623996214
 21
5249.2964454605
 31
0.0
  0
LINE
  5
1B4
330
1F
100
AcDbEntity
  8
0
  6
SLD-Plná
 62
     7
370
    25
100
AcDbLine
 10
6317.3994539648
 20
5215.1841574782
 30
0.0
 11
6317.4570629921
 21
5215.1841574782
 31
0.0
  0
LINE
  5
1B5
330
1F
100
AcDbEntity
  8
0
  6
SLD-Plná
 62
     7
370
    25
100
AcDbLine
 10
6307.5187553361
 20
5297.7841574782
 30
0.0
 11
6307.557156479
 21
5297.7841574782
 31
0.0
  0
LINE
  5
1B6
330
1F
100
AcDbEntity
  8
0
  6
SLD-Plná
 62
     7
370
    25
100
AcDbLine
 10
6309.5623996214
 20
5249.2964454605
 30
0.0
 11
6309.5623996214
 21
5249.2702430577
 31
0.0
  0
LINE
  5
1B7
330
1F
100
AcDbEntity
  8
0
  6
SLD-Plná
 62
     7
370
    25
100
AcDbLine
 10
6309.447102507
 20
5249.2964454605
 30
0.0
 11
6309.447102507
 21
5249.2126340303
 31
0.0
  0
LINE
  5
1B8
330
1F
100
AcDbEntity
  8
0
  6
SLD-Plná
 62
     7
370
    25
100
AcDbLine
 10
6307.557156479
 20
5314.214751707
 30
0.0
 11
6307.5187553361
 21
5314.214751707
 31
0.0
  0
LINE
  5
1B9
330
1F
100
AcDbEntity
  8
0
  6
SLD-Plná
 62
     7
370
    25
100
AcDbLine
 10
6307.557156479
 20
5296.814751707
 30
0.0
 11
6307.5187553361
 21
5296.814751707
 31
0.0
  0
LINE
  5
1BA
330
1F
100
AcDbEntity
  8
0
  6
SLD-Plná
 62
     7
370
    25
100
AcDbLine
 10
6317.3994539647
 20
5246.614751707
 30
0.0
 11
6317.4570629921
 21
5246.614751707
 31
0.0
  0
LINE
  5
1BB
330
1F
100
AcDbEntity
  8
0
  6
SLD-Plná
 62
     7
370
    25
100
AcDbLine
 10
6306.8787476746
 20
5215.1841574782
 30
0.0
 11
6306.9363567021
 21
5215.1841574782
 31
0.0
  0
LINE
  5
1BC
330
1F
100
AcDbEntity
  8
0
  6
SLD-Plná
 62
     7
370
    25
100
AcDbLine
 10
6306.9363567022
 20
5214.214751707
 30
0.0
 11
6306.8787476746
 21
5214.214751707
 31
0.0
  0
LINE
  5
1BD
330
1F
100
AcDbEntity
  8
0
  6
SLD-Plná
 62
     7
370
    25
100
AcDbLine
 10
6313.5516234014
 20
5321.3736716063
 30
0.0
 11
6309.6103243618
 21
5321.3736716063
 31
0.0
  0
LINE
  5
1BE
330
1F
100
AcDbEntity
  8
0
  6
SLD-Plná
 62
     7
370
    25
100
AcDbLine
 10
6316.9949445565
 20
5290.639095112
 30
0.0
 11
6316.9949445565
 21
5290.6652982582
 31
0.0
  0
LINE
  5
1BF
330
1F
100
AcDbEntity
  8
0
  6
SLD-Plná
 62
     7
370
    25
100
AcDbLine
 10
6322.6298546864
 20
5290.6652982582
 30
0.0
 11
6322.6298546864
 21
5290.639095112
 31
0.0
  0
LINE
  5
1C0
330
1F
100
AcDbEntity
  8
0
  6
SLD-Plná
 62
     7
370
    25
100
AcDbLine
 10
6322.8041526101
 20
5272.4577244515
 30
0.0
 11
6322.8041526101
 21
5272.6577168384
 31
0.0
  0
ARC
  5
1C1
330
1F
100
AcDbEntity
  8
0
  6
SLD-Plná
 62
     7
370
    25
100
AcDbCircle
 10
6322.8041593031
 20
5273.057694911
 30
0.0
 40
0.3999780726749763
100
AcDbArc
 50
269.9990412496
 51
0.0009587504
  0
LINE
  5
1C2
330
1F
100
AcDbEntity
  8
0
  6
SLD-Plná
 62
     7
370
    25
100
AcDbLine
 10
6323.4041297626
 20
5273.0577016039
 30
0.0
 11
6323.2041373757
 21
5273.0577016039
 31
0.0
  0
ARC
  5
1C3
330
1F
100
AcDbEntity
  8
0
  6
SLD-Plná
 62
     7
370
    25
100
AcDbCircle
 10
6306.0206399398
 20
5288.3412142742
 30
0.0
 40
0.3999780726749763
100
AcDbArc
 50
89.9990412498
 51
180.0009587504
  0
LINE
  5
1C4
330
1F
100
AcDbEntity
  8
0
  6
SLD-Plná
 62
     7
370
    25
100
AcDbLine
 10
6305.6206618672
 20
5288.3412075813
 30
0.0
 11
6305.4206694803
 21
5288.3412075813
 31
0.0
  0
LINE
  5
1C5
330
1F
100
AcDbEntity
  8
0
  6
SLD-Plná
 62
     7
370
    25
100
AcDbLine
 10
6306.0206466328
 20
5288.7411923468
 30
0.0
 11
6306.0206466328
 21
5288.9411847337
 31
0.0
  0
LINE
  5
1C6
330
1F
100
AcDbEntity
  8
0
  6
SLD-Plná
 62
     7
370
    25
100
AcDbLine
 10
6323.4041297626
 20
5288.3412075813
 30
0.0
 11
6323.2041373757
 21
5288.3412075813
 31
0.0
  0
ARC
  5
1C7
330
1F
100
AcDbEntity
  8
0
  6
SLD-Plná
 62
     7
370
    25
100
AcDbCircle
 10
6322.8041593031
 20
5288.3412142742
 30
0.0
 40
0.3999780726758858
100
AcDbArc
 50
359.9990412496
 51
90.0009587502
  0
LINE
  5
1C8
330
1F
100
AcDbEntity
  8
0
  6
SLD-Plná
 62
     7
370
    25
100
AcDbLine
 10
6322.8041526101
 20
5288.9411847337
 30
0.0
 11
6322.8041526101
 21
5288.7411923469
 31
0.0
  0
ARC
  5
1C9
330
1F
100
AcDbEntity
  8
0
  6
SLD-Plná
 62
     7
370
    25
100
AcDbCircle
 10
6306.0206399398
 20
5273.057694911
 30
0.0
 40
0.3999780726758858
100
AcDbArc
 50
179.9990412498
 51
270.0009587502
  0
LINE
  5
1CA
330
1F
100
AcDbEntity
  8
0
  6
SLD-Plná
 62
     7
370
    25
100
AcDbLine
 10
6306.0206466328
 20
5272.6577168383
 30
0.0
 11
6306.0206466328
 21
5272.4577244515
 31
0.0
  0
LINE
  5
1CB
330
1F
100
AcDbEntity
  8
0
  6
SLD-Plná
 62
     7
370
    25
100
AcDbLine
 10
6305.6206618672
 20
5273.0577016039
 30
0.0
 11
6305.4206694803
 21
5273.0577016039
 31
0.0
  0
LINE
  5
1CC
330
1F
100
AcDbEntity
  8
0
  6
SLD-Plná
 62
     7
370
    25
100
AcDbLine
 10
6322.7380760889
 20
5288.7411923505
 30
0.0
 11
6322.8041526101
 21
5288.7411923469
 31
0.0
  0
ELLIPSE
  5
1CD
330
1F
100
AcDbEntity
  8
0
  6
SLD-Plná
 62
     7
370
    25
100
AcDbEllipse
 10
6322.7345850759
 20
5288.7411923505
 30
0.0
 11
0.0
 21
0.1999999999989086
 31
0.0
210
0.0
220
0.0
230
1.0
 40
0.0174550649
 41
4.71238898038469
 42
6.27445866082491
  0
LINE
  5
1CE
330
1F
100
AcDbEntity
  8
0
  6
SLD-Plná
 62
     7
370
    25
100
AcDbLine
 10
6306.0206466328
 20
5288.7411923468
 30
0.0
 11
6316.8867231539
 21
5288.7411923505
 31
0.0
  0
ELLIPSE
  5
1CF
330
1F
100
AcDbEntity
  8
0
  6
SLD-Plná
 62
     7
370
    25
100
AcDbEllipse
 10
6316.8902141669
 20
5288.7411923505
 30
0.0
 11
0.0
 21
0.1999999999998181
 31
0.0
210
0.0
220
0.0
230
1.0
 40
0.0174550649
 41
0.0087266463555068
 42
1.570796326794897
  0
LINE
  5
1D0
330
1F
100
AcDbEntity
  8
0
  6
SLD-Plná
 62
     7
370
    25
100
AcDbLine
 10
6322.8041526101
 20
5272.6577168384
 30
0.0
 11
6314.7880760889
 21
5272.6577168347
 31
0.0
  0
ELLIPSE
  5
1D1
330
1F
100
AcDbEntity
  8
0
  6
SLD-Plná
 62
     7
370
    25
100
AcDbEllipse
 10
6314.7845850759
 20
5272.6577168347
 30
0.0
 11
0.0
 21
0.2000000000007276
 31
0.0
210
0.0
220
0.0
230
1.0
 40
0.0174550649
 41
3.150319299687848
 42
4.71238898038469
  0
LINE
  5
1D2
330
1F
100
AcDbEntity
  8
0
  6
SLD-Plná
 62
     7
370
    25
100
AcDbLine
 10
6308.936723154
 20
5272.6577168347
 30
0.0
 11
6306.0206466328
 21
5272.6577168383
 31
0.0
  0
ELLIPSE
  5
1D3
330
1F
100
AcDbEntity
  8
0
  6
SLD-Plná
 62
     7
370
    25
100
AcDbEllipse
 10
6308.9402141669
 20
5272.6577168347
 30
0.0
 11
0.0
 21
0.1999999999998181
 31
0.0
210
0.0
220
0.0
230
1.0
 40
0.0174550649
 41
1.570796326794897
 42
3.132866007492578
  0
LINE
  5
1D4
330
1F
100
AcDbEntity
  8
0
  6
SLD-Plná
 62
     7
370
    25
100
AcDbLine
 10
6323.2041373757
 20
5288.3412075813
 30
0.0
 11
6323.2041373757
 21
5273.0577016039
 31
0.0
  0
LINE
  5
1D5
330
1F
100
AcDbEntity
  8
0
  6
SLD-Plná
 62
     7
370
    25
100
AcDbLine
 10
6305.6206618672
 20
5273.0577016039
 30
0.0
 11
6305.6206618672
 21
5288.3412075813
 31
0.0
  0
LINE
  5
1D6
330
1F
100
AcDbEntity
  8
0
  6
SLD-Plná
 62
     7
370
    25
100
AcDbLine
 10
6314.7880760889
 20
5272.7702680493
 30
0.0
 11
6314.7880760889
 21
5272.6577168347
 31
0.0
  0
LINE
  5
1D7
330
1F
100
AcDbEntity
  8
0
  6
SLD-Plná
 62
     7
370
    25
100
AcDbLine
 10
6308.936723154
 20
5272.6577168347
 30
0.0
 11
6308.936723154
 21
5272.7702680493
 31
0.0
  0
LINE
  5
1D8
330
1F
100
AcDbEntity
  8
0
  6
SLD-Plná
 62
     7
370
    25
100
AcDbLine
 10
6316.8867231539
 20
5288.6829993714
 30
0.0
 11
6316.8867231539
 21
5288.7411923505
 31
0.0
  0
LINE
  5
1D9
330
1F
100
AcDbEntity
  8
0
  6
SLD-Plná
 62
     7
370
    25
100
AcDbLine
 10
6322.7380760889
 20
5288.7411923505
 30
0.0
 11
6322.7380760889
 21
5288.6610667174
 31
0.0
  0
LINE
  5
1DA
330
1F
100
AcDbEntity
  8
0
  6
SLD-Plná
 62
     7
370
    25
100
AcDbLine
 10
6309.6692804932
 20
5314.3779358172
 30
0.0
 11
6313.49266727
 21
5314.3779358172
 31
0.0
  0
LINE
  5
1DB
330
1F
100
AcDbEntity
  8
0
  6
SLD-Plná
 62
     7
370
    25
100
AcDbLine
 10
6309.6692804932
 20
5312.1213629072
 30
0.0
 11
6313.49266727
 21
5312.1213629072
 31
0.0
  0
LINE
  5
1DC
330
1F
100
AcDbEntity
  8
0
  6
SLD-Plná
 62
     7
370
    25
100
AcDbLine
 10
6305.7356175609
 20
5285.6479776651
 30
0.0
 11
6305.7356175609
 21
5275.8052897549
 31
0.0
  0
SPLINE
  5
1DD
330
1F
100
AcDbEntity
  8
0
  6
SLD-Plná
 62
     7
370
    25
100
AcDbSpline
210
0.0
220
0.0
230
1.0
 70
    24
 71
     3
 72
    11
 73
     7
 74
     0
 42
0.00000001
 43
0.00000001
 40
0.0
 40
0.0
 40
0.0
 40
0.0
 40
0.2500000000000219
 40
0.5000000000000268
 40
0.7500000000000314
 40
0.9999999999999999
 40
0.9999999999999999
 40
0.9999999999999999
 40
0.9999999999999999
 10
6305.735617560907
 20
5285.647977665095
 30
0.0
 10
6305.743616634893
 20
5285.647977665095
 30
0.0
 10
6305.759614782864
 20
5285.647977665095
 30
0.0
 10
6305.875449125941
 20
5285.647977665095
 30
0.0
 10
6306.040135672911
 20
5285.647977665095
 30
0.0
 10
6306.170444238831
 20
5285.647977665095
 30
0.0
 10
6306.23559852179
 20
5285.647977665095
 30
0.0
  0
LINE
  5
1DE
330
1F
100
AcDbEntity
  8
0
  6
SLD-Plná
 62
     7
370
    25
100
AcDbLine
 10
6306.2355985224
 20
5275.8052897556
 30
0.0
 11
6306.2355985224
 21
5285.6479776657
 31
0.0
  0
SPLINE
  5
1DF
330
1F
100
AcDbEntity
  8
0
  6
SLD-Plná
 62
     7
370
    25
100
AcDbSpline
210
0.0
220
0.0
230
1.0
 70
    24
 71
     3
 72
    11
 73
     7
 74
     0
 42
0.00000001
 43
0.00000001
 40
0.0
 40
0.0
 40
0.0
 40
0.0
 40
0.2499999999999985
 40
0.4999999999999916
 40
0.7500000000000142
 40
1.0
 40
1.0
 40
1.0
 40
1.0
 10
6305.735617560914
 20
5275.805289754898
 30
0.0
 10
6305.743616634931
 20
5275.805289754898
 30
0.0
 10
6305.759614782964
 20
5275.805289754898
 30
0.0
 10
6305.875449126231
 20
5275.805289754898
 30
0.0
 10
6306.040135673415
 20
5275.805289754898
 30
0.0
 10
6306.170444239436
 20
5275.805289754899
 30
0.0
 10
6306.235598522446
 20
5275.805289754899
 30
0.0
  0
LINE
  5
1E0
330
1F
100
AcDbEntity
  8
0
  6
SLD-Plná
 62
     7
370
    25
100
AcDbLine
 10
6322.5348424849
 20
5275.8052897557
 30
0.0
 11
6306.2355985224
 21
5275.8052897556
 31
0.0
  0
LINE
  5
1E1
330
1F
100
AcDbEntity
  8
0
  6
SLD-Plná
 62
     7
370
    25
100
AcDbLine
 10
6306.2355985218
 20
5285.6479776651
 30
0.0
 11
6322.5348424855
 21
5285.6479776651
 31
0.0
  0
LINE
  5
1E2
330
1F
100
AcDbEntity
  8
0
  6
SLD-Plná
 62
     7
370
    25
100
AcDbLine
 10
6322.5348424849
 20
5285.6479776651
 30
0.0
 11
6322.5348424849
 21
5275.8052897548
 31
0.0
  0
SPLINE
  5
1E3
330
1F
100
AcDbEntity
  8
0
  6
SLD-Plná
 62
     7
370
    25
100
AcDbSpline
210
0.0
220
0.0
230
1.0
 70
     8
 71
     3
 72
    13
 73
     9
 74
     0
 42
0.00000001
 43
0.00000001
 40
0.0
 40
0.0
 40
0.0
 40
0.0
 40
0.1993624729093034
 40
0.4320079366433489
 40
0.5614183591822913
 40
0.6992244946358029
 40
0.8454204602180125
 40
1.0
 40
1.0
 40
1.0
 40
1.0
 10
6306.23559852244
 20
5285.647977665694
 30
0.0
 10
6306.235297269384
 20
5285.959485839167
 30
0.0
 10
6306.234644469941
 20
5286.634507578742
 30
0.0
 10
6306.231062823989
 20
5287.422664366263
 30
0.0
 10
6306.227163686073
 20
5287.981211529869
 30
0.0
 10
6306.223420312276
 20
5288.337699522379
 30
0.0
 10
6306.219036985941
 20
5288.592110410739
 30
0.0
 10
6306.215691241688
 20
5288.628936935471
 30
0.0
 10
6306.21397174127
 20
5288.647863434282
 30
0.0
  0
LINE
  5
1E4
330
1F
100
AcDbEntity
  8
0
  6
SLD-Plná
 62
     7
370
    25
100
AcDbLine
 10
6322.556469266
 20
5288.6478634343
 30
0.0
 11
6306.2139717413
 21
5288.6478634343
 31
0.0
  0
SPLINE
  5
1E5
330
1F
100
AcDbEntity
  8
0
  6
SLD-Plná
 62
     7
370
    25
100
AcDbSpline
210
0.0
220
0.0
230
1.0
 70
     8
 71
     3
 72
    13
 73
     9
 74
     0
 42
0.00000001
 43
0.00000001
 40
0.0
 40
0.0
 40
0.0
 40
0.0
 40
0.1545795397755804
 40
0.3007755053532434
 40
0.4385816408040799
 40
0.5679920633422069
 40
0.8006375270796859
 40
1.0
 40
1.0
 40
1.0
 40
1.0
 10
6322.556469266038
 20
5288.647863434296
 30
0.0
 10
6322.554749765622
 20
5288.628936935524
 30
0.0
 10
6322.551404021367
 20
5288.592110410869
 30
0.0
 10
6322.547020695031
 20
5288.337699522527
 30
0.0
 10
6322.543277321233
 20
5287.981211529972
 30
0.0
 10
6322.539378183317
 20
5287.422664366235
 30
0.0
 10
6322.535796537366
 20
5286.634507578459
 30
0.0
 10
6322.535143737923
 20
5285.959485838678
 30
0.0
 10
6322.534842484867
 20
5285.647977665103
 30
0.0
  0
SPLINE
  5
1E6
330
1F
100
AcDbEntity
  8
0
  6
SLD-Plná
 62
     7
370
    25
100
AcDbSpline
210
0.0
220
0.0
230
1.0
 70
    24
 71
     3
 72
    11
 73
     7
 74
     0
 42
0.00000001
 43
0.00000001
 40
0.0
 40
0.0
 40
0.0
 40
0.0
 40
0.2499999999999531
 40
0.4999999999999841
 40
0.7499999999999956
 40
1.0
 40
1.0
 40
1.0
 40
1.0
 10
6322.534842485517
 20
5285.647977665103
 30
0.0
 10
6322.599996768477
 20
5285.647977665103
 30
0.0
 10
6322.730305334397
 20
5285.647977665103
 30
0.0
 10
6322.894991881366
 20
5285.647977665103
 30
0.0
 10
6323.010826224443
 20
5285.647977665103
 30
0.0
 10
6323.026824372414
 20
5285.647977665103
 30
0.0
 10
6323.034823446401
 20
5285.647977665103
 30
0.0
  0
LINE
  5
1E7
330
1F
100
AcDbEntity
  8
0
  6
SLD-Plná
 62
     7
370
    25
100
AcDbLine
 10
6323.0348234464
 20
5275.8052897557
 30
0.0
 11
6323.0348234464
 21
5285.6479776651
 31
0.0
  0
SPLINE
  5
1E8
330
1F
100
AcDbEntity
  8
0
  6
SLD-Plná
 62
     7
370
    25
100
AcDbSpline
210
0.0
220
0.0
230
1.0
 70
    24
 71
     3
 72
    11
 73
     7
 74
     0
 42
0.00000001
 43
0.00000001
 40
0.0
 40
0.0
 40
0.0
 40
0.0
 40
0.2499999999998149
 40
0.4999999999998747
 40
0.7499999999999162
 40
1.0
 40
1.0
 40
1.0
 40
1.0
 10
6322.534842484873
 20
5275.805289755652
 30
0.0
 10
6322.599996767883
 20
5275.805289755652
 30
0.0
 10
6322.730305333903
 20
5275.805289755652
 30
0.0
 10
6322.894991881087
 20
5275.805289755652
 30
0.0
 10
6323.010826224353
 20
5275.805289755652
 30
0.0
 10
6323.026824372387
 20
5275.805289755652
 30
0.0
 10
6323.034823446405
 20
5275.805289755652
 30
0.0
  0
LINE
  5
1E9
330
1F
100
AcDbEntity
  8
0
  6
SLD-Plná
 62
     7
370
    25
100
AcDbLine
 10
6306.2139717404
 20
5272.8054039865
 30
0.0
 11
6322.5564692665
 21
5272.8054039865
 31
0.0
  0
SPLINE
  5
1EA
330
1F
100
AcDbEntity
  8
0
  6
SLD-Plná
 62
     7
370
    25
100
AcDbSpline
210
0.0
220
0.0
230
1.0
 70
     8
 71
     3
 72
    13
 73
     9
 74
     0
 42
0.00000001
 43
0.00000001
 40
0.0
 40
0.0
 40
0.0
 40
0.0
 40
0.1545795397826584
 40
0.3007755053653803
 40
0.4385816408192649
 40
0.5679920633584231
 40
0.8006375270917725
 40
0.9999999999999999
 40
0.9999999999999999
 40
0.9999999999999999
 40
0.9999999999999999
 10
6306.213971741271
 20
5272.805403986447
 30
0.0
 10
6306.215691241689
 20
5272.824330485189
 30
0.0
 10
6306.219036985944
 20
5272.861157009784
 30
0.0
 10
6306.223420312279
 20
5273.115567898098
 30
0.0
 10
6306.227163686078
 20
5273.472055890656
 30
0.0
 10
6306.231062823995
 20
5274.030603054419
 30
0.0
 10
6306.234644469947
 20
5274.818759842239
 30
0.0
 10
6306.23529726939
 20
5275.493781582059
 30
0.0
 10
6306.235598522446
 20
5275.805289755643
 30
0.0
  0
SPLINE
  5
1EB
330
1F
100
AcDbEntity
  8
0
  6
SLD-Plná
 62
     7
370
    25
100
AcDbSpline
210
0.0
220
0.0
230
1.0
 70
     8
 71
     3
 72
    13
 73
     9
 74
     0
 42
0.00000001
 43
0.00000001
 40
0.0
 40
0.0
 40
0.0
 40
0.0
 40
0.1993624728936801
 40
0.4320079366225334
 40
0.5614183591627565
 40
0.6992244946201661
 40
0.8454204602088888
 40
1.0
 40
1.0
 40
1.0
 40
1.0
 10
6322.534842484873
 20
5275.805289754816
 30
0.0
 10
6322.535143737929
 20
5275.493781581378
 30
0.0
 10
6322.535796537371
 20
5274.818759841859
 30
0.0
 10
6322.539378183324
 20
5274.030603054402
 30
0.0
 10
6322.54327732124
 20
5273.472055890826
 30
0.0
 10
6322.547020695038
 20
5273.11556789833
 30
0.0
 10
6322.551404021373
 20
5272.861157009982
 30
0.0
 10
6322.554749765626
 20
5272.824330485267
 30
0.0
 10
6322.556469266044
 20
5272.805403986463
 30
0.0
  0
ELLIPSE
  5
1EC
330
1F
100
AcDbEntity
  8
0
  6
SLD-Plná
 62
     7
370
    25
100
AcDbEllipse
 10
6323.0566406159
 20
5275.8052897557
 30
0.0
 11
5.456968210637569E-12
 21
2.499999999996362
 31
0.0
210
0.0
220
0.0
230
1.0
 40
0.0087268678
 41
1.570796326794916
 42
3.132866007660134
  0
SPLINE
  5
1ED
330
1F
100
AcDbEntity
  8
0
  6
SLD-Plná
 62
     7
370
    25
100
AcDbSpline
210
0.0
220
0.0
230
1.0
 70
     8
 71
     3
 72
    11
 73
     7
 74
     0
 42
0.00000001
 43
0.00000001
 40
0.0
 40
0.0
 40
0.0
 40
0.0
 40
0.2499999999998448
 40
0.4999999999998825
 40
0.7499999999999213
 40
1.0
 40
1.0
 40
1.0
 40
1.0
 10
6322.556469266477
 20
5272.805403986459
 30
0.0
 10
6322.621982115441
 20
5272.812923731764
 30
0.0
 10
6322.75300781337
 20
5272.827963222374
 30
0.0
 10
6322.918268899573
 20
5272.943585314892
 30
0.0
 10
6323.033890991895
 20
5273.108846401232
 30
0.0
 10
6323.04893048235
 20
5273.239872099178
 30
0.0
 10
6323.056450227579
 20
5273.30538494815
 30
0.0
  0
ELLIPSE
  5
1EE
330
1F
100
AcDbEntity
  8
0
  6
SLD-Plná
 62
     7
370
    25
100
AcDbEllipse
 10
6305.7138003914
 20
5275.8052897556
 30
0.0
 11
-9.094947017729282E-13
 21
2.500000000002728
 31
0.0
210
0.0
220
0.0
230
1.0
 40
0.0087268678
 41
3.150319299895877
 42
4.712388980086736
  0
SPLINE
  5
1EF
330
1F
100
AcDbEntity
  8
0
  6
SLD-Plná
 62
     7
370
    25
100
AcDbSpline
210
0.0
220
0.0
230
1.0
 70
     8
 71
     3
 72
    11
 73
     7
 74
     0
 42
0.00000001
 43
0.00000001
 40
0.0
 40
0.0
 40
0.0
 40
0.0
 40
0.2499999999999959
 40
0.4999999999999962
 40
0.7499999999999898
 40
0.9999999999999999
 40
0.9999999999999999
 40
0.9999999999999999
 40
0.9999999999999999
 10
6305.713990779743
 20
5273.305384948143
 30
0.0
 10
6305.721510524962
 20
5273.239872099206
 30
0.0
 10
6305.736550015401
 20
5273.108846401332
 30
0.0
 10
6305.852172107601
 20
5272.943585315049
 30
0.0
 10
6306.017433193649
 20
5272.82796322251
 30
0.0
 10
6306.148458891492
 20
5272.812923731805
 30
0.0
 10
6306.213971740414
 20
5272.805403986451
 30
0.0
  0
ELLIPSE
  5
1F0
330
1F
100
AcDbEntity
  8
0
  6
SLD-Plná
 62
     7
370
    25
100
AcDbEllipse
 10
6305.7138003914
 20
5285.6479776651
 30
0.0
 11
6.366462912410498E-12
 21
2.499999999995453
 31
0.0
210
0.0
220
0.0
230
1.0
 40
0.0087268678
 41
4.712388980384712
 42
6.274458661252468
  0
SPLINE
  5
1F1
330
1F
100
AcDbEntity
  8
0
  6
SLD-Plná
 62
     7
370
    25
100
AcDbSpline
210
0.0
220
0.0
230
1.0
 70
     8
 71
     3
 72
    11
 73
     7
 74
     0
 42
0.00000001
 43
0.00000001
 40
0.0
 40
0.0
 40
0.0
 40
0.0
 40
0.2500000000000802
 40
0.5000000000000746
 40
0.7500000000000722
 40
1.0
 40
1.0
 40
1.0
 40
1.0
 10
6305.713990779735
 20
5288.147882472755
 30
0.0
 10
6305.721510524988
 20
5288.213395321748
 30
0.0
 10
6305.736550015496
 20
5288.344421019735
 30
0.0
 10
6305.852172107946
 20
5288.509682106074
 30
0.0
 10
6306.017433194285
 20
5288.625304198526
 30
0.0
 10
6306.148458892272
 20
5288.640343689034
 30
0.0
 10
6306.213971741265
 20
5288.647863434288
 30
0.0
  0
SPLINE
  5
1F2
330
1F
100
AcDbEntity
  8
0
  6
SLD-Plná
 62
     7
370
    25
100
AcDbSpline
210
0.0
220
0.0
230
1.0
 70
     8
 71
     3
 72
    11
 73
     7
 74
     0
 42
0.00000001
 43
0.00000001
 40
0.0
 40
0.0
 40
0.0
 40
0.0
 40
0.2499999999999327
 40
0.4999999999999158
 40
0.7499999999998843
 40
1.0
 40
1.0
 40
1.0
 40
1.0
 10
6322.556469266038
 20
5288.647863434296
 30
0.0
 10
6322.621982115032
 20
5288.640343689042
 30
0.0
 10
6322.753007813018
 20
5288.625304198535
 30
0.0
 10
6322.918268899359
 20
5288.509682106084
 30
0.0
 10
6323.033890991809
 20
5288.344421019744
 30
0.0
 10
6323.048930482317
 20
5288.213395321757
 30
0.0
 10
6323.056450227571
 20
5288.147882472764
 30
0.0
  0
ELLIPSE
  5
1F3
330
1F
100
AcDbEntity
  8
0
  6
SLD-Plná
 62
     7
370
    25
100
AcDbEllipse
 10
6323.0566406159
 20
5285.6479776651
 30
0.0
 11
-1.818989403545856E-12
 21
2.499999999997272
 31
0.0
210
0.0
220
0.0
230
1.0
 40
0.0087268678
 41
0.0087266462201611
 42
1.57079632679489
  0
LINE
  5
1F4
330
1F
100
AcDbEntity
  8
0
  6
SLD-Plná
 62
     7
370
    25
100
AcDbLine
 10
6305.7139907797
 20
5273.305384948
 30
0.0
 11
6305.6352205037
 21
5273.2266146719
 31
0.0
  0
LINE
  5
1F5
330
1F
100
AcDbEntity
  8
0
  6
SLD-Plná
 62
     7
370
    25
100
AcDbLine
 10
6305.6352205037
 20
5288.2266527488
 30
0.0
 11
6305.6352205037
 21
5273.2266146719
 31
0.0
  0
LINE
  5
1F6
330
1F
100
AcDbEntity
  8
0
  6
SLD-Plná
 62
     7
370
    25
100
AcDbLine
 10
6305.6352205037
 20
5288.2266527488
 30
0.0
 11
6305.7139907797
 21
5288.1478824728
 31
0.0
  0
LINE
  5
1F7
330
1F
100
AcDbEntity
  8
0
  6
SLD-Plná
 62
     7
370
    25
100
AcDbLine
 10
6323.0564502276
 20
5288.1478824728
 30
0.0
 11
6323.0915861647
 21
5288.1830184099
 31
0.0
  0
LINE
  5
1F8
330
1F
100
AcDbEntity
  8
0
  6
SLD-Plná
 62
     7
370
    25
100
AcDbLine
 10
6323.0915861647
 20
5285.4214428893
 30
0.0
 11
6323.0915866194
 21
5288.1830184099
 31
0.0
  0
ELLIPSE
  5
1F9
330
1F
100
AcDbEntity
  8
0
  6
SLD-Plná
 62
     7
370
    25
100
AcDbEllipse
 10
6323.094204225
 20
5285.4214428893
 30
0.0
 11
0.0
 21
0.3000000000001819
 31
0.0
210
0.0
220
0.0
230
1.0
 40
0.0087268678
 41
1.570796326794897
 42
3.124139361053909
  0
LINE
  5
1FA
330
1F
100
AcDbEntity
  8
0
  6
SLD-Plná
 62
     7
370
    25
100
AcDbLine
 10
6323.1352205037
 20
5285.0393583857
 30
0.0
 11
6323.0941585336
 21
5285.1214885808
 31
0.0
  0
LINE
  5
1FB
330
1F
100
AcDbEntity
  8
0
  6
SLD-Plná
 62
     7
370
    25
100
AcDbLine
 10
6323.1352205037
 20
5273.2266146719
 30
0.0
 11
6323.1352205037
 21
5285.0393583857
 31
0.0
  0
LINE
  5
1FC
330
1F
100
AcDbEntity
  8
0
  6
SLD-Plná
 62
     7
370
    25
100
AcDbLine
 10
6323.1352205037
 20
5273.2266146719
 30
0.0
 11
6323.0564502276
 21
5273.305384948
 31
0.0
  0
LINE
  5
1FD
330
1F
100
AcDbEntity
  8
0
  6
SLD-Plná
 62
     7
370
    25
100
AcDbLine
 10
6323.1352205015
 20
5273.2265575601
 30
0.0
 11
6323.1352205037
 21
5273.2266146719
 31
0.0
  0
ELLIPSE
  5
1FE
330
1F
100
AcDbEntity
  8
0
  6
SLD-Plná
 62
     7
370
    25
100
AcDbEllipse
 10
6322.6351824238
 20
5273.2266717902
 30
0.0
 11
0.3536072405386221
 21
-0.3536072405377126
 31
0.0
210
0.0
220
0.0
230
1.0
 40
0.9998477126
 41
5.497939439796781
 42
7.068431177329446
  0
LINE
  5
1FF
330
1F
100
AcDbEntity
  8
0
  6
SLD-Plná
 62
     7
370
    25
100
AcDbLine
 10
6322.6352395421
 20
5272.7266337104
 30
0.0
 11
6322.6352966553
 21
5272.7266337115
 31
0.0
  0
LINE
  5
200
330
1F
100
AcDbEntity
  8
0
  6
SLD-Plná
 62
     7
370
    25
100
AcDbLine
 10
6322.556469266
 20
5272.8054039865
 30
0.0
 11
6322.6352395421
 21
5272.7266337104
 31
0.0
  0
LINE
  5
201
330
1F
100
AcDbEntity
  8
0
  6
SLD-Plná
 62
     7
370
    25
100
AcDbLine
 10
6306.1352014652
 20
5272.7266337104
 30
0.0
 11
6306.2139717413
 21
5272.8054039864
 31
0.0
  0
LINE
  5
202
330
1F
100
AcDbEntity
  8
0
  6
SLD-Plná
 62
     7
370
    25
100
AcDbLine
 10
6306.1351443534
 20
5272.7266337125
 30
0.0
 11
6306.1352014652
 21
5272.7266337104
 31
0.0
  0
ELLIPSE
  5
203
330
1F
100
AcDbEntity
  8
0
  6
SLD-Plná
 62
     7
370
    25
100
AcDbEllipse
 10
6306.1352585835
 20
5273.2266717902
 30
0.0
 11
0.3536072405377126
 21
0.3536072405377126
 31
0.0
210
0.0
220
0.0
230
1.0
 40
0.9998477126
 41
2.356346786210721
 42
3.92683852373849
  0
LINE
  5
204
330
1F
100
AcDbEntity
  8
0
  6
SLD-Plná
 62
     7
370
    25
100
AcDbLine
 10
6305.6352205037
 20
5273.2266146719
 30
0.0
 11
6305.6352205047
 21
5273.2265575587
 31
0.0
  0
LINE
  5
205
330
1F
100
AcDbEntity
  8
0
  6
SLD-Plná
 62
     7
370
    25
100
AcDbLine
 10
6315.9224958283
 20
5272.7266337104
 30
0.0
 11
6322.6352395421
 21
5272.7266337104
 31
0.0
  0
LINE
  5
206
330
1F
100
AcDbEntity
  8
0
  6
SLD-Plná
 62
     7
370
    25
100
AcDbLine
 10
6315.8403656333
 20
5272.7676956804
 30
0.0
 11
6315.9224958283
 21
5272.7266337104
 31
0.0
  0
ELLIPSE
  5
207
330
1F
100
AcDbEntity
  8
0
  6
SLD-Plná
 62
     7
370
    25
100
AcDbEllipse
 10
6315.5404113247
 20
5272.767649989
 30
0.0
 11
0.3000000000001819
 21
0.0
 31
0.0
210
0.0
220
0.0
230
1.0
 40
0.0087268678
 41
0.017453292535814
 42
1.570796326794897
  0
LINE
  5
208
330
1F
100
AcDbEntity
  8
0
  6
SLD-Plná
 62
     7
370
    25
100
AcDbLine
 10
6314.6300296826
 20
5272.7702680493
 30
0.0
 11
6315.5404113247
 21
5272.7702680493
 31
0.0
  0
ELLIPSE
  5
209
330
1F
100
AcDbEntity
  8
0
  6
SLD-Plná
 62
     7
370
    25
100
AcDbEllipse
 10
6314.6300296826
 20
5272.767649989
 30
0.0
 11
0.3000000000001819
 21
0.0
 31
0.0
210
0.0
220
0.0
230
1.0
 40
0.0087268678
 41
1.570796326794897
 42
3.124139361059971
  0
LINE
  5
20A
330
1F
100
AcDbEntity
  8
0
  6
SLD-Plná
 62
     7
370
    25
100
AcDbLine
 10
6314.247945179
 20
5272.7266337104
 30
0.0
 11
6314.330075374
 21
5272.7676956804
 31
0.0
  0
LINE
  5
20B
330
1F
100
AcDbEntity
  8
0
  6
SLD-Plná
 62
     7
370
    25
100
AcDbLine
 10
6309.4224958283
 20
5272.7266337104
 30
0.0
 11
6314.247945179
 21
5272.7266337104
 31
0.0
  0
LINE
  5
20C
330
1F
100
AcDbEntity
  8
0
  6
SLD-Plná
 62
     7
370
    25
100
AcDbLine
 10
6309.3403656333
 20
5272.7676956804
 30
0.0
 11
6309.4224958283
 21
5272.7266337104
 31
0.0
  0
ELLIPSE
  5
20D
330
1F
100
AcDbEntity
  8
0
  6
SLD-Plná
 62
     7
370
    25
100
AcDbEllipse
 10
6309.0404113247
 20
5272.767649989
 30
0.0
 11
0.3000000000001819
 21
0.0
 31
0.0
210
0.0
220
0.0
230
1.0
 40
0.0087268678
 41
0.0174532928770917
 42
1.570796326794897
  0
LINE
  5
20E
330
1F
100
AcDbEntity
  8
0
  6
SLD-Plná
 62
     7
370
    25
100
AcDbLine
 10
6308.1300296826
 20
5272.7702680493
 30
0.0
 11
6309.0404113247
 21
5272.7702680493
 31
0.0
  0
ELLIPSE
  5
20F
330
1F
100
AcDbEntity
  8
0
  6
SLD-Plná
 62
     7
370
    25
100
AcDbEllipse
 10
6308.1300296826
 20
5272.767649989
 30
0.0
 11
0.3000000000001819
 21
9.094947017729282E-13
 31
0.0
210
0.0
220
0.0
230
1.0
 40
0.0087268678
 41
1.57079632679487
 42
3.124139360365415
  0
LINE
  5
210
330
1F
100
AcDbEntity
  8
0
  6
SLD-Plná
 62
     7
370
    25
100
AcDbLine
 10
6307.747945179
 20
5272.7266337104
 30
0.0
 11
6307.830075374
 21
5272.7676956804
 31
0.0
  0
LINE
  5
211
330
1F
100
AcDbEntity
  8
0
  6
SLD-Plná
 62
     7
370
    25
100
AcDbLine
 10
6306.1352014652
 20
5272.7266337104
 30
0.0
 11
6307.747945179
 21
5272.7266337104
 31
0.0
  0
LINE
  5
212
330
1F
100
AcDbEntity
  8
0
  6
SLD-Plná
 62
     7
370
    25
100
AcDbLine
 10
6306.2139717413
 20
5288.6478634343
 30
0.0
 11
6306.1352014652
 21
5288.7266337104
 31
0.0
  0
LINE
  5
213
330
1F
100
AcDbEntity
  8
0
  6
SLD-Plná
 62
     7
370
    25
100
AcDbLine
 10
6315.197945179
 20
5288.7266337104
 30
0.0
 11
6306.1352014652
 21
5288.7266337104
 31
0.0
  0
LINE
  5
214
330
1F
100
AcDbEntity
  8
0
  6
SLD-Plná
 62
     7
370
    25
100
AcDbLine
 10
6315.280075374
 20
5288.6855717403
 30
0.0
 11
6315.197945179
 21
5288.7266337104
 31
0.0
  0
ELLIPSE
  5
215
330
1F
100
AcDbEntity
  8
0
  6
SLD-Plná
 62
     7
370
    25
100
AcDbEllipse
 10
6315.5800296826
 20
5288.6856174318
 30
0.0
 11
0.3000000000001819
 21
0.0
 31
0.0
210
0.0
220
0.0
230
1.0
 40
0.0087268678
 41
3.159045946127276
 42
4.71238898038469
  0
LINE
  5
216
330
1F
100
AcDbEntity
  8
0
  6
SLD-Plná
 62
     7
370
    25
100
AcDbLine
 10
6316.9904113247
 20
5288.6829993714
 30
0.0
 11
6315.5800296826
 21
5288.6829993714
 31
0.0
  0
ELLIPSE
  5
217
330
1F
100
AcDbEntity
  8
0
  6
SLD-Plná
 62
     7
370
    25
100
AcDbEllipse
 10
6316.9904113247
 20
5288.6856174318
 30
0.0
 11
0.2999999999992724
 21
0.0
 31
0.0
210
0.0
220
0.0
230
1.0
 40
0.0087268678
 41
4.71238898038469
 42
6.265732014645369
  0
LINE
  5
218
330
1F
100
AcDbEntity
  8
0
  6
SLD-Plná
 62
     7
370
    25
100
AcDbLine
 10
6317.3724958283
 20
5288.7266337104
 30
0.0
 11
6317.2903656333
 21
5288.6855717403
 31
0.0
  0
LINE
  5
219
330
1F
100
AcDbEntity
  8
0
  6
SLD-Plná
 62
     7
370
    25
100
AcDbLine
 10
6322.197945179
 20
5288.7266337104
 30
0.0
 11
6317.3724958283
 21
5288.7266337104
 31
0.0
  0
LINE
  5
21A
330
1F
100
AcDbEntity
  8
0
  6
SLD-Plná
 62
     7
370
    25
100
AcDbLine
 10
6322.280075374
 20
5288.6855717403
 30
0.0
 11
6322.197945179
 21
5288.7266337104
 31
0.0
  0
ELLIPSE
  5
21B
330
1F
100
AcDbEntity
  8
0
  6
SLD-Plná
 62
     7
370
    25
100
AcDbEllipse
 10
6322.5800296826
 20
5288.6856174318
 30
0.0
 11
0.3000000000001819
 21
0.0
 31
0.0
210
0.0
220
0.0
230
1.0
 40
0.0087268678
 41
3.159045946127226
 42
4.71238898038469
  0
LINE
  5
21C
330
1F
100
AcDbEntity
  8
0
  6
SLD-Plná
 62
     7
370
    25
100
AcDbLine
 10
6322.5916052032
 20
5288.6829998261
 30
0.0
 11
6322.5800296826
 21
5288.6829993714
 31
0.0
  0
LINE
  5
21D
330
1F
100
AcDbEntity
  8
0
  6
SLD-Plná
 62
     7
370
    25
100
AcDbLine
 10
6322.5916052032
 20
5288.6829993715
 30
0.0
 11
6322.556469266
 21
5288.6478634343
 31
0.0
  0
ARC
  5
21E
330
1F
100
AcDbEntity
  8
0
  6
SLD-Plná
 62
     7
370
    25
100
AcDbCircle
 10
6322.5916115416
 20
5288.1830247483
 30
0.0
 40
0.4999750778890077
100
AcDbArc
 50
359.9992736379
 51
90.0007263621
  0
LINE
  5
21F
330
1F
100
AcDbEntity
  8
0
  6
SLD-Plná
 62
     7
370
    25
100
AcDbLine
 10
6305.6352205058
 20
5288.2267098606
 30
0.0
 11
6305.6352205037
 21
5288.2266527488
 31
0.0
  0
ELLIPSE
  5
220
330
1F
100
AcDbEntity
  8
0
  6
SLD-Plná
 62
     7
370
    25
100
AcDbEllipse
 10
6306.1352585835
 20
5288.2265956305
 30
0.0
 11
0.3536072405386221
 21
-0.3536072405368031
 31
0.0
210
0.0
220
0.0
230
1.0
 40
0.9998477126
 41
2.356346786206973
 42
3.926838523735275
  0
LINE
  5
221
330
1F
100
AcDbEntity
  8
0
  6
SLD-Plná
 62
     7
370
    25
100
AcDbLine
 10
6306.1352014652
 20
5288.7266337104
 30
0.0
 11
6306.135144352
 21
5288.7266337093
 31
0.0
  0
LINE
  5
222
330
1F
100
AcDbEntity
  8
0
  6
SLD-Plná
 62
     7
370
    25
100
AcDbLine
 10
6322.197945179
 20
5289.0022880407
 30
0.0
 11
6322.197945179
 21
5288.7266337104
 31
0.0
  0
LINE
  5
223
330
1F
100
AcDbEntity
  8
0
  6
SLD-Plná
 62
     7
370
    25
100
AcDbLine
 10
6317.3724958283
 20
5288.7266337104
 30
0.0
 11
6317.3724958283
 21
5289.0022880407
 31
0.0
  0
LINE
  5
224
330
1F
100
AcDbEntity
  8
0
  6
SLD-Plná
 62
     7
370
    25
100
AcDbLine
 10
6314.247945179
 20
5272.3966211445
 30
0.0
 11
6314.247945179
 21
5272.7266337104
 31
0.0
  0
LINE
  5
225
330
1F
100
AcDbEntity
  8
0
  6
SLD-Plná
 62
     7
370
    25
100
AcDbLine
 10
6309.4224958283
 20
5272.7266337104
 30
0.0
 11
6309.4224958283
 21
5272.3966211445
 31
0.0
  0
LWPOLYLINE
  5
226
330
1F
100
AcDbEntity
  8
0
  6
SLD-Plná
 62
     7
370
    25
100
AcDbPolyline
 90
        3
 70
   128
 43
0.0
 10
6354.361939463
 20
5066.0104690159
 10
6354.2865222898
 20
5065.9316876393
 10
6354.2059390718
 20
5065.8546209834
  0
LWPOLYLINE
  5
227
330
1F
100
AcDbEntity
  8
0
  6
SLD-Plná
 62
     7
370
    25
100
AcDbPolyline
 90
        3
 70
   128
 43
0.0
 10
6193.6754167806
 20
5066.0106375607
 10
6193.7509883837
 20
5065.9316876397
 10
6193.8313977201
 20
5065.8547800215
  0
LINE
  5
228
330
1F
100
AcDbEntity
  8
0
  6
SLD-Plná
 62
     7
370
    25
100
AcDbLine
 10
6215.6520886694
 20
5367.8494545926
 30
0.0
 11
6215.6520886694
 21
5363.6994545926
 31
0.0
  0
LINE
  5
229
330
1F
100
AcDbEntity
  8
0
  6
SLD-Plná
 62
     7
370
    25
100
AcDbLine
 10
6223.9854220028
 20
5363.6994545926
 30
0.0
 11
6223.9854220028
 21
5367.8494545926
 31
0.0
  0
LINE
  5
22A
330
1F
100
AcDbEntity
  8
0
  6
SLD-Plná
 62
     7
370
    25
100
AcDbLine
 10
6240.6520886694
 20
5363.6994545926
 30
0.0
 11
6240.6520886694
 21
5367.8494545926
 31
0.0
  0
LINE
  5
22B
330
1F
100
AcDbEntity
  8
0
  6
SLD-Plná
 62
     7
370
    25
100
AcDbLine
 10
6232.3187553361
 20
5367.8494545926
 30
0.0
 11
6232.3187553361
 21
5363.6994545926
 31
0.0
  0
LINE
  5
22C
330
1F
100
AcDbEntity
  8
0
  6
SLD-Plná
 62
     7
370
    25
100
AcDbLine
 10
6257.3187553361
 20
5363.6994545926
 30
0.0
 11
6257.3187553361
 21
5367.8494545926
 31
0.0
  0
LINE
  5
22D
330
1F
100
AcDbEntity
  8
0
  6
SLD-Plná
 62
     7
370
    25
100
AcDbLine
 10
6248.9854220028
 20
5367.8494545926
 30
0.0
 11
6248.9854220028
 21
5363.6994545926
 31
0.0
  0
LINE
  5
22E
330
1F
100
AcDbEntity
  8
0
  6
SLD-Plná
 62
     7
370
    25
100
AcDbLine
 10
6299.0520886695
 20
5363.6994545926
 30
0.0
 11
6299.0520886695
 21
5367.8494545927
 31
0.0
  0
LINE
  5
22F
330
1F
100
AcDbEntity
  8
0
  6
SLD-Plná
 62
     7
370
    25
100
AcDbLine
 10
6290.7187553362
 20
5367.8494545927
 30
0.0
 11
6290.7187553362
 21
5363.6994545926
 31
0.0
  0
LINE
  5
230
330
1F
100
AcDbEntity
  8
0
  6
SLD-Plná
 62
     7
370
    25
100
AcDbLine
 10
6315.7187553362
 20
5363.6994545926
 30
0.0
 11
6315.7187553362
 21
5367.8494545927
 31
0.0
  0
LINE
  5
231
330
1F
100
AcDbEntity
  8
0
  6
SLD-Plná
 62
     7
370
    25
100
AcDbLine
 10
6307.3854220029
 20
5367.8494545927
 30
0.0
 11
6307.3854220029
 21
5363.6994545926
 31
0.0
  0
LINE
  5
232
330
1F
100
AcDbEntity
  8
0
  6
SLD-Plná
 62
     7
370
    25
100
AcDbLine
 10
6332.3854220029
 20
5363.6994545926
 30
0.0
 11
6332.3854220029
 21
5367.8494545927
 31
0.0
  0
LINE
  5
233
330
1F
100
AcDbEntity
  8
0
  6
SLD-Plná
 62
     7
370
    25
100
AcDbLine
 10
6324.0520886695
 20
5367.8494545927
 30
0.0
 11
6324.0520886695
 21
5363.6994545926
 31
0.0
  0
LINE
  5
234
330
1F
100
AcDbEntity
  8
0
  6
SLD-Plná
 62
     7
370
    25
100
AcDbLine
 10
6207.3187553361
 20
5367.8494545927
 30
0.0
 11
6207.3187553361
 21
5363.6994545926
 31
0.0
  0
LINE
  5
235
330
1F
100
AcDbEntity
  8
0
  6
SLD-Plná
 62
     7
370
    25
100
AcDbLine
 10
6340.7187553362
 20
5363.6994545926
 30
0.0
 11
6340.7187553362
 21
5367.8494545926
 31
0.0
  0
SPLINE
  5
236
330
1F
100
AcDbEntity
  8
0
  6
SLD-Plná
 62
     7
370
    25
100
AcDbSpline
210
0.0
220
0.0
230
1.0
 70
     8
 71
     3
 72
    11
 73
     7
 74
     0
 42
0.00000001
 43
0.00000001
 40
0.0
 40
0.0
 40
0.0
 40
0.0
 40
0.2500000000000007
 40
0.5000000000000084
 40
0.7500000000000014
 40
1.0
 40
1.0
 40
1.0
 40
1.0
 10
6193.195532031274
 20
5065.199454592611
 30
0.0
 10
6193.264133973342
 20
5065.214486165399
 30
0.0
 10
6193.401337857478
 20
5065.244549310974
 30
0.0
 10
6193.607143683683
 20
5065.475798524095
 30
0.0
 10
6193.812949509887
 20
5065.80634346119
 30
0.0
 10
6193.950153394023
 20
5066.068417548802
 30
0.0
 10
6194.018755336091
 20
5066.199454592608
 30
0.0
  0
SPLINE
  5
237
330
1F
100
AcDbEntity
  8
0
  6
SLD-Plná
 62
     7
370
    25
100
AcDbSpline
210
0.0
220
0.0
230
1.0
 70
     8
 71
     3
 72
    11
 73
     7
 74
     0
 42
0.00000001
 43
0.00000001
 40
0.0
 40
0.0
 40
0.0
 40
0.0
 40
0.2500000000000007
 40
0.5000000000000043
 40
0.7500000000000036
 40
1.0
 40
1.0
 40
1.0
 40
1.0
 10
6193.195532031274
 20
5063.699454592611
 30
0.0
 10
6193.264133973342
 20
5063.73703352458
 30
0.0
 10
6193.401337857478
 20
5063.812191388517
 30
0.0
 10
6193.607143683683
 20
5064.390314421321
 30
0.0
 10
6193.812949509887
 20
5065.216676764059
 30
0.0
 10
6193.950153394023
 20
5065.871861983088
 30
0.0
 10
6194.018755336091
 20
5066.199454592603
 30
0.0
  0
LINE
  5
238
330
1F
100
AcDbEntity
  8
0
  6
SLD-Plná
 62
     7
370
    25
100
AcDbLine
 10
6193.1955320313
 20
5063.6994545926
 30
0.0
 11
6193.1955320313
 21
5065.1994545926
 31
0.0
  0
SPLINE
  5
239
330
1F
100
AcDbEntity
  8
0
  6
SLD-Plná
 62
     7
370
    25
100
AcDbSpline
210
0.0
220
0.0
230
1.0
 70
     8
 71
     3
 72
    12
 73
     8
 74
     0
 42
0.00000001
 43
0.00000001
 40
0.0
 40
0.0
 40
0.0
 40
0.0
 40
0.2427570513645134
 40
0.485514084637545
 40
0.7281783820458814
 40
0.9708428319687008
 40
1.0
 40
1.0
 40
1.0
 40
1.0
 10
6194.018755336091
 20
5066.199454592623
 30
0.0
 10
6193.891654266472
 20
5066.132833803727
 30
0.0
 10
6193.637452136705
 20
5065.999592230901
 30
0.0
 10
6193.310829984142
 20
5065.799704634195
 30
0.0
 10
6193.086536324667
 20
5065.600045599175
 30
0.0
 10
6193.021042700338
 20
5065.458425824935
 30
0.0
 10
6193.018976923328
 20
5065.384193842186
 30
0.0
 10
6193.018755336068
 20
5065.37623128788
 30
0.0
  0
LINE
  5
23A
330
1F
100
AcDbEntity
  8
0
  6
SLD-Plná
 62
     7
370
    25
100
AcDbLine
 10
6191.5187553361
 20
5065.3762312879
 30
0.0
 11
6193.0187553361
 21
5065.3762312879
 31
0.0
  0
SPLINE
  5
23B
330
1F
100
AcDbEntity
  8
0
  6
SLD-Plná
 62
     7
370
    25
100
AcDbSpline
210
0.0
220
0.0
230
1.0
 70
     8
 71
     3
 72
    12
 73
     8
 74
     0
 42
0.00000001
 43
0.00000001
 40
0.0
 40
0.0
 40
0.0
 40
0.0
 40
0.1913660220175103
 40
0.4107021154763883
 40
0.6300458239436406
 40
0.8493894065372661
 40
1.0
 40
1.0
 40
1.0
 40
1.0
 10
6194.018755336088
 20
5066.199454592615
 30
0.0
 10
6193.768516346742
 20
5066.146987153807
 30
0.0
 10
6193.231463419502
 20
5066.034383631591
 30
0.0
 10
6192.484472898419
 20
5065.86130561981
 30
0.0
 10
6191.88992419605
 20
5065.680699938172
 30
0.0
 10
6191.566347877467
 20
5065.518722240043
 30
0.0
 10
6191.532524882768
 20
5065.417456987591
 30
0.0
 10
6191.518755336068
 20
5065.37623128788
 30
0.0
  0
SPLINE
  5
23C
330
1F
100
AcDbEntity
  8
0
  6
SLD-Plná
 62
     7
370
    25
100
AcDbSpline
210
0.0
220
0.0
230
1.0
 70
     8
 71
     3
 72
    11
 73
     7
 74
     0
 42
0.00000001
 43
0.00000001
 40
0.0
 40
0.0
 40
0.0
 40
0.0
 40
0.2500000000000083
 40
0.4999999999999921
 40
0.7499999999999982
 40
1.0
 40
1.0
 40
1.0
 40
1.0
 10
6355.018755336118
 20
5065.376231287781
 30
0.0
 10
6355.00372376333
 20
5065.444833229849
 30
0.0
 10
6354.973660617751
 20
5065.582037113983
 30
0.0
 10
6354.742411404602
 20
5065.787842940187
 30
0.0
 10
6354.411866467471
 20
5065.993648766391
 30
0.0
 10
6354.14979237984
 20
5066.130852650526
 30
0.0
 10
6354.018755336024
 20
5066.199454592594
 30
0.0
  0
SPLINE
  5
23D
330
1F
100
AcDbEntity
  8
0
  6
SLD-Plná
 62
     7
370
    25
100
AcDbSpline
210
0.0
220
0.0
230
1.0
 70
     8
 71
     3
 72
    11
 73
     7
 74
     0
 42
0.00000001
 43
0.00000001
 40
0.0
 40
0.0
 40
0.0
 40
0.0
 40
0.2499999999999998
 40
0.4999999999999996
 40
0.7499999999999998
 40
1.0
 40
1.0
 40
1.0
 40
1.0
 10
6356.518755336118
 20
5065.376231287781
 30
0.0
 10
6356.481176404146
 20
5065.444833229849
 30
0.0
 10
6356.4060185402
 20
5065.582037113983
 30
0.0
 10
6355.827895507327
 20
5065.787842940187
 30
0.0
 10
6355.001533164499
 20
5065.993648766391
 30
0.0
 10
6354.346347945421
 20
5066.130852650526
 30
0.0
 10
6354.018755335882
 20
5066.199454592594
 30
0.0
  0
LINE
  5
23E
330
1F
100
AcDbEntity
  8
0
  6
SLD-Plná
 62
     7
370
    25
100
AcDbLine
 10
6356.518755336
 20
5065.3762312878
 30
0.0
 11
6355.0187553361
 21
5065.3762312878
 31
0.0
  0
SPLINE
  5
23F
330
1F
100
AcDbEntity
  8
0
  6
SLD-Plná
 62
     7
370
    25
100
AcDbSpline
210
0.0
220
0.0
230
1.0
 70
     8
 71
     3
 72
    12
 73
     8
 74
     0
 42
0.00000001
 43
0.00000001
 40
0.0
 40
0.0
 40
0.0
 40
0.0
 40
0.2427570513626525
 40
0.4855140846424615
 40
0.7281783820574949
 40
0.9708428319870087
 40
1.0
 40
1.0
 40
1.0
 40
1.0
 10
6354.018755336071
 20
5066.19945459261
 30
0.0
 10
6354.085376124946
 20
5066.072353522985
 30
0.0
 10
6354.218617697736
 20
5065.818151393203
 30
0.0
 10
6354.41850529445
 20
5065.49152924066
 30
0.0
 10
6354.618164329466
 20
5065.267235581191
 30
0.0
 10
6354.7597841037
 20
5065.201741956874
 30
0.0
 10
6354.834016086445
 20
5065.199676179865
 30
0.0
 10
6354.841978640745
 20
5065.199454592607
 30
0.0
  0
LINE
  5
240
330
1F
100
AcDbEntity
  8
0
  6
SLD-Plná
 62
     7
370
    25
100
AcDbLine
 10
6354.8419786408
 20
5063.6994545926
 30
0.0
 11
6354.8419786408
 21
5065.1994545926
 31
0.0
  0
SPLINE
  5
241
330
1F
100
AcDbEntity
  8
0
  6
SLD-Plná
 62
     7
370
    25
100
AcDbSpline
210
0.0
220
0.0
230
1.0
 70
     8
 71
     3
 72
    12
 73
     8
 74
     0
 42
0.00000001
 43
0.00000001
 40
0.0
 40
0.0
 40
0.0
 40
0.0
 40
0.191366022028041
 40
0.4107021154894435
 40
0.6300458239592196
 40
0.849389406555364
 40
1.0
 40
1.0
 40
1.0
 40
1.0
 10
6354.018755336071
 20
5066.199454592595
 30
0.0
 10
6354.07122277486
 20
5065.949215603234
 30
0.0
 10
6354.183826297036
 20
5065.412162675972
 30
0.0
 10
6354.356904308837
 20
5064.665172154897
 30
0.0
 10
6354.53750999047
 20
5064.070623452545
 30
0.0
 10
6354.699487688595
 20
5063.747047133996
 30
0.0
 10
6354.80075294104
 20
5063.713224139304
 30
0.0
 10
6354.841978640745
 20
5063.699454592607
 30
0.0
  0
LINE
  5
242
330
1F
100
AcDbEntity
  8
0
  6
SLD-Plná
 62
     7
370
    25
100
AcDbLine
 10
6194.0187553361
 20
5361.1994545926
 30
0.0
 11
6194.0187553361
 21
5066.1994545926
 31
0.0
  0
LINE
  5
243
330
1F
100
AcDbEntity
  8
0
  6
SLD-Plná
 62
     7
370
    25
100
AcDbLine
 10
6354.0187553361
 20
5361.1994545926
 30
0.0
 11
6194.0187553361
 21
5361.1994545926
 31
0.0
  0
LINE
  5
244
330
1F
100
AcDbEntity
  8
0
  6
SLD-Plná
 62
     7
370
    25
100
AcDbLine
 10
6354.0187553361
 20
5066.1994545926
 30
0.0
 11
6354.0187553361
 21
5361.1994545926
 31
0.0
  0
LINE
  5
245
330
1F
100
AcDbEntity
  8
0
  6
SLD-Plná
 62
     7
370
    25
100
AcDbLine
 10
6194.0187553361
 20
5066.1994545926
 30
0.0
 11
6354.0187553361
 21
5066.1994545926
 31
0.0
  0
LINE
  5
246
330
1F
100
AcDbEntity
  8
0
  6
SLD-Plná
 62
     7
370
    25
100
AcDbLine
 10
6206.5187553361
 20
5308.6994545926
 30
0.0
 11
6266.5187553361
 21
5308.6994545926
 31
0.0
  0
LINE
  5
247
330
1F
100
AcDbEntity
  8
0
  6
SLD-Plná
 62
     7
370
    25
100
AcDbLine
 10
6266.5187553361
 20
5308.6994545926
 30
0.0
 11
6266.5187553361
 21
5338.6994545926
 31
0.0
  0
LINE
  5
248
330
1F
100
AcDbEntity
  8
0
  6
SLD-Plná
 62
     7
370
    25
100
AcDbLine
 10
6266.5187553361
 20
5338.6994545926
 30
0.0
 11
6206.5187553361
 21
5338.6994545926
 31
0.0
  0
LINE
  5
249
330
1F
100
AcDbEntity
  8
0
  6
SLD-Plná
 62
     7
370
    25
100
AcDbLine
 10
6206.5187553361
 20
5338.6994545926
 30
0.0
 11
6206.5187553361
 21
5308.6994545926
 31
0.0
  0
LINE
  5
24A
330
1F
100
AcDbEntity
  8
0
  6
SLD-Plná
 62
     7
370
    25
100
AcDbLine
 10
6307.8784049995
 20
5207.8925029853
 30
0.0
 11
6316.4574056671
 21
5207.8925029853
 31
0.0
  0
ARC
  5
24B
330
1F
100
AcDbEntity
  8
0
  6
SLD-Plná
 62
     7
370
    25
100
AcDbCircle
 10
6316.4574056671
 20
5208.8921603103
 30
0.0
 40
0.9996573249763969
100
AcDbArc
 50
270.0
 51
0.0000000001
  0
LINE
  5
24C
330
1F
100
AcDbEntity
  8
0
  6
SLD-Plná
 62
     7
370
    25
100
AcDbLine
 10
6317.4570629921
 20
5208.8921603103
 30
0.0
 11
6317.4570629921
 21
5248.2967881355
 31
0.0
  0
ARC
  5
24D
330
1F
100
AcDbEntity
  8
0
  6
SLD-Plná
 62
     7
370
    25
100
AcDbCircle
 10
6316.4574056671
 20
5248.2967881355
 30
0.0
 40
0.9996573249763969
100
AcDbArc
 50
0.0
 51
90.0
  0
LINE
  5
24E
330
1F
100
AcDbEntity
  8
0
  6
SLD-Plná
 62
     7
370
    25
100
AcDbLine
 10
6316.4574056671
 20
5249.2964454605
 30
0.0
 11
6307.8784049995
 21
5249.2964454605
 31
0.0
  0
ARC
  5
24F
330
1F
100
AcDbEntity
  8
0
  6
SLD-Plná
 62
     7
370
    25
100
AcDbCircle
 10
6307.8784049995
 20
5248.2967881355
 30
0.0
 40
0.9996573249763969
100
AcDbArc
 50
90.0
 51
180.0
  0
LINE
  5
250
330
1F
100
AcDbEntity
  8
0
  6
SLD-Plná
 62
     7
370
    25
100
AcDbLine
 10
6306.8787476746
 20
5248.2967881355
 30
0.0
 11
6306.8787476746
 21
5208.8921603103
 31
0.0
  0
ARC
  5
251
330
1F
100
AcDbEntity
  8
0
  6
SLD-Plná
 62
     7
370
    25
100
AcDbCircle
 10
6307.8784049995
 20
5208.8921603103
 30
0.0
 40
0.9996573249763969
100
AcDbArc
 50
180.0
 51
270.0
  0
LINE
  5
252
330
1F
100
AcDbEntity
  8
0
  6
SLD-Plná
 62
     7
370
    25
100
AcDbLine
 10
6325.0793485563
 20
5290.6652982582
 30
0.0
 11
6315.6432838238
 21
5290.6652982582
 31
0.0
  0
LINE
  5
253
330
1F
100
AcDbEntity
  8
0
  6
SLD-Plná
 62
     7
370
    25
100
AcDbLine
 10
6315.6432838238
 20
5290.6652982582
 30
0.0
 11
6315.6432838238
 21
5322.6994545926
 31
0.0
  0
ARC
  5
254
330
1F
100
AcDbEntity
  8
0
  6
SLD-Plná
 62
     7
370
    25
100
AcDbCircle
 10
6314.6432838238
 20
5322.6994545926
 30
0.0
 40
1.0
100
AcDbArc
 50
0.0
 51
90.0
  0
LINE
  5
255
330
1F
100
AcDbEntity
  8
0
  6
SLD-Plná
 62
     7
370
    25
100
AcDbLine
 10
6314.6432838238
 20
5323.6994545926
 30
0.0
 11
6308.5187553361
 21
5323.6994545926
 31
0.0
  0
ARC
  5
256
330
1F
100
AcDbEntity
  8
0
  6
SLD-Plná
 62
     7
370
    25
100
AcDbCircle
 10
6308.5187553361
 20
5322.6994545926
 30
0.0
 40
0.9999999999990905
100
AcDbArc
 50
90.0
 51
180.0
  0
LINE
  5
257
330
1F
100
AcDbEntity
  8
0
  6
SLD-Plná
 62
     7
370
    25
100
AcDbLine
 10
6307.5187553361
 20
5322.6994545926
 30
0.0
 11
6307.5187553361
 21
5290.6652982582
 31
0.0
  0
LINE
  5
258
330
1F
100
AcDbEntity
  8
0
  6
SLD-Plná
 62
     7
370
    25
100
AcDbLine
 10
6307.5187553361
 20
5290.6652982582
 30
0.0
 11
6303.7227591019
 21
5290.6652982582
 31
0.0
  0
LINE
  5
259
330
1F
100
AcDbEntity
  8
0
  6
SLD-Plná
 62
     7
370
    25
100
AcDbLine
 10
6303.7227591019
 20
5290.6652982582
 30
0.0
 11
6303.7227591019
 21
5270.7860172194
 31
0.0
  0
LINE
  5
25A
330
1F
100
AcDbEntity
  8
0
  6
SLD-Plná
 62
     7
370
    25
100
AcDbLine
 10
6303.7227591019
 20
5270.7860172194
 30
0.0
 11
6325.0793485563
 21
5270.7860172194
 31
0.0
  0
LINE
  5
25B
330
1F
100
AcDbEntity
  8
0
  6
SLD-Plná
 62
     7
370
    25
100
AcDbLine
 10
6325.0793485563
 20
5270.7860172194
 30
0.0
 11
6325.0793485563
 21
5290.6652982582
 31
0.0
  0
SPLINE
  5
25C
330
1F
100
AcDbEntity
  8
0
  6
SLD-Plná
 62
     7
370
    25
100
AcDbSpline
210
0.0
220
0.0
230
1.0
 70
     8
 71
     3
 72
    11
 73
     7
 74
     0
 42
0.00000001
 43
0.00000001
 40
0.0
 40
0.0
 40
0.0
 40
0.0
 40
0.2499999999999981
 40
0.4999999999999983
 40
0.7499999999999982
 40
1.0
 40
1.0
 40
1.0
 40
1.0
 10
6354.018755335987
 20
5361.199454592618
 30
0.0
 10
6354.346347945518
 20
5361.26805653468
 30
0.0
 10
6355.001533164577
 20
5361.405260418805
 30
0.0
 10
6355.827895507371
 20
5361.611066244992
 30
0.0
 10
6356.406018540218
 20
5361.816872071178
 30
0.0
 10
6356.481176404161
 20
5361.954075955302
 30
0.0
 10
6356.518755336131
 20
5362.022677897366
 30
0.0
  0
LINE
  5
25D
330
1F
100
AcDbEntity
  8
0
  6
SLD-Plná
 62
     7
370
    25
100
AcDbLine
 10
6356.518755336
 20
5065.3762312878
 30
0.0
 11
6356.518755336
 21
5362.0226778974
 31
0.0
  0
LINE
  5
25E
330
1F
100
AcDbEntity
  8
0
  6
SLD-Plná
 62
     7
370
    25
100
AcDbLine
 10
6193.1955320313
 20
5063.6994545926
 30
0.0
 11
6354.8419786407
 21
5063.6994545926
 31
0.0
  0
SPLINE
  5
25F
330
1F
100
AcDbEntity
  8
0
  6
SLD-Plná
 62
     7
370
    25
100
AcDbSpline
210
0.0
220
0.0
230
1.0
 70
     8
 71
     3
 72
    11
 73
     7
 74
     0
 42
0.00000001
 43
0.00000001
 40
0.0
 40
0.0
 40
0.0
 40
0.0
 40
0.2499999999999894
 40
0.5000000000000042
 40
0.7500000000000153
 40
0.9999999999999999
 40
0.9999999999999999
 40
0.9999999999999999
 40
0.9999999999999999
 10
6354.018755336074
 20
5361.199454592618
 30
0.0
 10
6354.149792379886
 20
5361.26805653468
 30
0.0
 10
6354.411866467509
 20
5361.405260418805
 30
0.0
 10
6354.742411404628
 20
5361.611066244992
 30
0.0
 10
6354.973660617766
 20
5361.816872071178
 30
0.0
 10
6355.003723763342
 20
5361.954075955303
 30
0.0
 10
6355.018755336131
 20
5362.022677897366
 30
0.0
  0
LINE
  5
260
330
1F
100
AcDbEntity
  8
0
  6
SLD-Plná
 62
     7
370
    25
100
AcDbLine
 10
6356.518755336
 20
5362.0226778974
 30
0.0
 11
6355.018755336
 21
5362.0226778974
 31
0.0
  0
SPLINE
  5
261
330
1F
100
AcDbEntity
  8
0
  6
SLD-Plná
 62
     7
370
    25
100
AcDbSpline
210
0.0
220
0.0
230
1.0
 70
     8
 71
     3
 72
    12
 73
     8
 74
     0
 42
0.00000001
 43
0.00000001
 40
0.0
 40
0.0
 40
0.0
 40
0.0
 40
0.2427570513725515
 40
0.4855140846560962
 40
0.7281783820749539
 40
0.97084283200831
 40
1.0
 40
1.0
 40
1.0
 40
1.0
 10
6354.841978640829
 20
5362.199454592617
 30
0.0
 10
6354.775357851929
 20
5362.185294438033
 30
0.0
 10
6354.642116279091
 20
5362.156974129917
 30
0.0
 10
6354.442228682356
 20
5361.938327721554
 30
0.0
 10
6354.24256964737
 20
5361.62431586133
 30
0.0
 10
6354.100949872988
 20
5361.356276971359
 30
0.0
 10
6354.026717890365
 20
5361.214646681415
 30
0.0
 10
6354.018755336084
 20
5361.199454592618
 30
0.0
  0
SPLINE
  5
262
330
1F
100
AcDbEntity
  8
0
  6
SLD-Plná
 62
     7
370
    25
100
AcDbSpline
210
0.0
220
0.0
230
1.0
 70
     8
 71
     3
 72
    12
 73
     8
 74
     0
 42
0.00000001
 43
0.00000001
 40
0.0
 40
0.0
 40
0.0
 40
0.0
 40
0.1933249040909282
 40
0.412663377550725
 40
0.6320089711118774
 40
0.8513544344083852
 40
1.0
 40
1.0
 40
1.0
 40
1.0
 10
6354.841978640829
 20
5363.699454592617
 30
0.0
 10
6354.788969704801
 20
5363.676968010574
 30
0.0
 10
6354.675819013304
 20
5363.628969078726
 30
0.0
 10
6354.502208006038
 20
5363.228730365007
 30
0.0
 10
6354.321602232591
 20
5362.593285200288
 30
0.0
 10
6354.16016053286
 20
5361.8739041892
 30
0.0
 10
6354.059440134019
 20
5361.393505774471
 30
0.0
 10
6354.018755336084
 20
5361.199454592619
 30
0.0
  0
LINE
  5
263
330
1F
100
AcDbEntity
  8
0
  6
SLD-Plná
 62
     7
370
    25
100
AcDbLine
 10
6354.8419786408
 20
5363.6994545926
 30
0.0
 11
6354.8419786408
 21
5362.1994545926
 31
0.0
  0
SPLINE
  5
264
330
1F
100
AcDbEntity
  8
0
  6
SLD-Plná
 62
     7
370
    25
100
AcDbSpline
210
0.0
220
0.0
230
1.0
 70
     8
 71
     3
 72
    12
 73
     8
 74
     0
 42
0.00000001
 43
0.00000001
 40
0.0
 40
0.0
 40
0.0
 40
0.0
 40
0.1913660220253508
 40
0.4107021154852006
 40
0.6300458239534228
 40
0.8493894065480027
 40
1.0
 40
1.0
 40
1.0
 40
1.0
 10
6194.018755336091
 20
5361.199454592619
 30
0.0
 10
6193.966287897281
 20
5361.449693581972
 30
0.0
 10
6193.853684375063
 20
5361.986746509218
 30
0.0
 10
6193.680606363286
 20
5362.733737030303
 30
0.0
 10
6193.500000681652
 20
5363.32828573266
 30
0.0
 10
6193.338022983529
 20
5363.651862051224
 30
0.0
 10
6193.236757731085
 20
5363.685685045919
 30
0.0
 10
6193.195532031377
 20
5363.699454592617
 30
0.0
  0
LINE
  5
265
330
1F
100
AcDbEntity
  8
0
  6
SLD-Plná
 62
     7
370
    25
100
AcDbLine
 10
6354.8419786408
 20
5363.6994545926
 30
0.0
 11
6193.1955320314
 21
5363.6994545926
 31
0.0
  0
SPLINE
  5
266
330
1F
100
AcDbEntity
  8
0
  6
SLD-Plná
 62
     7
370
    25
100
AcDbSpline
210
0.0
220
0.0
230
1.0
 70
     8
 71
     3
 72
    11
 73
     7
 74
     0
 42
0.00000001
 43
0.00000001
 40
0.0
 40
0.0
 40
0.0
 40
0.0
 40
0.2499999999999834
 40
0.4999999999999993
 40
0.749999999999988
 40
0.9999999999999999
 40
0.9999999999999999
 40
0.9999999999999999
 40
0.9999999999999999
 10
6193.018755336073
 20
5362.022677897414
 30
0.0
 10
6193.033786908861
 20
5361.954075955347
 30
0.0
 10
6193.063850054436
 20
5361.816872071213
 30
0.0
 10
6193.295099267563
 20
5361.611066245012
 30
0.0
 10
6193.625644204666
 20
5361.405260418812
 30
0.0
 10
6193.887718292282
 20
5361.268056534678
 30
0.0
 10
6194.018755336091
 20
5361.199454592612
 30
0.0
  0
SPLINE
  5
267
330
1F
100
AcDbEntity
  8
0
  6
SLD-Plná
 62
     7
370
    25
100
AcDbSpline
210
0.0
220
0.0
230
1.0
 70
     8
 71
     3
 72
    11
 73
     7
 74
     0
 42
0.00000001
 43
0.00000001
 40
0.0
 40
0.0
 40
0.0
 40
0.0
 40
0.2500000000000017
 40
0.5000000000000013
 40
0.749999999999999
 40
1.0
 40
1.0
 40
1.0
 40
1.0
 10
6191.518755336073
 20
5362.022677897414
 30
0.0
 10
6191.556334268042
 20
5361.954075955347
 30
0.0
 10
6191.631492131981
 20
5361.816872071214
 30
0.0
 10
6192.209615164799
 20
5361.611066245012
 30
0.0
 10
6193.035977507558
 20
5361.405260418812
 30
0.0
 10
6193.691162726598
 20
5361.268056534678
 30
0.0
 10
6194.018755336117
 20
5361.199454592612
 30
0.0
  0
LINE
  5
268
330
1F
100
AcDbEntity
  8
0
  6
SLD-Plná
 62
     7
370
    25
100
AcDbLine
 10
6191.5187553361
 20
5362.0226778974
 30
0.0
 11
6193.0187553361
 21
5362.0226778974
 31
0.0
  0
LINE
  5
269
330
1F
100
AcDbEntity
  8
0
  6
SLD-Plná
 62
     7
370
    25
100
AcDbLine
 10
6191.5187553361
 20
5362.0226778974
 30
0.0
 11
6191.5187553361
 21
5065.3762312879
 31
0.0
  0
SPLINE
  5
26A
330
1F
100
AcDbEntity
  8
0
  6
SLD-Plná
 62
     7
370
    25
100
AcDbSpline
210
0.0
220
0.0
230
1.0
 70
     8
 71
     3
 72
    12
 73
     8
 74
     0
 42
0.00000001
 43
0.00000001
 40
0.0
 40
0.0
 40
0.0
 40
0.0
 40
0.242757051364473
 40
0.485514084639685
 40
0.728178382050073
 40
0.9708428319749011
 40
1.0
 40
1.0
 40
1.0
 40
1.0
 10
6194.018755336091
 20
5361.19945459262
 30
0.0
 10
6193.952134547196
 20
5361.326555662235
 30
0.0
 10
6193.81889297437
 20
5361.580757791997
 30
0.0
 10
6193.619005377675
 20
5361.907379944554
 30
0.0
 10
6193.419346342661
 20
5362.131673604023
 30
0.0
 10
6193.277726568426
 20
5362.19716722835
 30
0.0
 10
6193.203494585681
 20
5362.199233005358
 30
0.0
 10
6193.195532031377
 20
5362.199454592617
 30
0.0
  0
LINE
  5
26B
330
1F
100
AcDbEntity
  8
0
  6
SLD-Plná
 62
     7
370
    25
100
AcDbLine
 10
6193.1955320314
 20
5363.6994545926
 30
0.0
 11
6193.1955320314
 21
5362.1994545926
 31
0.0
  0
LINE
  5
26C
330
1F
100
AcDbEntity
  8
0
  6
SLD-Plná
 62
     7
370
    25
100
AcDbLine
 10
6355.768755336
 20
5063.6994545926
 30
0.0
 11
6355.768755336
 21
5065.1994545926
 31
0.0
  0
LINE
  5
26D
330
1F
100
AcDbEntity
  8
0
  6
SLD-Plná
 62
     7
370
    25
100
AcDbLine
 10
6354.8419786407
 20
5065.1994545926
 30
0.0
 11
6355.768755336
 21
5065.1994545926
 31
0.0
  0
LINE
  5
26E
330
1F
100
AcDbEntity
  8
0
  6
SLD-Plná
 62
     7
370
    25
100
AcDbLine
 10
6354.8419786407
 20
5063.6994545926
 30
0.0
 11
6355.768755336
 21
5063.6994545926
 31
0.0
  0
LINE
  5
26F
330
1F
100
AcDbEntity
  8
0
  6
SLD-Plná
 62
     7
370
    25
100
AcDbLine
 10
6192.2687553361
 20
5063.6994545926
 30
0.0
 11
6192.2687553361
 21
5065.1994545926
 31
0.0
  0
LINE
  5
270
330
1F
100
AcDbEntity
  8
0
  6
SLD-Plná
 62
     7
370
    25
100
AcDbLine
 10
6193.1955320313
 20
5065.1994545926
 30
0.0
 11
6192.2687553361
 21
5065.1994545926
 31
0.0
  0
LINE
  5
271
330
1F
100
AcDbEntity
  8
0
  6
SLD-Plná
 62
     7
370
    25
100
AcDbLine
 10
6193.1955320313
 20
5063.6994545926
 30
0.0
 11
6192.2687553361
 21
5063.6994545926
 31
0.0
  0
LINE
  5
272
330
1F
100
AcDbEntity
  8
0
  6
SLD-Plná
 62
     7
370
    25
100
AcDbLine
 10
6355.018755336
 20
5065.2994545926
 30
0.0
 11
6356.518755336
 21
5065.2994545926
 31
0.0
  0
LINE
  5
273
330
1F
100
AcDbEntity
  8
0
  6
SLD-Plná
 62
     7
370
    25
100
AcDbLine
 10
6355.018755336
 20
5065.3762312878
 30
0.0
 11
6355.018755336
 21
5065.2994545926
 31
0.0
  0
LINE
  5
274
330
1F
100
AcDbEntity
  8
0
  6
SLD-Plná
 62
     7
370
    25
100
AcDbLine
 10
6356.518755336
 20
5065.3762312878
 30
0.0
 11
6356.518755336
 21
5065.2994545926
 31
0.0
  0
LINE
  5
275
330
1F
100
AcDbEntity
  8
0
  6
SLD-Plná
 62
     7
370
    25
100
AcDbLine
 10
6193.0187553361
 20
5065.3762312879
 30
0.0
 11
6193.0187553361
 21
5065.2994545926
 31
0.0
  0
LINE
  5
276
330
1F
100
AcDbEntity
  8
0
  6
SLD-Plná
 62
     7
370
    25
100
AcDbLine
 10
6193.0187553361
 20
5065.2994545926
 30
0.0
 11
6191.5187553361
 21
5065.2994545926
 31
0.0
  0
LINE
  5
277
330
1F
100
AcDbEntity
  8
0
  6
SLD-Plná
 62
     7
370
    25
100
AcDbLine
 10
6191.5187553361
 20
5065.3762312879
 30
0.0
 11
6191.5187553361
 21
5065.2994545926
 31
0.0
  0
LINE
  5
278
330
1F
100
AcDbEntity
  8
0
  6
SLD-Plná
 62
     7
370
    25
100
AcDbLine
 10
6355.018755336
 20
5362.0994545926
 30
0.0
 11
6356.518755336
 21
5362.0994545926
 31
0.0
  0
LINE
  5
279
330
1F
100
AcDbEntity
  8
0
  6
SLD-Plná
 62
     7
370
    25
100
AcDbLine
 10
6356.518755336
 20
5362.0226778974
 30
0.0
 11
6356.518755336
 21
5362.0994545926
 31
0.0
  0
LINE
  5
27A
330
1F
100
AcDbEntity
  8
0
  6
SLD-Plná
 62
     7
370
    25
100
AcDbLine
 10
6355.018755336
 20
5362.0226778974
 30
0.0
 11
6355.018755336
 21
5362.0994545926
 31
0.0
  0
LINE
  5
27B
330
1F
100
AcDbEntity
  8
0
  6
SLD-Plná
 62
     7
370
    25
100
AcDbLine
 10
6193.0187553361
 20
5362.0994545926
 30
0.0
 11
6191.5187553361
 21
5362.0994545926
 31
0.0
  0
LINE
  5
27C
330
1F
100
AcDbEntity
  8
0
  6
SLD-Plná
 62
     7
370
    25
100
AcDbLine
 10
6193.0187553361
 20
5362.0226778974
 30
0.0
 11
6193.0187553361
 21
5362.0994545926
 31
0.0
  0
LINE
  5
27D
330
1F
100
AcDbEntity
  8
0
  6
SLD-Plná
 62
     7
370
    25
100
AcDbLine
 10
6191.5187553361
 20
5362.0226778974
 30
0.0
 11
6191.5187553361
 21
5362.0994545926
 31
0.0
  0
LINE
  5
27E
330
1F
100
AcDbEntity
  8
0
  6
SLD-Plná
 62
     7
370
    25
100
AcDbLine
 10
6192.2687553361
 20
5363.6994545926
 30
0.0
 11
6192.2687553361
 21
5362.1994545926
 31
0.0
  0
LINE
  5
27F
330
1F
100
AcDbEntity
  8
0
  6
SLD-Plná
 62
     7
370
    25
100
AcDbLine
 10
6193.1955320314
 20
5362.1994545926
 30
0.0
 11
6192.2687553361
 21
5362.1994545926
 31
0.0
  0
LINE
  5
280
330
1F
100
AcDbEntity
  8
0
  6
SLD-Plná
 62
     7
370
    25
100
AcDbLine
 10
6193.1955320314
 20
5363.6994545926
 30
0.0
 11
6192.2687553361
 21
5363.6994545926
 31
0.0
  0
LINE
  5
281
330
1F
100
AcDbEntity
  8
0
  6
SLD-Plná
 62
     7
370
    25
100
AcDbLine
 10
6355.7687553361
 20
5363.6994545926
 30
0.0
 11
6355.7687553361
 21
5362.1994545926
 31
0.0
  0
LINE
  5
282
330
1F
100
AcDbEntity
  8
0
  6
SLD-Plná
 62
     7
370
    25
100
AcDbLine
 10
6354.8419786408
 20
5362.1994545926
 30
0.0
 11
6355.7687553361
 21
5362.1994545926
 31
0.0
  0
LINE
  5
283
330
1F
100
AcDbEntity
  8
0
  6
SLD-Plná
 62
     7
370
    25
100
AcDbLine
 10
6354.8419786408
 20
5363.6994545926
 30
0.0
 11
6355.7687553361
 21
5363.6994545926
 31
0.0
  0
LINE
  5
284
330
1F
100
AcDbEntity
  8
0
  6
SLD-Plná
 62
     8
370
    25
100
AcDbLine
 10
6317.4567263803
 20
5208.8662203878
 30
0.0
 11
6317.0556094728
 21
5209.1335977129
 31
0.0
  0
LINE
  5
285
330
1F
100
AcDbEntity
  8
0
  6
SLD-Plná
 62
     8
370
    25
100
AcDbLine
 10
6307.2802011941
 20
5209.1335977129
 30
0.0
 11
6306.8790842864
 21
5208.8662203876
 31
0.0
  0
LINE
  5
286
330
1F
100
AcDbEntity
  8
0
  6
SLD-Plná
 62
     8
370
    25
100
AcDbLine
 10
6316.0559521478
 20
5208.1337500177
 30
0.0
 11
6316.41786864
 21
5207.8925029853
 31
0.0
  0
LINE
  5
287
330
1F
100
AcDbEntity
  8
0
  6
SLD-Plná
 62
     8
370
    25
100
AcDbLine
 10
6307.9179420269
 20
5207.8925029853
 30
0.0
 11
6308.2798585191
 21
5208.1337500177
 31
0.0
  0
LINE
  5
288
330
1F
100
AcDbEntity
  8
0
  6
SLD-Plná
 62
     8
370
    25
100
AcDbLine
 10
6257.708304084
 20
5367.5633438168
 30
0.0
 11
6257.708304084
 21
5363.6994545926
 31
0.0
  0
LINE
  5
289
330
1F
100
AcDbEntity
  8
0
  6
SLD-Plná
 62
     8
370
    25
100
AcDbLine
 10
6290.3292065883
 20
5363.6994545926
 30
0.0
 11
6290.3292065883
 21
5367.5633438168
 31
0.0
  0
LINE
  5
28A
330
1F
100
AcDbEntity
  8
0
  6
SLD-Plná
 62
     8
370
    25
100
AcDbLine
 10
6206.9292065882
 20
5363.6994545926
 30
0.0
 11
6206.9292065882
 21
5367.5633438168
 31
0.0
  0
LINE
  5
28B
330
1F
100
AcDbEntity
  8
0
  6
SLD-Plná
 62
     8
370
    25
100
AcDbLine
 10
6341.1083040841
 20
5367.5633438168
 30
0.0
 11
6341.1083040841
 21
5363.6994545926
 31
0.0
  0
ARC
  5
28C
330
1F
100
AcDbEntity
  8
0
  6
SLD-Plná
 62
     7
370
    25
100
AcDbCircle
 10
6584.5991891538
 20
5232.1994545928
 30
0.0
 40
2.0
100
AcDbArc
 50
89.9999999999
 51
179.9999999999
  0
ARC
  5
28D
330
1F
100
AcDbEntity
  8
0
  6
SLD-Plná
 62
     7
370
    25
100
AcDbCircle
 10
6584.5991891538
 20
5195.1994545928
 30
0.0
 40
2.0
100
AcDbArc
 50
179.9999999999
 51
269.9999999999
  0
LINE
  5
28E
330
1F
100
AcDbEntity
  8
0
  6
SLD-Plná
 62
     7
370
    25
100
AcDbLine
 10
6722.0991891544
 20
5270.6994545926
 30
0.0
 11
6717.3991891531
 21
5270.6994545926
 31
0.0
  0
LINE
  5
28F
330
1F
100
AcDbEntity
  8
0
  6
SLD-Plná
 62
     7
370
    25
100
AcDbLine
 10
6717.3991891531
 20
5258.6994545926
 30
0.0
 11
6722.0991891544
 21
5258.6994545926
 31
0.0
  0
LINE
  5
290
330
1F
100
AcDbEntity
  8
0
  6
SLD-Plná
 62
     7
370
    25
100
AcDbLine
 10
6722.0991891544
 20
5289.6994545926
 30
0.0
 11
6717.3991891531
 21
5289.6994545926
 31
0.0
  0
LINE
  5
291
330
1F
100
AcDbEntity
  8
0
  6
SLD-Plná
 62
     7
370
    25
100
AcDbLine
 10
6717.3991891531
 20
5277.6994545926
 30
0.0
 11
6722.0991891544
 21
5277.6994545926
 31
0.0
  0
LINE
  5
292
330
1F
100
AcDbEntity
  8
0
  6
SLD-Plná
 62
     7
370
    25
100
AcDbLine
 10
6716.3991891544
 20
5274.5994545926
 30
0.0
 11
6717.3991891544
 21
5274.5994545926
 31
0.0
  0
LINE
  5
293
330
1F
100
AcDbEntity
  8
0
  6
SLD-Plná
 62
     7
370
    25
100
AcDbLine
 10
6717.3991891544
 20
5292.7994545926
 30
0.0
 11
6716.3991891544
 21
5292.7994545926
 31
0.0
  0
LINE
  5
294
330
1F
100
AcDbEntity
  8
0
  6
SLD-Plná
 62
     7
370
    25
100
AcDbLine
 10
6716.3991891544
 20
5236.5994545926
 30
0.0
 11
6717.3991891544
 21
5236.5994545926
 31
0.0
  0
LINE
  5
295
330
1F
100
AcDbEntity
  8
0
  6
SLD-Plná
 62
     7
370
    25
100
AcDbLine
 10
6717.3991891544
 20
5254.7994545926
 30
0.0
 11
6716.3991891544
 21
5254.7994545926
 31
0.0
  0
LINE
  5
296
330
1F
100
AcDbEntity
  8
0
  6
SLD-Plná
 62
     7
370
    25
100
AcDbLine
 10
6716.3991891544
 20
5255.5994545926
 30
0.0
 11
6717.3991891544
 21
5255.5994545926
 31
0.0
  0
LINE
  5
297
330
1F
100
AcDbEntity
  8
0
  6
SLD-Plná
 62
     7
370
    25
100
AcDbLine
 10
6717.3991891544
 20
5273.7994545926
 30
0.0
 11
6716.3991891544
 21
5273.7994545926
 31
0.0
  0
LINE
  5
298
330
1F
100
AcDbEntity
  8
0
  6
SLD-Plná
 62
     7
370
    25
100
AcDbLine
 10
6717.4664025594
 20
5254.2002984388
 30
0.0
 11
6717.3991891531
 21
5253.949454593
 31
0.0
  0
LINE
  5
299
330
1F
100
AcDbEntity
  8
0
  6
SLD-Plná
 62
     7
370
    25
100
AcDbLine
 10
6717.3991891531
 20
5237.4494545923
 30
0.0
 11
6717.4664025594
 21
5237.1986107465
 31
0.0
  0
ARC
  5
29A
330
1F
100
AcDbEntity
  8
0
  6
SLD-Plná
 62
     7
370
    25
100
AcDbCircle
 10
6719.6991891544
 20
5252.5494545926
 30
0.0
 40
1.550000000001091
100
AcDbArc
 50
0.0
 51
91.4807501636
  0
ARC
  5
29B
330
1F
100
AcDbEntity
  8
0
  6
SLD-Plná
 62
     7
370
    25
100
AcDbCircle
 10
6719.6991891544
 20
5238.8494545926
 30
0.0
 40
1.550000000001091
100
AcDbArc
 50
268.5192498364
 51
0.0
  0
LINE
  5
29C
330
1F
100
AcDbEntity
  8
0
  6
SLD-Plná
 62
     7
370
    25
100
AcDbLine
 10
6722.9547515856
 20
5252.5494545926
 30
0.0
 11
6721.2491891544
 21
5252.5494545926
 31
0.0
  0
LINE
  5
29D
330
1F
100
AcDbEntity
  8
0
  6
SLD-Plná
 62
     7
370
    25
100
AcDbLine
 10
6721.2491891544
 20
5238.8494545926
 30
0.0
 11
6722.9547515856
 21
5238.8494545926
 31
0.0
  0
SPLINE
  5
29E
330
1F
100
AcDbEntity
  8
0
  6
SLD-Plná
 62
     7
370
    25
100
AcDbSpline
210
0.0
220
0.0
230
1.0
 70
     8
 71
     3
 72
    11
 73
     7
 74
     0
 42
0.00000001
 43
0.00000001
 40
0.0
 40
0.0
 40
0.0
 40
0.0
 40
0.2961233066076305
 40
0.5612606992985905
 40
0.7958906039520459
 40
1.0
 40
1.0
 40
1.0
 40
1.0
 10
6722.954751585644
 20
5238.850162771659
 30
0.0
 10
6723.146275193308
 20
5238.870281112965
 30
0.0
 10
6723.509281655719
 20
5238.908412641483
 30
0.0
 10
6723.959548848736
 20
5239.176776558686
 30
0.0
 10
6724.276699027399
 20
5239.50863934732
 30
0.0
 10
6724.395687653827
 20
5239.764817652474
 30
0.0
 10
6724.451043298143
 20
5239.883996397259
 30
0.0
  0
SPLINE
  5
29F
330
1F
100
AcDbEntity
  8
0
  6
SLD-Plná
 62
     7
370
    25
100
AcDbSpline
210
0.0
220
0.0
230
1.0
 70
     8
 71
     3
 72
    11
 73
     7
 74
     0
 42
0.00000001
 43
0.00000001
 40
0.0
 40
0.0
 40
0.0
 40
0.0
 40
0.2034763135538338
 40
0.4379856386460744
 40
0.7033907770139786
 40
1.0
 40
1.0
 40
1.0
 40
1.0
 10
6724.451043298142
 20
5251.51106035228
 30
0.0
 10
6724.39563613739
 20
5251.630066168919
 30
0.0
 10
6724.27637144135
 20
5251.886227869971
 30
0.0
 10
6723.959250345373
 20
5252.217382054335
 30
0.0
 10
6723.50912266968
 20
5252.485393174518
 30
0.0
 10
6723.146257595356
 20
5252.523446344186
 30
0.0
 10
6722.954751585644
 20
5252.543529320465
 30
0.0
  0
ARC
  5
2A0
330
1F
100
AcDbEntity
  8
0
  6
SLD-Plná
 62
     7
370
    25
100
AcDbCircle
 10
6725.1991891544
 20
5251.7994545926
 30
0.0
 40
0.799999999999502
100
AcDbArc
 50
201.1284261824
 51
270.0
  0
ARC
  5
2A1
330
1F
100
AcDbEntity
  8
0
  6
SLD-Plná
 62
     7
370
    25
100
AcDbCircle
 10
6725.1991891544
 20
5239.5994545926
 30
0.0
 40
0.8000000000001819
100
AcDbArc
 50
90.0
 51
156.9586063889
  0
ARC
  5
2A2
330
1F
100
AcDbEntity
  8
0
  6
SLD-Plná
 62
     7
370
    25
100
AcDbCircle
 10
6729.0991891544
 20
5249.3994545926
 30
0.0
 40
1.600000000000364
100
AcDbArc
 50
0.0
 51
90.0
  0
ARC
  5
2A3
330
1F
100
AcDbEntity
  8
0
  6
SLD-Plná
 62
     7
370
    25
100
AcDbCircle
 10
6729.0991891544
 20
5241.9994545926
 30
0.0
 40
1.600000000000364
100
AcDbArc
 50
270.0
 51
0.0
  0
LINE
  5
2A4
330
1F
100
AcDbEntity
  8
0
  6
SLD-Plná
 62
     7
370
    25
100
AcDbLine
 10
6729.0991891544
 20
5250.9994545926
 30
0.0
 11
6725.1991891544
 21
5250.9994545926
 31
0.0
  0
LINE
  5
2A5
330
1F
100
AcDbEntity
  8
0
  6
SLD-Plná
 62
     7
370
    25
100
AcDbLine
 10
6725.1991891544
 20
5240.3994545926
 30
0.0
 11
6729.0991891544
 21
5240.3994545926
 31
0.0
  0
LINE
  5
2A6
330
1F
100
AcDbEntity
  8
0
  6
SLD-Plná
 62
     7
370
    25
100
AcDbLine
 10
6717.4664025594
 20
5273.2002984388
 30
0.0
 11
6717.3991891531
 21
5272.949454593
 31
0.0
  0
LINE
  5
2A7
330
1F
100
AcDbEntity
  8
0
  6
SLD-Plná
 62
     7
370
    25
100
AcDbLine
 10
6717.3991891531
 20
5256.4494545923
 30
0.0
 11
6717.4664025594
 21
5256.1986107465
 31
0.0
  0
ARC
  5
2A8
330
1F
100
AcDbEntity
  8
0
  6
SLD-Plná
 62
     7
370
    25
100
AcDbCircle
 10
6719.6991891544
 20
5271.5494545926
 30
0.0
 40
1.550000000001091
100
AcDbArc
 50
0.0
 51
91.4807501636
  0
ARC
  5
2A9
330
1F
100
AcDbEntity
  8
0
  6
SLD-Plná
 62
     7
370
    25
100
AcDbCircle
 10
6719.6991891544
 20
5257.8494545926
 30
0.0
 40
1.550000000001091
100
AcDbArc
 50
268.5192498364
 51
0.0
  0
LINE
  5
2AA
330
1F
100
AcDbEntity
  8
0
  6
SLD-Plná
 62
     7
370
    25
100
AcDbLine
 10
6722.9547515856
 20
5271.5494545926
 30
0.0
 11
6721.2491891544
 21
5271.5494545926
 31
0.0
  0
LINE
  5
2AB
330
1F
100
AcDbEntity
  8
0
  6
SLD-Plná
 62
     7
370
    25
100
AcDbLine
 10
6721.2491891544
 20
5257.8494545926
 30
0.0
 11
6722.9547515856
 21
5257.8494545926
 31
0.0
  0
SPLINE
  5
2AC
330
1F
100
AcDbEntity
  8
0
  6
SLD-Plná
 62
     7
370
    25
100
AcDbSpline
210
0.0
220
0.0
230
1.0
 70
     8
 71
     3
 72
    11
 73
     7
 74
     0
 42
0.00000001
 43
0.00000001
 40
0.0
 40
0.0
 40
0.0
 40
0.0
 40
0.2961233066076306
 40
0.5612606992985916
 40
0.7958906039520459
 40
1.0
 40
1.0
 40
1.0
 40
1.0
 10
6722.954751585644
 20
5257.850162771659
 30
0.0
 10
6723.146275193308
 20
5257.870281112965
 30
0.0
 10
6723.509281655719
 20
5257.908412641484
 30
0.0
 10
6723.959548848736
 20
5258.176776558686
 30
0.0
 10
6724.276699027399
 20
5258.508639347319
 30
0.0
 10
6724.395687653827
 20
5258.764817652473
 30
0.0
 10
6724.451043298143
 20
5258.883996397259
 30
0.0
  0
SPLINE
  5
2AD
330
1F
100
AcDbEntity
  8
0
  6
SLD-Plná
 62
     7
370
    25
100
AcDbSpline
210
0.0
220
0.0
230
1.0
 70
     8
 71
     3
 72
    11
 73
     7
 74
     0
 42
0.00000001
 43
0.00000001
 40
0.0
 40
0.0
 40
0.0
 40
0.0
 40
0.2034763135538313
 40
0.4379856386460727
 40
0.7033907770139778
 40
1.0
 40
1.0
 40
1.0
 40
1.0
 10
6724.451043298142
 20
5270.51106035228
 30
0.0
 10
6724.39563613739
 20
5270.63006616892
 30
0.0
 10
6724.27637144135
 20
5270.886227869971
 30
0.0
 10
6723.959250345373
 20
5271.217382054335
 30
0.0
 10
6723.50912266968
 20
5271.485393174518
 30
0.0
 10
6723.146257595356
 20
5271.523446344186
 30
0.0
 10
6722.954751585644
 20
5271.543529320465
 30
0.0
  0
ARC
  5
2AE
330
1F
100
AcDbEntity
  8
0
  6
SLD-Plná
 62
     7
370
    25
100
AcDbCircle
 10
6725.1991891544
 20
5270.7994545926
 30
0.0
 40
0.799999999999502
100
AcDbArc
 50
201.1284261824
 51
270.0
  0
ARC
  5
2AF
330
1F
100
AcDbEntity
  8
0
  6
SLD-Plná
 62
     7
370
    25
100
AcDbCircle
 10
6725.1991891544
 20
5258.5994545926
 30
0.0
 40
0.8000000000001819
100
AcDbArc
 50
90.0
 51
156.9586063889
  0
ARC
  5
2B0
330
1F
100
AcDbEntity
  8
0
  6
SLD-Plná
 62
     7
370
    25
100
AcDbCircle
 10
6729.0991891544
 20
5268.3994545926
 30
0.0
 40
1.600000000000364
100
AcDbArc
 50
0.0
 51
90.0
  0
ARC
  5
2B1
330
1F
100
AcDbEntity
  8
0
  6
SLD-Plná
 62
     7
370
    25
100
AcDbCircle
 10
6729.0991891544
 20
5260.9994545926
 30
0.0
 40
1.599999999999454
100
AcDbArc
 50
270.0
 51
0.0
  0
LINE
  5
2B2
330
1F
100
AcDbEntity
  8
0
  6
SLD-Plná
 62
     7
370
    25
100
AcDbLine
 10
6729.0991891544
 20
5269.9994545926
 30
0.0
 11
6725.1991891544
 21
5269.9994545926
 31
0.0
  0
LINE
  5
2B3
330
1F
100
AcDbEntity
  8
0
  6
SLD-Plná
 62
     7
370
    25
100
AcDbLine
 10
6725.1991891544
 20
5259.3994545926
 30
0.0
 11
6729.0991891544
 21
5259.3994545926
 31
0.0
  0
LINE
  5
2B4
330
1F
100
AcDbEntity
  8
0
  6
SLD-Plná
 62
     7
370
    25
100
AcDbLine
 10
6717.4664025594
 20
5292.2002984388
 30
0.0
 11
6717.3991891531
 21
5291.949454593
 31
0.0
  0
LINE
  5
2B5
330
1F
100
AcDbEntity
  8
0
  6
SLD-Plná
 62
     7
370
    25
100
AcDbLine
 10
6717.3991891531
 20
5275.4494545923
 30
0.0
 11
6717.4664025594
 21
5275.1986107465
 31
0.0
  0
ARC
  5
2B6
330
1F
100
AcDbEntity
  8
0
  6
SLD-Plná
 62
     7
370
    25
100
AcDbCircle
 10
6719.6991891544
 20
5290.5494545926
 30
0.0
 40
1.550000000001091
100
AcDbArc
 50
0.0
 51
91.4807501636
  0
ARC
  5
2B7
330
1F
100
AcDbEntity
  8
0
  6
SLD-Plná
 62
     7
370
    25
100
AcDbCircle
 10
6719.6991891544
 20
5276.8494545926
 30
0.0
 40
1.550000000001091
100
AcDbArc
 50
268.5192498364
 51
0.0
  0
LINE
  5
2B8
330
1F
100
AcDbEntity
  8
0
  6
SLD-Plná
 62
     7
370
    25
100
AcDbLine
 10
6722.9547515856
 20
5290.5494545926
 30
0.0
 11
6721.2491891544
 21
5290.5494545926
 31
0.0
  0
LINE
  5
2B9
330
1F
100
AcDbEntity
  8
0
  6
SLD-Plná
 62
     7
370
    25
100
AcDbLine
 10
6721.2491891544
 20
5276.8494545926
 30
0.0
 11
6722.9547515856
 21
5276.8494545926
 31
0.0
  0
SPLINE
  5
2BA
330
1F
100
AcDbEntity
  8
0
  6
SLD-Plná
 62
     7
370
    25
100
AcDbSpline
210
0.0
220
0.0
230
1.0
 70
     8
 71
     3
 72
    11
 73
     7
 74
     0
 42
0.00000001
 43
0.00000001
 40
0.0
 40
0.0
 40
0.0
 40
0.0
 40
0.2961233066076306
 40
0.5612606992985916
 40
0.7958906039520459
 40
1.0
 40
1.0
 40
1.0
 40
1.0
 10
6722.954751585644
 20
5276.850162771659
 30
0.0
 10
6723.146275193308
 20
5276.870281112965
 30
0.0
 10
6723.509281655719
 20
5276.908412641484
 30
0.0
 10
6723.959548848736
 20
5277.176776558686
 30
0.0
 10
6724.276699027399
 20
5277.508639347319
 30
0.0
 10
6724.395687653827
 20
5277.764817652474
 30
0.0
 10
6724.451043298143
 20
5277.883996397259
 30
0.0
  0
SPLINE
  5
2BB
330
1F
100
AcDbEntity
  8
0
  6
SLD-Plná
 62
     7
370
    25
100
AcDbSpline
210
0.0
220
0.0
230
1.0
 70
     8
 71
     3
 72
    11
 73
     7
 74
     0
 42
0.00000001
 43
0.00000001
 40
0.0
 40
0.0
 40
0.0
 40
0.0
 40
0.2034763135538315
 40
0.4379856386460707
 40
0.703390777013976
 40
1.0
 40
1.0
 40
1.0
 40
1.0
 10
6724.451043298142
 20
5289.51106035228
 30
0.0
 10
6724.39563613739
 20
5289.630066168919
 30
0.0
 10
6724.27637144135
 20
5289.886227869971
 30
0.0
 10
6723.959250345373
 20
5290.217382054335
 30
0.0
 10
6723.50912266968
 20
5290.485393174518
 30
0.0
 10
6723.146257595356
 20
5290.523446344186
 30
0.0
 10
6722.954751585644
 20
5290.543529320465
 30
0.0
  0
ARC
  5
2BC
330
1F
100
AcDbEntity
  8
0
  6
SLD-Plná
 62
     7
370
    25
100
AcDbCircle
 10
6725.1991891544
 20
5289.7994545926
 30
0.0
 40
0.7999999999992724
100
AcDbArc
 50
201.1284261823
 51
270.0
  0
ARC
  5
2BD
330
1F
100
AcDbEntity
  8
0
  6
SLD-Plná
 62
     7
370
    25
100
AcDbCircle
 10
6725.1991891544
 20
5277.5994545926
 30
0.0
 40
0.8000000000001819
100
AcDbArc
 50
90.0
 51
156.9586063889
  0
ARC
  5
2BE
330
1F
100
AcDbEntity
  8
0
  6
SLD-Plná
 62
     7
370
    25
100
AcDbCircle
 10
6729.0991891544
 20
5287.3994545926
 30
0.0
 40
1.600000000000364
100
AcDbArc
 50
0.0
 51
90.0
  0
ARC
  5
2BF
330
1F
100
AcDbEntity
  8
0
  6
SLD-Plná
 62
     7
370
    25
100
AcDbCircle
 10
6729.0991891544
 20
5279.9994545926
 30
0.0
 40
1.599999999999454
100
AcDbArc
 50
270.0
 51
0.0
  0
LINE
  5
2C0
330
1F
100
AcDbEntity
  8
0
  6
SLD-Plná
 62
     7
370
    25
100
AcDbLine
 10
6729.0991891544
 20
5288.9994545926
 30
0.0
 11
6725.1991891544
 21
5288.9994545926
 31
0.0
  0
LINE
  5
2C1
330
1F
100
AcDbEntity
  8
0
  6
SLD-Plná
 62
     7
370
    25
100
AcDbLine
 10
6725.1991891544
 20
5278.3994545926
 30
0.0
 11
6729.0991891544
 21
5278.3994545926
 31
0.0
  0
LINE
  5
2C2
330
1F
100
AcDbEntity
  8
0
  6
SLD-Plná
 62
     7
370
    25
100
AcDbLine
 10
6716.3991891544
 20
5086.6994545926
 30
0.0
 11
6717.4991891544
 21
5086.6994545926
 31
0.0
  0
LINE
  5
2C3
330
1F
100
AcDbEntity
  8
0
  6
SLD-Plná
 62
     7
370
    25
100
AcDbLine
 10
6717.4991891544
 20
5110.6994545926
 30
0.0
 11
6716.3991891544
 21
5110.6994545926
 31
0.0
  0
LINE
  5
2C4
330
1F
100
AcDbEntity
  8
0
  6
SLD-Plná
 62
     7
370
    25
100
AcDbLine
 10
6717.4991891544
 20
5086.6994545926
 30
0.0
 11
6718.4991891544
 21
5087.6994545926
 31
0.0
  0
LINE
  5
2C5
330
1F
100
AcDbEntity
  8
0
  6
SLD-Plná
 62
     7
370
    25
100
AcDbLine
 10
6718.4991891544
 20
5109.6994545926
 30
0.0
 11
6717.4991891544
 21
5110.6994545926
 31
0.0
  0
ARC
  5
2C6
330
1F
100
AcDbEntity
  8
0
  6
SLD-Plná
 62
     7
370
    25
100
AcDbCircle
 10
6718.4991891544
 20
5097.2994545926
 30
0.0
 40
0.2000000000007276
100
AcDbArc
 50
270.0
 51
0.0
  0
ARC
  5
2C7
330
1F
100
AcDbEntity
  8
0
  6
SLD-Plná
 62
     7
370
    25
100
AcDbCircle
 10
6695.7991891545
 20
5364.2494545927
 30
0.0
 40
3.400000000000546
100
AcDbArc
 50
359.9999999999
 51
189.3093409217
  0
LINE
  5
2C8
330
1F
100
AcDbEntity
  8
0
  6
SLD-Plná
 62
     7
370
    25
100
AcDbLine
 10
6693.0867179565
 20
5362.1994545926
 30
0.0
 11
6693.2298574224
 21
5362.0226778974
 31
0.0
  0
LINE
  5
2C9
330
1F
100
AcDbEntity
  8
0
  6
SLD-Plná
 62
     7
370
    25
100
AcDbLine
 10
6698.3685208866
 20
5362.0226778974
 30
0.0
 11
6698.5116603525
 21
5362.1994545926
 31
0.0
  0
LINE
  5
2CA
330
1F
100
AcDbEntity
  8
0
  6
SLD-Plná
 62
     7
370
    25
100
AcDbLine
 10
6699.1544089685
 20
5363.6994545926
 30
0.0
 11
6699.1991891545
 21
5364.2494545926
 31
0.0
  0
LINE
  5
2CB
330
1F
100
AcDbEntity
  8
0
  6
SLD-Plná
 62
     7
370
    25
100
AcDbLine
 10
6582.5991891538
 20
5232.1994545928
 30
0.0
 11
6582.5991891538
 21
5195.1994545928
 31
0.0
  0
LINE
  5
2CC
330
1F
100
AcDbEntity
  8
0
  6
SLD-Plná
 62
     7
370
    25
100
AcDbLine
 10
6717.3991891544
 20
5279.1494545926
 30
0.0
 11
6717.3991891544
 21
5274.5994545926
 31
0.0
  0
LINE
  5
2CD
330
1F
100
AcDbEntity
  8
0
  6
SLD-Plná
 62
     7
370
    25
100
AcDbLine
 10
6717.3991891544
 20
5292.7994545926
 30
0.0
 11
6717.3991891544
 21
5279.1494545926
 31
0.0
  0
LINE
  5
2CE
330
1F
100
AcDbEntity
  8
0
  6
SLD-Plná
 62
     7
370
    25
100
AcDbLine
 10
6717.3991891544
 20
5241.1494545926
 30
0.0
 11
6717.3991891544
 21
5236.5994545926
 31
0.0
  0
LINE
  5
2CF
330
1F
100
AcDbEntity
  8
0
  6
SLD-Plná
 62
     7
370
    25
100
AcDbLine
 10
6717.3991891544
 20
5254.7994545926
 30
0.0
 11
6717.3991891544
 21
5241.1494545926
 31
0.0
  0
LINE
  5
2D0
330
1F
100
AcDbEntity
  8
0
  6
SLD-Plná
 62
     7
370
    25
100
AcDbLine
 10
6717.3991891544
 20
5260.1494545926
 30
0.0
 11
6717.3991891544
 21
5255.5994545926
 31
0.0
  0
LINE
  5
2D1
330
1F
100
AcDbEntity
  8
0
  6
SLD-Plná
 62
     7
370
    25
100
AcDbLine
 10
6717.3991891544
 20
5273.7994545926
 30
0.0
 11
6717.3991891544
 21
5260.1494545926
 31
0.0
  0
SPLINE
  5
2D2
330
1F
100
AcDbEntity
  8
0
  6
SLD-Plná
 62
     7
370
    25
100
AcDbSpline
210
0.0
220
0.0
230
1.0
 70
     8
 71
     3
 72
     9
 73
     5
 74
     0
 42
0.00000001
 43
0.00000001
 40
0.0
 40
0.0
 40
0.0
 40
0.0
 40
0.4952156616863527
 40
1.0
 40
1.0
 40
1.0
 40
1.0
 10
6719.279860835458
 20
5245.699454612372
 30
0.0
 10
6719.454900739172
 20
5244.29644771096
 30
0.0
 10
6719.808362709899
 20
5241.463324669911
 30
0.0
 10
6719.457148345831
 20
5238.629782368382
 30
0.0
 10
6719.279860835459
 20
5237.199454592621
 30
0.0
  0
SPLINE
  5
2D3
330
1F
100
AcDbEntity
  8
0
  6
SLD-Plná
 62
     7
370
    25
100
AcDbSpline
210
0.0
220
0.0
230
1.0
 70
     8
 71
     3
 72
     9
 73
     5
 74
     0
 42
0.00000001
 43
0.00000001
 40
0.0
 40
0.0
 40
0.0
 40
0.0
 40
0.4952156616863539
 40
1.0
 40
1.0
 40
1.0
 40
1.0
 10
6719.279860835458
 20
5254.199454612372
 30
0.0
 10
6719.454900739172
 20
5252.796447709361
 30
0.0
 10
6719.808362709899
 20
5249.963324665082
 30
0.0
 10
6719.457148345831
 20
5247.129782379888
 30
0.0
 10
6719.279860835458
 20
5245.699454612372
 30
0.0
  0
SPLINE
  5
2D4
330
1F
100
AcDbEntity
  8
0
  6
SLD-Plná
 62
     7
370
    25
100
AcDbSpline
210
0.0
220
0.0
230
1.0
 70
    11
 71
     3
 72
     9
 73
     5
 74
     0
 42
0.00000001
 43
0.00000001
 40
0.0
 40
0.0
 40
0.0
 40
0.0
 40
0.49521566168635
 40
1.0
 40
1.0
 40
1.0
 40
1.0
 10
6719.279860835458
 20
5254.19945459262
 30
0.0
 10
6719.454900739172
 20
5254.199454591022
 30
0.0
 10
6719.808362709899
 20
5254.199454587792
 30
0.0
 10
6719.457148345831
 20
5254.199454604127
 30
0.0
 10
6719.279860835458
 20
5254.199454612372
 30
0.0
  0
LINE
  5
2D5
330
1F
100
AcDbEntity
  8
0
  6
SLD-Plná
 62
     7
370
    25
100
AcDbLine
 10
6719.4851253735
 20
5251.6994545926
 30
0.0
 11
6719.2798608355
 21
5254.1994545926
 31
0.0
  0
LINE
  5
2D6
330
1F
100
AcDbEntity
  8
0
  6
SLD-Plná
 62
     7
370
    25
100
AcDbLine
 10
6719.2798608355
 20
5237.1994545729
 30
0.0
 11
6719.4891121818
 21
5239.6994545926
 31
0.0
  0
SPLINE
  5
2D7
330
1F
100
AcDbEntity
  8
0
  6
SLD-Plná
 62
     7
370
    25
100
AcDbSpline
210
0.0
220
0.0
230
1.0
 70
    11
 71
     3
 72
     9
 73
     5
 74
     0
 42
0.00000001
 43
0.00000001
 40
0.0
 40
0.0
 40
0.0
 40
0.0
 40
0.4952156616863609
 40
1.0
 40
1.0
 40
1.0
 40
1.0
 10
6719.279860835459
 20
5237.199454592621
 30
0.0
 10
6719.454900739172
 20
5237.199454594221
 30
0.0
 10
6719.808362709899
 20
5237.199454597449
 30
0.0
 10
6719.457148345831
 20
5237.199454581115
 30
0.0
 10
6719.279860835459
 20
5237.199454572869
 30
0.0
  0
LINE
  5
2D8
330
1F
100
AcDbEntity
  8
0
  6
SLD-Plná
 62
     7
370
    25
100
AcDbLine
 10
6719.6591354665
 20
5254.0989369907
 30
0.0
 11
6719.6591354665
 21
5237.2999721945
 31
0.0
  0
LINE
  5
2D9
330
1F
100
AcDbEntity
  8
0
  6
SLD-Plná
 62
     7
370
    25
100
AcDbLine
 10
6719.2798608355
 20
5245.6994546124
 30
0.0
 11
6717.8185174704
 21
5245.6994545926
 31
0.0
  0
SPLINE
  5
2DA
330
1F
100
AcDbEntity
  8
0
  6
SLD-Plná
 62
     7
370
    25
100
AcDbSpline
210
0.0
220
0.0
230
1.0
 70
     8
 71
     3
 72
     9
 73
     5
 74
     0
 42
0.00000001
 43
0.00000001
 40
0.0
 40
0.0
 40
0.0
 40
0.0
 40
0.4952156671610951
 40
1.0
 40
1.0
 40
1.0
 40
1.0
 10
6717.818517470369
 20
5254.199454592558
 30
0.0
 10
6717.643477566868
 20
5252.796447676371
 30
0.0
 10
6717.29001560048
 20
5249.963324636806
 30
0.0
 10
6717.641229962801
 20
5247.129782346968
 30
0.0
 10
6717.818517470369
 20
5245.699454592621
 30
0.0
  0
LINE
  5
2DB
330
1F
100
AcDbEntity
  8
0
  6
SLD-Plná
 62
     7
370
    25
100
AcDbLine
 10
6719.2798608355
 20
5254.1994546124
 30
0.0
 11
6717.8185174704
 21
5254.1994545926
 31
0.0
  0
SPLINE
  5
2DC
330
1F
100
AcDbEntity
  8
0
  6
SLD-Plná
 62
     7
370
    25
100
AcDbSpline
210
0.0
220
0.0
230
1.0
 70
     8
 71
     3
 72
     9
 73
     5
 74
     0
 42
0.00000001
 43
0.00000001
 40
0.0
 40
0.0
 40
0.0
 40
0.0
 40
0.4952156671610901
 40
1.0
 40
1.0
 40
1.0
 40
1.0
 10
6717.818517470369
 20
5245.699454592621
 30
0.0
 10
6717.643477566868
 20
5244.296447676402
 30
0.0
 10
6717.29001560048
 20
5241.463324636775
 30
0.0
 10
6717.641229962801
 20
5238.629782346999
 30
0.0
 10
6717.818517470369
 20
5237.199454592684
 30
0.0
  0
SPLINE
  5
2DD
330
1F
100
AcDbEntity
  8
0
  6
SLD-Plná
 62
     7
370
    25
100
AcDbSpline
210
0.0
220
0.0
230
1.0
 70
    24
 71
     3
 72
     9
 73
     5
 74
     0
 42
0.00000001
 43
0.00000001
 40
0.0
 40
0.0
 40
0.0
 40
0.0
 40
0.9904281444070514
 40
1.0
 40
1.0
 40
1.0
 40
1.0
 10
6717.818517470369
 20
5237.199454592684
 30
0.0
 10
6717.585873335924
 20
5237.199454592642
 30
0.0
 10
6717.350980844471
 20
5237.1994545926
 30
0.0
 10
6717.468427652164
 20
5237.199454592622
 30
0.0
 10
6717.469551836048
 20
5237.199454592622
 30
0.0
  0
LINE
  5
2DE
330
1F
100
AcDbEntity
  8
0
  6
SLD-Plná
 62
     7
370
    25
100
AcDbLine
 10
6717.469551836
 20
5254.1994545926
 30
0.0
 11
6717.8185174704
 21
5254.1994545926
 31
0.0
  0
LINE
  5
2DF
330
1F
100
AcDbEntity
  8
0
  6
SLD-Plná
 62
     7
370
    25
100
AcDbLine
 10
6721.2491891544
 20
5252.5494545926
 30
0.0
 11
6721.2491891544
 21
5238.8494545926
 31
0.0
  0
LINE
  5
2E0
330
1F
100
AcDbEntity
  8
0
  6
SLD-Plná
 62
     7
370
    25
100
AcDbLine
 10
6719.2798608355
 20
5237.1994545926
 30
0.0
 11
6717.8185174704
 21
5237.1994545927
 31
0.0
  0
SPLINE
  5
2E1
330
1F
100
AcDbEntity
  8
0
  6
SLD-Plná
 62
     7
370
    25
100
AcDbSpline
210
0.0
220
0.0
230
1.0
 70
     8
 71
     3
 72
    19
 73
    15
 74
     0
 42
0.00000001
 43
0.00000001
 40
0.0
 40
0.0
 40
0.0
 40
0.0
 40
0.0596513368775584
 40
0.1494677654946334
 40
0.1814061451041797
 40
0.214317918978191
 40
0.2481358534567333
 40
0.3249053197296673
 40
0.3911856375321212
 40
0.4760098952285052
 40
0.5793450828515095
 40
0.7011524438735413
 40
0.8413874872106729
 40
1.0
 40
1.0
 40
1.0
 40
1.0
 10
6724.452578058518
 20
5251.507734866997
 30
0.0
 10
6724.451974244959
 20
5251.500125233153
 30
0.0
 10
6724.450461275293
 20
5251.481057848808
 30
0.0
 10
6724.449168982013
 20
5251.309809010737
 30
0.0
 10
6724.449163354156
 20
5251.094748679337
 30
0.0
 10
6724.449355207369
 20
5250.931356927984
 30
0.0
 10
6724.450166976899
 20
5250.656775423169
 30
0.0
 10
6724.450486220275
 20
5250.248054484156
 30
0.0
 10
6724.450734519926
 20
5249.616033002198
 30
0.0
 10
6724.450903416667
 20
5248.799922644373
 30
0.0
 10
6724.451030524678
 20
5247.671188649007
 30
0.0
 10
6724.451110813328
 20
5246.22251505959
 30
0.0
 10
6724.451147398846
 20
5244.486685976538
 30
0.0
 10
6724.451134718011
 20
5243.37908771816
 30
0.0
 10
6724.451127987693
 20
5242.791233009895
 30
0.0
  0
LINE
  5
2E2
330
1F
100
AcDbEntity
  8
0
  6
SLD-Plná
 62
     7
370
    25
100
AcDbLine
 10
6730.6991891544
 20
5248.9037485866
 30
0.0
 11
6730.6991891544
 21
5249.2576647254
 31
0.0
  0
SPLINE
  5
2E3
330
1F
100
AcDbEntity
  8
0
  6
SLD-Plná
 62
     7
370
    25
100
AcDbSpline
210
0.0
220
0.0
230
1.0
 70
    24
 71
     3
 72
    18
 73
    14
 74
     0
 42
0.00000001
 43
0.00000001
 40
0.0
 40
0.0
 40
0.0
 40
0.0
 40
0.0211879627860575
 40
0.1001577247854132
 40
0.1791274867847682
 40
0.2564562220731211
 40
0.4001051498569458
 40
0.5437540776407708
 40
0.6210828129291237
 40
0.7000525749284786
 40
0.7790223369278336
 40
0.8563510722161874
 40
1.0
 40
1.0
 40
1.0
 40
1.0
 10
6730.699189154392
 20
5242.014460332367
 30
0.0
 10
6730.699189154392
 20
5242.010055902278
 30
0.0
 10
6730.699189154392
 20
5241.989235698793
 30
0.0
 10
6730.699189154392
 20
5242.107452134694
 30
0.0
 10
6730.699189154391
 20
5242.370429177388
 30
0.0
 10
6730.699189154392
 20
5242.896112071611
 30
0.0
 10
6730.699189154392
 20
5243.804401726469
 30
0.0
 10
6730.699189154392
 20
5244.941408340746
 30
0.0
 10
6730.699189154392
 20
5245.910829772281
 30
0.0
 10
6730.699189154392
 20
5246.664493585678
 30
0.0
 10
6730.699189154391
 20
5247.374014146937
 30
0.0
 10
6730.699189154392
 20
5248.204418437782
 30
0.0
 10
6730.699189154391
 20
5248.628239261282
 30
0.0
 10
6730.699189154391
 20
5248.903748586623
 30
0.0
  0
SPLINE
  5
2E4
330
1F
100
AcDbEntity
  8
0
  6
SLD-Plná
 62
     7
370
    25
100
AcDbSpline
210
0.0
220
0.0
230
1.0
 70
     8
 71
     3
 72
     9
 73
     5
 74
     0
 42
0.00000001
 43
0.00000001
 40
0.0
 40
0.0
 40
0.0
 40
0.0
 40
0.4952156616863529
 40
1.0
 40
1.0
 40
1.0
 40
1.0
 10
6719.279860835458
 20
5264.699454612373
 30
0.0
 10
6719.454900739172
 20
5263.29644771096
 30
0.0
 10
6719.808362709899
 20
5260.463324669911
 30
0.0
 10
6719.457148345831
 20
5257.629782368383
 30
0.0
 10
6719.279860835459
 20
5256.199454592621
 30
0.0
  0
SPLINE
  5
2E5
330
1F
100
AcDbEntity
  8
0
  6
SLD-Plná
 62
     7
370
    25
100
AcDbSpline
210
0.0
220
0.0
230
1.0
 70
     8
 71
     3
 72
     9
 73
     5
 74
     0
 42
0.00000001
 43
0.00000001
 40
0.0
 40
0.0
 40
0.0
 40
0.0
 40
0.4952156616863536
 40
1.0
 40
1.0
 40
1.0
 40
1.0
 10
6719.279860835458
 20
5273.199454612372
 30
0.0
 10
6719.454900739172
 20
5271.796447709361
 30
0.0
 10
6719.808362709899
 20
5268.963324665082
 30
0.0
 10
6719.457148345831
 20
5266.129782379889
 30
0.0
 10
6719.279860835458
 20
5264.699454612373
 30
0.0
  0
SPLINE
  5
2E6
330
1F
100
AcDbEntity
  8
0
  6
SLD-Plná
 62
     7
370
    25
100
AcDbSpline
210
0.0
220
0.0
230
1.0
 70
    11
 71
     3
 72
     9
 73
     5
 74
     0
 42
0.00000001
 43
0.00000001
 40
0.0
 40
0.0
 40
0.0
 40
0.0
 40
0.4952156616863496
 40
1.0
 40
1.0
 40
1.0
 40
1.0
 10
6719.279860835458
 20
5273.19945459262
 30
0.0
 10
6719.454900739172
 20
5273.199454591022
 30
0.0
 10
6719.808362709899
 20
5273.199454587792
 30
0.0
 10
6719.457148345831
 20
5273.199454604127
 30
0.0
 10
6719.279860835458
 20
5273.199454612372
 30
0.0
  0
LINE
  5
2E7
330
1F
100
AcDbEntity
  8
0
  6
SLD-Plná
 62
     7
370
    25
100
AcDbLine
 10
6719.4851253735
 20
5270.6994545926
 30
0.0
 11
6719.2798608355
 21
5273.1994545926
 31
0.0
  0
LINE
  5
2E8
330
1F
100
AcDbEntity
  8
0
  6
SLD-Plná
 62
     7
370
    25
100
AcDbLine
 10
6719.2798608355
 20
5256.1994545729
 30
0.0
 11
6719.4891121818
 21
5258.6994545926
 31
0.0
  0
SPLINE
  5
2E9
330
1F
100
AcDbEntity
  8
0
  6
SLD-Plná
 62
     7
370
    25
100
AcDbSpline
210
0.0
220
0.0
230
1.0
 70
    11
 71
     3
 72
     9
 73
     5
 74
     0
 42
0.00000001
 43
0.00000001
 40
0.0
 40
0.0
 40
0.0
 40
0.0
 40
0.4952156616863609
 40
1.0
 40
1.0
 40
1.0
 40
1.0
 10
6719.279860835459
 20
5256.199454592621
 30
0.0
 10
6719.454900739172
 20
5256.199454594221
 30
0.0
 10
6719.808362709899
 20
5256.19945459745
 30
0.0
 10
6719.457148345831
 20
5256.199454581115
 30
0.0
 10
6719.279860835459
 20
5256.199454572869
 30
0.0
  0
LINE
  5
2EA
330
1F
100
AcDbEntity
  8
0
  6
SLD-Plná
 62
     7
370
    25
100
AcDbLine
 10
6719.6591354665
 20
5273.0989369907
 30
0.0
 11
6719.6591354665
 21
5256.2999721945
 31
0.0
  0
LINE
  5
2EB
330
1F
100
AcDbEntity
  8
0
  6
SLD-Plná
 62
     7
370
    25
100
AcDbLine
 10
6719.2798608355
 20
5264.6994546124
 30
0.0
 11
6717.8185174704
 21
5264.6994545926
 31
0.0
  0
SPLINE
  5
2EC
330
1F
100
AcDbEntity
  8
0
  6
SLD-Plná
 62
     7
370
    25
100
AcDbSpline
210
0.0
220
0.0
230
1.0
 70
     8
 71
     3
 72
     9
 73
     5
 74
     0
 42
0.00000001
 43
0.00000001
 40
0.0
 40
0.0
 40
0.0
 40
0.0
 40
0.4952156671610948
 40
1.0
 40
1.0
 40
1.0
 40
1.0
 10
6717.818517470369
 20
5273.199454592558
 30
0.0
 10
6717.643477566868
 20
5271.796447676371
 30
0.0
 10
6717.29001560048
 20
5268.963324636806
 30
0.0
 10
6717.641229962801
 20
5266.129782346968
 30
0.0
 10
6717.818517470369
 20
5264.699454592621
 30
0.0
  0
LINE
  5
2ED
330
1F
100
AcDbEntity
  8
0
  6
SLD-Plná
 62
     7
370
    25
100
AcDbLine
 10
6719.2798608355
 20
5273.1994546124
 30
0.0
 11
6717.8185174704
 21
5273.1994545926
 31
0.0
  0
SPLINE
  5
2EE
330
1F
100
AcDbEntity
  8
0
  6
SLD-Plná
 62
     7
370
    25
100
AcDbSpline
210
0.0
220
0.0
230
1.0
 70
     8
 71
     3
 72
     9
 73
     5
 74
     0
 42
0.00000001
 43
0.00000001
 40
0.0
 40
0.0
 40
0.0
 40
0.0
 40
0.4952156671610901
 40
1.0
 40
1.0
 40
1.0
 40
1.0
 10
6717.818517470369
 20
5264.699454592621
 30
0.0
 10
6717.643477566868
 20
5263.296447676402
 30
0.0
 10
6717.29001560048
 20
5260.463324636775
 30
0.0
 10
6717.641229962801
 20
5257.629782346999
 30
0.0
 10
6717.818517470369
 20
5256.199454592684
 30
0.0
  0
SPLINE
  5
2EF
330
1F
100
AcDbEntity
  8
0
  6
SLD-Plná
 62
     7
370
    25
100
AcDbSpline
210
0.0
220
0.0
230
1.0
 70
    24
 71
     3
 72
     9
 73
     5
 74
     0
 42
0.00000001
 43
0.00000001
 40
0.0
 40
0.0
 40
0.0
 40
0.0
 40
0.9904281444070514
 40
1.0
 40
1.0
 40
1.0
 40
1.0
 10
6717.818517470369
 20
5256.199454592684
 30
0.0
 10
6717.585873335924
 20
5256.199454592642
 30
0.0
 10
6717.350980844471
 20
5256.199454592601
 30
0.0
 10
6717.468427652164
 20
5256.199454592621
 30
0.0
 10
6717.469551836048
 20
5256.199454592622
 30
0.0
  0
LINE
  5
2F0
330
1F
100
AcDbEntity
  8
0
  6
SLD-Plná
 62
     7
370
    25
100
AcDbLine
 10
6717.469551836
 20
5273.1994545926
 30
0.0
 11
6717.8185174704
 21
5273.1994545926
 31
0.0
  0
LINE
  5
2F1
330
1F
100
AcDbEntity
  8
0
  6
SLD-Plná
 62
     7
370
    25
100
AcDbLine
 10
6721.2491891544
 20
5271.5494545926
 30
0.0
 11
6721.2491891544
 21
5257.8494545926
 31
0.0
  0
LINE
  5
2F2
330
1F
100
AcDbEntity
  8
0
  6
SLD-Plná
 62
     7
370
    25
100
AcDbLine
 10
6719.2798608355
 20
5256.1994545926
 30
0.0
 11
6717.8185174704
 21
5256.1994545927
 31
0.0
  0
SPLINE
  5
2F3
330
1F
100
AcDbEntity
  8
0
  6
SLD-Plná
 62
     7
370
    25
100
AcDbSpline
210
0.0
220
0.0
230
1.0
 70
     8
 71
     3
 72
    19
 73
    15
 74
     0
 42
0.00000001
 43
0.00000001
 40
0.0
 40
0.0
 40
0.0
 40
0.0
 40
0.0596513368775585
 40
0.1494677654946335
 40
0.1814061451041798
 40
0.2143179189781916
 40
0.2481358534567334
 40
0.3249053197296675
 40
0.3911856375321214
 40
0.4760098952285054
 40
0.5793450828515098
 40
0.7011524438735415
 40
0.8413874872106732
 40
1.0
 40
1.0
 40
1.0
 40
1.0
 10
6724.452578058518
 20
5270.507734866997
 30
0.0
 10
6724.451974244959
 20
5270.500125233153
 30
0.0
 10
6724.450461275293
 20
5270.481057848808
 30
0.0
 10
6724.449168982013
 20
5270.309809010737
 30
0.0
 10
6724.449163354156
 20
5270.094748679337
 30
0.0
 10
6724.449355207369
 20
5269.931356927984
 30
0.0
 10
6724.450166976899
 20
5269.656775423169
 30
0.0
 10
6724.450486220275
 20
5269.248054484156
 30
0.0
 10
6724.450734519926
 20
5268.616033002198
 30
0.0
 10
6724.450903416667
 20
5267.799922644373
 30
0.0
 10
6724.451030524678
 20
5266.671188649007
 30
0.0
 10
6724.451110813328
 20
5265.22251505959
 30
0.0
 10
6724.451147398846
 20
5263.486685976538
 30
0.0
 10
6724.451134718011
 20
5262.37908771816
 30
0.0
 10
6724.451127987693
 20
5261.791233009895
 30
0.0
  0
LINE
  5
2F4
330
1F
100
AcDbEntity
  8
0
  6
SLD-Plná
 62
     7
370
    25
100
AcDbLine
 10
6730.6991891544
 20
5267.9037485866
 30
0.0
 11
6730.6991891544
 21
5268.2576647254
 31
0.0
  0
SPLINE
  5
2F5
330
1F
100
AcDbEntity
  8
0
  6
SLD-Plná
 62
     7
370
    25
100
AcDbSpline
210
0.0
220
0.0
230
1.0
 70
    24
 71
     3
 72
    18
 73
    14
 74
     0
 42
0.00000001
 43
0.00000001
 40
0.0
 40
0.0
 40
0.0
 40
0.0
 40
0.0211879627860576
 40
0.1001577247854133
 40
0.1791274867847682
 40
0.2564562220731214
 40
0.4001051498569463
 40
0.5437540776407707
 40
0.6210828129291236
 40
0.7000525749284786
 40
0.7790223369278334
 40
0.8563510722161872
 40
1.0
 40
1.0
 40
1.0
 40
1.0
 10
6730.699189154392
 20
5261.014460332366
 30
0.0
 10
6730.699189154392
 20
5261.010055902279
 30
0.0
 10
6730.699189154392
 20
5260.989235698792
 30
0.0
 10
6730.699189154392
 20
5261.107452134695
 30
0.0
 10
6730.699189154391
 20
5261.370429177388
 30
0.0
 10
6730.699189154392
 20
5261.896112071611
 30
0.0
 10
6730.699189154392
 20
5262.804401726469
 30
0.0
 10
6730.699189154391
 20
5263.941408340746
 30
0.0
 10
6730.699189154392
 20
5264.910829772281
 30
0.0
 10
6730.699189154392
 20
5265.664493585678
 30
0.0
 10
6730.699189154391
 20
5266.374014146937
 30
0.0
 10
6730.699189154392
 20
5267.204418437781
 30
0.0
 10
6730.699189154391
 20
5267.628239261282
 30
0.0
 10
6730.699189154391
 20
5267.903748586624
 30
0.0
  0
SPLINE
  5
2F6
330
1F
100
AcDbEntity
  8
0
  6
SLD-Plná
 62
     7
370
    25
100
AcDbSpline
210
0.0
220
0.0
230
1.0
 70
     8
 71
     3
 72
     9
 73
     5
 74
     0
 42
0.00000001
 43
0.00000001
 40
0.0
 40
0.0
 40
0.0
 40
0.0
 40
0.4952156616863536
 40
1.0
 40
1.0
 40
1.0
 40
1.0
 10
6719.279860835458
 20
5283.699454612372
 30
0.0
 10
6719.454900739172
 20
5282.296447710961
 30
0.0
 10
6719.808362709899
 20
5279.463324669911
 30
0.0
 10
6719.457148345831
 20
5276.629782368382
 30
0.0
 10
6719.279860835459
 20
5275.199454592621
 30
0.0
  0
SPLINE
  5
2F7
330
1F
100
AcDbEntity
  8
0
  6
SLD-Plná
 62
     7
370
    25
100
AcDbSpline
210
0.0
220
0.0
230
1.0
 70
     8
 71
     3
 72
     9
 73
     5
 74
     0
 42
0.00000001
 43
0.00000001
 40
0.0
 40
0.0
 40
0.0
 40
0.0
 40
0.4952156616863536
 40
1.0
 40
1.0
 40
1.0
 40
1.0
 10
6719.279860835458
 20
5292.199454612372
 30
0.0
 10
6719.454900739172
 20
5290.79644770936
 30
0.0
 10
6719.808362709899
 20
5287.963324665082
 30
0.0
 10
6719.457148345831
 20
5285.129782379888
 30
0.0
 10
6719.279860835458
 20
5283.699454612372
 30
0.0
  0
SPLINE
  5
2F8
330
1F
100
AcDbEntity
  8
0
  6
SLD-Plná
 62
     7
370
    25
100
AcDbSpline
210
0.0
220
0.0
230
1.0
 70
    11
 71
     3
 72
     9
 73
     5
 74
     0
 42
0.00000001
 43
0.00000001
 40
0.0
 40
0.0
 40
0.0
 40
0.0
 40
0.4952156616863496
 40
1.0
 40
1.0
 40
1.0
 40
1.0
 10
6719.279860835458
 20
5292.199454592621
 30
0.0
 10
6719.454900739172
 20
5292.199454591021
 30
0.0
 10
6719.808362709899
 20
5292.199454587792
 30
0.0
 10
6719.457148345831
 20
5292.199454604127
 30
0.0
 10
6719.279860835458
 20
5292.199454612372
 30
0.0
  0
LINE
  5
2F9
330
1F
100
AcDbEntity
  8
0
  6
SLD-Plná
 62
     7
370
    25
100
AcDbLine
 10
6719.4851253735
 20
5289.6994545926
 30
0.0
 11
6719.2798608355
 21
5292.1994545926
 31
0.0
  0
LINE
  5
2FA
330
1F
100
AcDbEntity
  8
0
  6
SLD-Plná
 62
     7
370
    25
100
AcDbLine
 10
6719.2798608355
 20
5275.1994545729
 30
0.0
 11
6719.4891121818
 21
5277.6994545926
 31
0.0
  0
SPLINE
  5
2FB
330
1F
100
AcDbEntity
  8
0
  6
SLD-Plná
 62
     7
370
    25
100
AcDbSpline
210
0.0
220
0.0
230
1.0
 70
    11
 71
     3
 72
     9
 73
     5
 74
     0
 42
0.00000001
 43
0.00000001
 40
0.0
 40
0.0
 40
0.0
 40
0.0
 40
0.4952156616863609
 40
1.0
 40
1.0
 40
1.0
 40
1.0
 10
6719.279860835459
 20
5275.199454592621
 30
0.0
 10
6719.454900739172
 20
5275.19945459422
 30
0.0
 10
6719.808362709899
 20
5275.19945459745
 30
0.0
 10
6719.457148345831
 20
5275.199454581115
 30
0.0
 10
6719.279860835459
 20
5275.199454572868
 30
0.0
  0
LINE
  5
2FC
330
1F
100
AcDbEntity
  8
0
  6
SLD-Plná
 62
     7
370
    25
100
AcDbLine
 10
6719.6591354665
 20
5292.0989369907
 30
0.0
 11
6719.6591354665
 21
5275.2999721945
 31
0.0
  0
LINE
  5
2FD
330
1F
100
AcDbEntity
  8
0
  6
SLD-Plná
 62
     7
370
    25
100
AcDbLine
 10
6719.2798608355
 20
5283.6994546124
 30
0.0
 11
6717.8185174704
 21
5283.6994545926
 31
0.0
  0
SPLINE
  5
2FE
330
1F
100
AcDbEntity
  8
0
  6
SLD-Plná
 62
     7
370
    25
100
AcDbSpline
210
0.0
220
0.0
230
1.0
 70
     8
 71
     3
 72
     9
 73
     5
 74
     0
 42
0.00000001
 43
0.00000001
 40
0.0
 40
0.0
 40
0.0
 40
0.0
 40
0.4952156671610948
 40
1.0
 40
1.0
 40
1.0
 40
1.0
 10
6717.818517470369
 20
5292.199454592557
 30
0.0
 10
6717.643477566868
 20
5290.79644767637
 30
0.0
 10
6717.29001560048
 20
5287.963324636806
 30
0.0
 10
6717.641229962801
 20
5285.129782346968
 30
0.0
 10
6717.818517470369
 20
5283.699454592621
 30
0.0
  0
LINE
  5
2FF
330
1F
100
AcDbEntity
  8
0
  6
SLD-Plná
 62
     7
370
    25
100
AcDbLine
 10
6719.2798608355
 20
5292.1994546124
 30
0.0
 11
6717.8185174704
 21
5292.1994545926
 31
0.0
  0
SPLINE
  5
300
330
1F
100
AcDbEntity
  8
0
  6
SLD-Plná
 62
     7
370
    25
100
AcDbSpline
210
0.0
220
0.0
230
1.0
 70
     8
 71
     3
 72
     9
 73
     5
 74
     0
 42
0.00000001
 43
0.00000001
 40
0.0
 40
0.0
 40
0.0
 40
0.0
 40
0.4952156671610895
 40
1.0
 40
1.0
 40
1.0
 40
1.0
 10
6717.818517470369
 20
5283.699454592621
 30
0.0
 10
6717.643477566868
 20
5282.296447676402
 30
0.0
 10
6717.29001560048
 20
5279.463324636774
 30
0.0
 10
6717.641229962801
 20
5276.629782346999
 30
0.0
 10
6717.818517470369
 20
5275.199454592685
 30
0.0
  0
SPLINE
  5
301
330
1F
100
AcDbEntity
  8
0
  6
SLD-Plná
 62
     7
370
    25
100
AcDbSpline
210
0.0
220
0.0
230
1.0
 70
    24
 71
     3
 72
     9
 73
     5
 74
     0
 42
0.00000001
 43
0.00000001
 40
0.0
 40
0.0
 40
0.0
 40
0.0
 40
0.9904281444070514
 40
1.0
 40
1.0
 40
1.0
 40
1.0
 10
6717.818517470369
 20
5275.199454592685
 30
0.0
 10
6717.585873335924
 20
5275.199454592643
 30
0.0
 10
6717.350980844471
 20
5275.199454592601
 30
0.0
 10
6717.468427652164
 20
5275.199454592621
 30
0.0
 10
6717.469551836048
 20
5275.199454592622
 30
0.0
  0
LINE
  5
302
330
1F
100
AcDbEntity
  8
0
  6
SLD-Plná
 62
     7
370
    25
100
AcDbLine
 10
6717.469551836
 20
5292.1994545926
 30
0.0
 11
6717.8185174704
 21
5292.1994545926
 31
0.0
  0
LINE
  5
303
330
1F
100
AcDbEntity
  8
0
  6
SLD-Plná
 62
     7
370
    25
100
AcDbLine
 10
6721.2491891544
 20
5290.5494545926
 30
0.0
 11
6721.2491891544
 21
5276.8494545926
 31
0.0
  0
LINE
  5
304
330
1F
100
AcDbEntity
  8
0
  6
SLD-Plná
 62
     7
370
    25
100
AcDbLine
 10
6719.2798608355
 20
5275.1994545926
 30
0.0
 11
6717.8185174704
 21
5275.1994545927
 31
0.0
  0
SPLINE
  5
305
330
1F
100
AcDbEntity
  8
0
  6
SLD-Plná
 62
     7
370
    25
100
AcDbSpline
210
0.0
220
0.0
230
1.0
 70
     8
 71
     3
 72
    19
 73
    15
 74
     0
 42
0.00000001
 43
0.00000001
 40
0.0
 40
0.0
 40
0.0
 40
0.0
 40
0.0596513368775584
 40
0.1494677654946335
 40
0.1814061451041796
 40
0.2143179189781914
 40
0.2481358534567329
 40
0.3249053197296672
 40
0.3911856375321215
 40
0.4760098952285051
 40
0.5793450828515099
 40
0.701152443873541
 40
0.8413874872106727
 40
1.0
 40
1.0
 40
1.0
 40
1.0
 10
6724.452578058518
 20
5289.507734866997
 30
0.0
 10
6724.451974244959
 20
5289.500125233153
 30
0.0
 10
6724.450461275293
 20
5289.481057848808
 30
0.0
 10
6724.449168982013
 20
5289.309809010737
 30
0.0
 10
6724.449163354156
 20
5289.094748679337
 30
0.0
 10
6724.449355207369
 20
5288.931356927984
 30
0.0
 10
6724.450166976899
 20
5288.65677542317
 30
0.0
 10
6724.450486220275
 20
5288.248054484156
 30
0.0
 10
6724.450734519926
 20
5287.616033002198
 30
0.0
 10
6724.450903416668
 20
5286.799922644373
 30
0.0
 10
6724.451030524678
 20
5285.671188649007
 30
0.0
 10
6724.451110813328
 20
5284.22251505959
 30
0.0
 10
6724.451147398846
 20
5282.486685976537
 30
0.0
 10
6724.451134718011
 20
5281.37908771816
 30
0.0
 10
6724.451127987693
 20
5280.791233009895
 30
0.0
  0
LINE
  5
306
330
1F
100
AcDbEntity
  8
0
  6
SLD-Plná
 62
     7
370
    25
100
AcDbLine
 10
6730.6991891544
 20
5286.9037485866
 30
0.0
 11
6730.6991891544
 21
5287.2576647254
 31
0.0
  0
SPLINE
  5
307
330
1F
100
AcDbEntity
  8
0
  6
SLD-Plná
 62
     7
370
    25
100
AcDbSpline
210
0.0
220
0.0
230
1.0
 70
    24
 71
     3
 72
    18
 73
    14
 74
     0
 42
0.00000001
 43
0.00000001
 40
0.0
 40
0.0
 40
0.0
 40
0.0
 40
0.0211879627860575
 40
0.1001577247854131
 40
0.1791274867847683
 40
0.2564562220731207
 40
0.4001051498569457
 40
0.5437540776407707
 40
0.6210828129291237
 40
0.7000525749284779
 40
0.7790223369278335
 40
0.8563510722161868
 40
1.0
 40
1.0
 40
1.0
 40
1.0
 10
6730.699189154392
 20
5280.014460332366
 30
0.0
 10
6730.699189154391
 20
5280.010055902279
 30
0.0
 10
6730.699189154392
 20
5279.989235698793
 30
0.0
 10
6730.699189154392
 20
5280.107452134695
 30
0.0
 10
6730.699189154392
 20
5280.370429177388
 30
0.0
 10
6730.699189154391
 20
5280.896112071612
 30
0.0
 10
6730.699189154392
 20
5281.804401726469
 30
0.0
 10
6730.699189154391
 20
5282.941408340746
 30
0.0
 10
6730.699189154392
 20
5283.910829772281
 30
0.0
 10
6730.699189154392
 20
5284.664493585678
 30
0.0
 10
6730.699189154391
 20
5285.374014146937
 30
0.0
 10
6730.699189154392
 20
5286.204418437781
 30
0.0
 10
6730.699189154391
 20
5286.628239261282
 30
0.0
 10
6730.699189154391
 20
5286.903748586624
 30
0.0
  0
LINE
  5
308
330
1F
100
AcDbEntity
  8
0
  6
SLD-Plná
 62
     7
370
    25
100
AcDbLine
 10
6717.4991891544
 20
5086.6994545926
 30
0.0
 11
6717.4991891544
 21
5110.6994545926
 31
0.0
  0
LINE
  5
309
330
1F
100
AcDbEntity
  8
0
  6
SLD-Plná
 62
     7
370
    25
100
AcDbLine
 10
6718.4991891544
 20
5109.6994545926
 30
0.0
 11
6718.4991891544
 21
5087.6994545926
 31
0.0
  0
SPLINE
  5
30A
330
1F
100
AcDbEntity
  8
0
  6
SLD-Plná
 62
     7
370
    25
100
AcDbSpline
210
0.0
220
0.0
230
1.0
 70
     8
 71
     3
 72
    13
 73
     9
 74
     0
 42
0.00000001
 43
0.00000001
 40
0.0
 40
0.0
 40
0.0
 40
0.0
 40
0.0254342784919342
 40
0.2391405405228668
 40
0.4528843033372799
 40
0.6670512278740933
 40
0.8818628295038904
 40
1.0
 40
1.0
 40
1.0
 40
1.0
 10
6718.499189154391
 20
5108.282206898441
 30
0.0
 10
6718.501845169551
 20
5108.282172886157
 30
0.0
 10
6718.526817802495
 20
5108.281853092698
 30
0.0
 10
6718.574105636208
 20
5108.271664496185
 30
0.0
 10
6718.632488703806
 20
5108.236280243136
 30
0.0
 10
6718.675718117519
 20
5108.18345948623
 30
0.0
 10
6718.696584034378
 20
5108.128720310415
 30
0.0
 10
6718.698506886384
 20
5108.093915487278
 30
0.0
 10
6718.699189154391
 20
5108.081566009912
 30
0.0
  0
LINE
  5
30B
330
1F
100
AcDbEntity
  8
0
  6
SLD-Plná
 62
     7
370
    25
100
AcDbLine
 10
6718.6991891544
 20
5108.0815660099
 30
0.0
 11
6718.6991891544
 21
5097.2994545926
 31
0.0
  0
LINE
  5
30C
330
1F
100
AcDbEntity
  8
0
  6
SLD-Plná
 62
     7
370
    25
100
AcDbLine
 10
6720.6991891544
 20
5272.7337265209
 30
0.0
 11
6720.6991891544
 21
5275.6651826644
 31
0.0
  0
SPLINE
  5
30D
330
1F
100
AcDbEntity
  8
0
  6
SLD-Plná
 62
     7
370
    25
100
AcDbSpline
210
0.0
220
0.0
230
1.0
 70
     8
 71
     3
 72
    11
 73
     7
 74
     0
 42
0.00000001
 43
0.00000001
 40
0.0
 40
0.0
 40
0.0
 40
0.0
 40
0.2500000000000007
 40
0.4999999999999974
 40
0.7500000000000028
 40
0.9999999999999999
 40
0.9999999999999999
 40
0.9999999999999999
 40
0.9999999999999999
 10
6728.030080541318
 20
5209.133597713146
 30
0.0
 10
6728.031971974047
 20
5209.002618743868
 30
0.0
 10
6728.035754839506
 20
5208.740660805311
 30
0.0
 10
6728.035468587092
 20
5208.410227249498
 30
0.0
 10
6728.030853777932
 20
5208.178990610711
 30
0.0
 10
6728.024521925622
 20
5208.148830215401
 30
0.0
 10
6728.021355999466
 20
5208.133750017746
 30
0.0
  0
LINE
  5
30E
330
1F
100
AcDbEntity
  8
0
  6
SLD-Plná
 62
     7
370
    25
100
AcDbLine
 10
6716.3991891544
 20
5207.9308843409
 30
0.0
 11
6728.0213559994
 21
5208.1337500177
 31
0.0
  0
LINE
  5
30F
330
1F
100
AcDbEntity
  8
0
  6
SLD-Plná
 62
     7
370
    25
100
AcDbLine
 10
6716.8991891544
 20
5236.5994545926
 30
0.0
 11
6716.8991891544
 21
5219.7252291912
 31
0.0
  0
LINE
  5
310
330
1F
100
AcDbEntity
  8
0
  6
SLD-Plná
 62
     7
370
    25
100
AcDbLine
 10
6716.8991891544
 20
5219.7252291912
 30
0.0
 11
6733.9253661027
 21
5218.235631725
 31
0.0
  0
LINE
  5
311
330
1F
100
AcDbEntity
  8
0
  6
SLD-Plná
 62
     7
370
    25
100
AcDbLine
 10
6733.9253661027
 20
5218.235631725
 30
0.0
 11
6733.9253661027
 21
5215.1326838838
 31
0.0
  0
ARC
  5
312
330
1F
100
AcDbEntity
  8
0
  6
SLD-Plná
 62
     7
370
    25
100
AcDbCircle
 10
6727.9253661027
 20
5215.1326838838
 30
0.0
 40
5.999999999998181
100
AcDbArc
 50
271.0
 51
0.0
  0
SPLINE
  5
313
330
1F
100
AcDbEntity
  8
0
  6
SLD-Plná
 62
     7
370
    25
100
AcDbSpline
210
0.0
220
0.0
230
1.0
 70
    24
 71
     3
 72
    11
 73
     7
 74
     0
 42
0.00000001
 43
0.00000001
 40
0.0
 40
0.0
 40
0.0
 40
0.0
 40
0.2500000000000281
 40
0.5000000000000222
 40
0.7500000000000107
 40
1.0
 40
1.0
 40
1.0
 40
1.0
 10
6733.9253661027
 20
5215.132683883839
 30
0.0
 10
6734.053793312881
 20
5215.132683883839
 30
0.0
 10
6734.310647733244
 20
5215.132683883839
 30
0.0
 10
6734.631670889294
 20
5215.132683883839
 30
0.0
 10
6734.855615296478
 20
5215.132683883839
 30
0.0
 10
6734.884664535087
 20
5215.132683883839
 30
0.0
 10
6734.899189154391
 20
5215.132683883839
 30
0.0
  0
SPLINE
  5
314
330
1F
100
AcDbEntity
  8
0
  6
SLD-Plná
 62
     7
370
    25
100
AcDbSpline
210
0.0
220
0.0
230
1.0
 70
     8
 71
     3
 72
    13
 73
     9
 74
     0
 42
0.00000001
 43
0.00000001
 40
0.0
 40
0.0
 40
0.0
 40
0.0
 40
0.1541635107559951
 40
0.300060298694916
 40
0.4376848620389396
 40
0.56703214511564
 40
0.7999180805073607
 40
1.0
 40
1.0
 40
1.0
 40
1.0
 10
6728.021355999436
 20
5208.133750017745
 30
0.0
 10
6728.57886246984
 20
5208.182079690793
 30
0.0
 10
6729.663980194608
 20
5208.276147450794
 30
0.0
 10
6731.149934230139
 20
5208.873639907993
 30
0.0
 10
6732.400620207851
 20
5209.704908587762
 30
0.0
 10
6733.66414684825
 20
5211.004457921666
 30
0.0
 10
6734.690799102601
 20
5212.837258295432
 30
0.0
 10
6734.833325326216
 20
5214.407190918879
 30
0.0
 10
6734.899189154391
 20
5215.132683883839
 30
0.0
  0
LINE
  5
315
330
1F
100
AcDbEntity
  8
0
  6
SLD-Plná
 62
     7
370
    25
100
AcDbLine
 10
6734.8991891544
 20
5215.1326838838
 30
0.0
 11
6734.8991891544
 21
5218.1504332477
 31
0.0
  0
LINE
  5
316
330
1F
100
AcDbEntity
  8
0
  6
SLD-Plná
 62
     7
370
    25
100
AcDbLine
 10
6734.8991891544
 20
5218.1504332477
 30
0.0
 11
6733.9253661027
 21
5218.235631725
 31
0.0
  0
LINE
  5
317
330
1F
100
AcDbEntity
  8
0
  6
SLD-Plná
 62
     7
370
    25
100
AcDbLine
 10
6716.8991891544
 20
5322.4526803258
 30
0.0
 11
6716.8991891544
 21
5292.7994545926
 31
0.0
  0
LINE
  5
318
330
1F
100
AcDbEntity
  8
0
  6
SLD-Plná
 62
     7
370
    25
100
AcDbLine
 10
6716.8991891544
 20
5322.4526803258
 30
0.0
 11
6716.8991891544
 21
5323.45313803
 31
0.0
  0
LINE
  5
319
330
1F
100
AcDbEntity
  8
0
  6
SLD-Plná
 62
     7
370
    25
100
AcDbLine
 10
6716.8991891544
 20
5323.45313803
 30
0.0
 11
6716.3991891544
 21
5323.4793419196
 31
0.0
  0
ARC
  5
31A
330
1F
100
AcDbEntity
  8
0
  6
SLD-Plná
 62
     7
370
    25
100
AcDbCircle
 10
6722.7035524221
 20
5275.8052897556
 30
0.0
 40
2.499999999999091
100
AcDbArc
 50
270.5000000023
 51
359.9999999829
  0
SPLINE
  5
31B
330
1F
100
AcDbEntity
  8
0
  6
SLD-Plná
 62
     7
370
    25
100
AcDbSpline
210
0.0
220
0.0
230
1.0
 70
     8
 71
     3
 72
    11
 73
     7
 74
     0
 42
0.00000001
 43
0.00000001
 40
0.0
 40
0.0
 40
0.0
 40
0.0
 40
0.2499999999999959
 40
0.4999999999999962
 40
0.7499999999999898
 40
0.9999999999999999
 40
0.9999999999999999
 40
0.9999999999999999
 40
0.9999999999999999
 10
6722.725368760985
 20
5273.305384948143
 30
0.0
 10
6722.725874859133
 20
5273.239872099206
 30
0.0
 10
6722.726887055432
 20
5273.108846401332
 30
0.0
 10
6722.72732024837
 20
5272.943585315049
 30
0.0
 10
6722.726887055437
 20
5272.82796322251
 30
0.0
 10
6722.725874859141
 20
5272.812923731805
 30
0.0
 10
6722.725368760994
 20
5272.805403986451
 30
0.0
  0
LINE
  5
31C
330
1F
100
AcDbEntity
  8
0
  6
SLD-Plná
 62
     7
370
    25
100
AcDbLine
 10
6720.6991891544
 20
5272.7877217849
 30
0.0
 11
6722.7253687604
 21
5272.8054039864
 31
0.0
  0
SPLINE
  5
31D
330
1F
100
AcDbEntity
  8
0
  6
SLD-Plná
 62
     7
370
    25
100
AcDbSpline
210
0.0
220
0.0
230
1.0
 70
    24
 71
     3
 72
    11
 73
     7
 74
     0
 42
0.00000001
 43
0.00000001
 40
0.0
 40
0.0
 40
0.0
 40
0.0
 40
0.2499999999999985
 40
0.4999999999999916
 40
0.7500000000000142
 40
1.0
 40
1.0
 40
1.0
 40
1.0
 10
6725.203552422139
 20
5275.805289754898
 30
0.0
 10
6725.268639379257
 20
5275.805289754898
 30
0.0
 10
6725.398813293496
 20
5275.805289754898
 30
0.0
 10
6725.562495240679
 20
5275.805289754898
 30
0.0
 10
6725.676896797006
 20
5275.805289754898
 30
0.0
 10
6725.691758368595
 20
5275.805289754899
 30
0.0
 10
6725.699189154391
 20
5275.805289754899
 30
0.0
  0
SPLINE
  5
31E
330
1F
100
AcDbEntity
  8
0
  6
SLD-Plná
 62
     7
370
    25
100
AcDbSpline
210
0.0
220
0.0
230
1.0
 70
     8
 71
     3
 72
    13
 73
     9
 74
     0
 42
0.00000001
 43
0.00000001
 40
0.0
 40
0.0
 40
0.0
 40
0.0
 40
0.1545795397826584
 40
0.3007755053653803
 40
0.4385816408192649
 40
0.5679920633584231
 40
0.8006375270917725
 40
0.9999999999999999
 40
0.9999999999999999
 40
0.9999999999999999
 40
0.9999999999999999
 10
6722.725368760447
 20
5272.805403986447
 30
0.0
 10
6722.966491967702
 20
5272.824330485189
 30
0.0
 10
6723.435661138601
 20
5272.861157009784
 30
0.0
 10
6724.079014662932
 20
5273.115567898098
 30
0.0
 10
6724.620299934487
 20
5273.472055890656
 30
0.0
 10
6725.166470910047
 20
5274.030603054419
 30
0.0
 10
6725.609447756406
 20
5274.818759842239
 30
0.0
 10
6725.670852275192
 20
5275.493781582059
 30
0.0
 10
6725.699189154391
 20
5275.805289755643
 30
0.0
  0
LINE
  5
31F
330
1F
100
AcDbEntity
  8
0
  6
SLD-Plná
 62
     7
370
    25
100
AcDbLine
 10
6725.6991891544
 20
5275.8052897556
 30
0.0
 11
6725.6991891544
 21
5278.3994545926
 31
0.0
  0
LINE
  5
320
330
1F
100
AcDbEntity
  8
0
  6
SLD-Plná
 62
     7
370
    25
100
AcDbLine
 10
6700.5991891536
 20
5065.2994545926
 30
0.0
 11
6700.5991891536
 21
5065.1994545927
 31
0.0
  0
LINE
  5
321
330
1F
100
AcDbEntity
  8
0
  6
SLD-Plná
 62
     7
370
    25
100
AcDbLine
 10
6689.3248335418
 20
5065.1994545927
 30
0.0
 11
6689.3248335418
 21
5065.3762312878
 31
0.0
  0
ARC
  5
322
330
1F
100
AcDbEntity
  8
0
  6
SLD-Plná
 62
     7
370
    25
100
AcDbCircle
 10
6700.5991891536
 20
5067.6994545927
 30
0.0
 40
2.500000000000207
100
AcDbArc
 50
269.9999999999
 51
279.9999999999
  0
LINE
  5
323
330
1F
100
AcDbEntity
  8
0
  6
SLD-Plná
 62
     7
370
    25
100
AcDbLine
 10
6701.385038994
 20
5065.2994545926
 30
0.0
 11
6701.0333095977
 21
5065.2374352101
 31
0.0
  0
LINE
  5
324
330
1F
100
AcDbEntity
  8
0
  6
SLD-Plná
 62
     7
370
    25
100
AcDbLine
 10
6681.4991891535
 20
5065.1994545927
 30
0.0
 11
6681.4991891535
 21
5065.3762312878
 31
0.0
  0
LINE
  5
325
330
1F
100
AcDbEntity
  8
0
  6
SLD-Plná
 62
     7
370
    25
100
AcDbLine
 10
6587.099189154
 20
5362.0226778975
 30
0.0
 11
6699.599189154
 21
5362.0226778974
 31
0.0
  0
LINE
  5
326
330
1F
100
AcDbEntity
  8
0
  6
SLD-Plná
 62
     7
370
    25
100
AcDbLine
 10
6699.5991891536
 20
5065.3762312878
 30
0.0
 11
6699.599189154
 21
5362.0226778974
 31
0.0
  0
LINE
  5
327
330
1F
100
AcDbEntity
  8
0
  6
SLD-Plná
 62
     7
370
    25
100
AcDbLine
 10
6699.5991891536
 20
5065.3762312878
 30
0.0
 11
6587.0991891536
 21
5065.3762312879
 31
0.0
  0
LINE
  5
328
330
1F
100
AcDbEntity
  8
0
  6
SLD-Plná
 62
     7
370
    25
100
AcDbLine
 10
6587.0991891536
 20
5065.3762312879
 30
0.0
 11
6587.099189154
 21
5362.0226778975
 31
0.0
  0
ELLIPSE
  5
329
330
1F
100
AcDbEntity
  8
0
  6
SLD-Plná
 62
     7
370
    25
100
AcDbEllipse
 10
6587.099189154
 20
5361.1994545928
 30
0.0
 11
2.5
 21
-2.728484105318785E-12
 31
0.0
210
0.0
220
0.0
230
1.0
 40
0.3292893219
 41
1.570796326794892
 42
3.14159265361856
  0
ELLIPSE
  5
32A
330
1F
100
AcDbEntity
  8
0
  6
SLD-Plná
 62
     7
370
    25
100
AcDbEllipse
 10
6587.0991891536
 20
5066.1994545927
 30
0.0
 11
2.499999999999091
 21
-2.728484105318785E-12
 31
0.0
210
0.0
220
0.0
230
1.0
 40
0.3292893219
 41
3.1415926535224
 42
4.71238898038469
  0
LINE
  5
32B
330
1F
100
AcDbEntity
  8
0
  6
SLD-Plná
 62
     7
370
    25
100
AcDbLine
 10
6584.5991891536
 20
5066.1994545928
 30
0.0
 11
6584.599189154
 21
5361.1994545928
 31
0.0
  0
ARC
  5
32C
330
1F
100
AcDbEntity
  8
0
  6
SLD-Plná
 62
     7
370
    25
100
AcDbCircle
 10
6587.099189154
 20
5361.1994545928
 30
0.0
 40
1.0
100
AcDbArc
 50
89.9999999999
 51
126.9594727983
  0
ARC
  5
32D
330
1F
100
AcDbEntity
  8
0
  6
SLD-Plná
 62
     7
370
    25
100
AcDbCircle
 10
6587.099189154
 20
5361.1994545928
 30
0.0
 40
2.5
100
AcDbArc
 50
89.9999999999
 51
179.9999999999
  0
LINE
  5
32E
330
1F
100
AcDbEntity
  8
0
  6
SLD-Plná
 62
     7
370
    25
100
AcDbLine
 10
6587.099189154
 20
5363.6994545928
 30
0.0
 11
6587.099189154
 21
5362.1994545928
 31
0.0
  0
LINE
  5
32F
330
1F
100
AcDbEntity
  8
0
  6
SLD-Plná
 62
     7
370
    25
100
AcDbLine
 10
6699.5218573138
 20
5362.9119220772
 30
0.0
 11
6699.2352189197
 21
5363.6994545926
 31
0.0
  0
LINE
  5
330
330
1F
100
AcDbEntity
  8
0
  6
SLD-Plná
 62
     7
370
    25
100
AcDbLine
 10
6699.2352189197
 20
5363.6994545926
 30
0.0
 11
6587.099189154
 21
5363.6994545928
 31
0.0
  0
LINE
  5
331
330
1F
100
AcDbEntity
  8
0
  6
SLD-Plná
 62
     7
370
    25
100
AcDbLine
 10
6699.3991891544
 20
5362.1994545926
 30
0.0
 11
6587.099189154
 21
5362.1994545928
 31
0.0
  0
ARC
  5
332
330
1F
100
AcDbEntity
  8
0
  6
SLD-Plná
 62
     7
370
    25
100
AcDbCircle
 10
6587.0991891536
 20
5066.1994545928
 30
0.0
 40
1.000000000000333
100
AcDbArc
 50
233.0405272082
 51
269.9999999999
  0
LINE
  5
333
330
1F
100
AcDbEntity
  8
0
  6
SLD-Plná
 62
     7
370
    25
100
AcDbLine
 10
6587.0991891536
 20
5063.6994545928
 30
0.0
 11
6587.0991891536
 21
5065.1994545928
 31
0.0
  0
ARC
  5
334
330
1F
100
AcDbEntity
  8
0
  6
SLD-Plná
 62
     7
370
    25
100
AcDbCircle
 10
6587.0991891536
 20
5066.1994545928
 30
0.0
 40
2.500000000000909
100
AcDbArc
 50
179.9999999989
 51
269.9999999999
  0
LINE
  5
335
330
1F
100
AcDbEntity
  8
0
  6
SLD-Plná
 62
     7
370
    25
100
AcDbLine
 10
6587.0991891536
 20
5065.1994545928
 30
0.0
 11
6699.3991891544
 21
5065.1994545926
 31
0.0
  0
LINE
  5
336
330
1F
100
AcDbEntity
  8
0
  6
SLD-Plná
 62
     7
370
    25
100
AcDbLine
 10
6587.0991891536
 20
5063.6994545928
 30
0.0
 11
6699.3991891544
 21
5063.6994545926
 31
0.0
  0
LINE
  5
337
330
1F
100
AcDbEntity
  8
0
  6
SLD-Plná
 62
     7
370
    25
100
AcDbLine
 10
6692.1991891544
 20
5362.1994545926
 30
0.0
 11
6692.1991891544
 21
5362.0226778974
 31
0.0
  0
LINE
  5
338
330
1F
100
AcDbEntity
  8
0
  6
SLD-Plná
 62
     7
370
    25
100
AcDbLine
 10
6678.2991891544
 20
5362.1994545927
 30
0.0
 11
6678.2991891544
 21
5362.0226778974
 31
0.0
  0
LINE
  5
339
330
1F
100
AcDbEntity
  8
0
  6
SLD-Plná
 62
     7
370
    25
100
AcDbLine
 10
6713.2991891545
 20
5362.1994545926
 30
0.0
 11
6713.2991891545
 21
5362.0994545926
 31
0.0
  0
LINE
  5
33A
330
1F
100
AcDbEntity
  8
0
  6
SLD-Plná
 62
     7
370
    25
100
AcDbLine
 10
6692.9705029666
 20
5362.0226778974
 30
0.0
 11
6692.8398818031
 21
5362.1994545926
 31
0.0
  0
ARC
  5
33B
330
1F
100
AcDbEntity
  8
0
  6
SLD-Plná
 62
     7
370
    25
100
AcDbCircle
 10
6695.7991891545
 20
5364.2494545927
 30
0.0
 40
3.600000000000369
100
AcDbArc
 50
347.6332883208
 51
188.7879373227
  0
LINE
  5
33C
330
1F
100
AcDbEntity
  8
0
  6
SLD-Plná
 62
     7
370
    25
100
AcDbLine
 10
6713.8991891544
 20
5065.3762312879
 30
0.0
 11
6713.8991891544
 21
5065.2994545926
 31
0.0
  0
LINE
  5
33D
330
1F
100
AcDbEntity
  8
0
  6
SLD-Plná
 62
     7
370
    25
100
AcDbLine
 10
6713.8991891544
 20
5065.2994545926
 30
0.0
 11
6699.3991891544
 21
5065.2994545926
 31
0.0
  0
LINE
  5
33E
330
1F
100
AcDbEntity
  8
0
  6
SLD-Plná
 62
     7
370
    25
100
AcDbLine
 10
6699.3991891544
 20
5362.0994545926
 30
0.0
 11
6699.3991891544
 21
5065.2994545926
 31
0.0
  0
LINE
  5
33F
330
1F
100
AcDbEntity
  8
0
  6
SLD-Plná
 62
     7
370
    25
100
AcDbLine
 10
6713.8991891544
 20
5362.0994545926
 30
0.0
 11
6699.3991891544
 21
5362.0994545926
 31
0.0
  0
LINE
  5
340
330
1F
100
AcDbEntity
  8
0
  6
SLD-Plná
 62
     7
370
    25
100
AcDbLine
 10
6713.8991891544
 20
5362.0226778974
 30
0.0
 11
6713.8991891544
 21
5362.0994545926
 31
0.0
  0
LINE
  5
341
330
1F
100
AcDbEntity
  8
0
  6
SLD-Plná
 62
     7
370
    25
100
AcDbLine
 10
6713.8991891544
 20
5362.0226778974
 30
0.0
 11
6713.8991891544
 21
5065.3762312879
 31
0.0
  0
SPLINE
  5
342
330
1F
100
AcDbEntity
  8
0
  6
SLD-Plná
 62
     7
370
    25
100
AcDbSpline
210
0.0
220
0.0
230
1.0
 70
     8
 71
     3
 72
    11
 73
     7
 74
     0
 42
0.00000001
 43
0.00000001
 40
0.0
 40
0.0
 40
0.0
 40
0.0
 40
0.2500000000000017
 40
0.5000000000000013
 40
0.749999999999999
 40
1.0
 40
1.0
 40
1.0
 40
1.0
 10
6713.899189154391
 20
5362.022677897414
 30
0.0
 10
6714.22678176391
 20
5361.954075955347
 30
0.0
 10
6714.881966982949
 20
5361.816872071214
 30
0.0
 10
6715.708329325697
 20
5361.611066245012
 30
0.0
 10
6716.286452358501
 20
5361.405260418812
 30
0.0
 10
6716.361610222427
 20
5361.268056534678
 30
0.0
 10
6716.399189154391
 20
5361.199454592612
 30
0.0
  0
LINE
  5
343
330
1F
100
AcDbEntity
  8
0
  6
SLD-Plná
 62
     7
370
    25
100
AcDbLine
 10
6716.3991891544
 20
5361.1994545926
 30
0.0
 11
6716.3991891544
 21
5066.1994545926
 31
0.0
  0
SPLINE
  5
344
330
1F
100
AcDbEntity
  8
0
  6
SLD-Plná
 62
     7
370
    25
100
AcDbSpline
210
0.0
220
0.0
230
1.0
 70
     8
 71
     3
 72
    12
 73
     8
 74
     0
 42
0.00000001
 43
0.00000001
 40
0.0
 40
0.0
 40
0.0
 40
0.0
 40
0.1913660220175103
 40
0.4107021154763883
 40
0.6300458239436406
 40
0.8493894065372661
 40
1.0
 40
1.0
 40
1.0
 40
1.0
 10
6716.399189154391
 20
5066.199454592615
 30
0.0
 10
6716.377149416668
 20
5066.146987153807
 30
0.0
 10
6716.329848611582
 20
5066.034383631591
 30
0.0
 10
6715.933242039925
 20
5065.86130561981
 30
0.0
 10
6715.299616160867
 20
5065.680699938172
 30
0.0
 10
6714.578817078195
 20
5065.518722240043
 30
0.0
 10
6714.09582014237
 20
5065.417456987591
 30
0.0
 10
6713.899189154391
 20
5065.37623128788
 30
0.0
  0
LINE
  5
345
330
1F
100
AcDbEntity
  8
0
  6
SLD-Plná
 62
     7
370
    25
100
AcDbLine
 10
6699.9765394236
 20
5363.6994545926
 30
0.0
 11
6699.3991891544
 21
5362.6994545926
 31
0.0
  0
LINE
  5
346
330
1F
100
AcDbEntity
  8
0
  6
SLD-Plná
 62
     7
370
    25
100
AcDbLine
 10
6699.3991891544
 20
5362.6994545926
 30
0.0
 11
6699.3991891544
 21
5362.1994545926
 31
0.0
  0
LINE
  5
347
330
1F
100
AcDbEntity
  8
0
  6
SLD-Plná
 62
     7
370
    25
100
AcDbLine
 10
6713.8991891544
 20
5363.6994545926
 30
0.0
 11
6713.8991891544
 21
5362.1994545926
 31
0.0
  0
LINE
  5
348
330
1F
100
AcDbEntity
  8
0
  6
SLD-Plná
 62
     7
370
    25
100
AcDbLine
 10
6713.8991891544
 20
5363.6994545926
 30
0.0
 11
6699.9765394236
 21
5363.6994545926
 31
0.0
  0
LINE
  5
349
330
1F
100
AcDbEntity
  8
0
  6
SLD-Plná
 62
     7
370
    25
100
AcDbLine
 10
6713.8991891544
 20
5362.1994545926
 30
0.0
 11
6699.3991891544
 21
5362.1994545926
 31
0.0
  0
LINE
  5
34A
330
1F
100
AcDbEntity
  8
0
  6
SLD-Plná
 62
     7
370
    25
100
AcDbLine
 10
6699.3991891544
 20
5063.6994545926
 30
0.0
 11
6699.3991891544
 21
5065.1994545926
 31
0.0
  0
LINE
  5
34B
330
1F
100
AcDbEntity
  8
0
  6
SLD-Plná
 62
     7
370
    25
100
AcDbLine
 10
6713.8991891544
 20
5063.6994545926
 30
0.0
 11
6713.8991891544
 21
5065.1994545926
 31
0.0
  0
LINE
  5
34C
330
1F
100
AcDbEntity
  8
0
  6
SLD-Plná
 62
     7
370
    25
100
AcDbLine
 10
6713.8991891544
 20
5065.1994545926
 30
0.0
 11
6699.3991891544
 21
5065.1994545926
 31
0.0
  0
LINE
  5
34D
330
1F
100
AcDbEntity
  8
0
  6
SLD-Plná
 62
     7
370
    25
100
AcDbLine
 10
6713.8991891544
 20
5063.6994545926
 30
0.0
 11
6699.3991891544
 21
5063.6994545926
 31
0.0
  0
SPLINE
  5
34E
330
1F
100
AcDbEntity
  8
0
  6
SLD-Plná
 62
     7
370
    25
100
AcDbSpline
210
0.0
220
0.0
230
1.0
 70
     8
 71
     3
 72
    11
 73
     7
 74
     0
 42
0.00000001
 43
0.00000001
 40
0.0
 40
0.0
 40
0.0
 40
0.0
 40
0.0383497256940563
 40
0.4919251904480889
 40
0.9455009402741684
 40
1.0
 40
1.0
 40
1.0
 40
1.0
 10
6714.639472705327
 20
5361.863429124179
 30
0.0
 10
6714.633802972981
 20
5361.872499628066
 30
0.0
 10
6714.56107535595
 20
5361.988850117456
 30
0.0
 10
6714.315334713776
 20
5362.125663173651
 30
0.0
 10
6714.056204793408
 20
5362.197300502378
 30
0.0
 10
6713.914399965189
 20
5362.199245916212
 30
0.0
 10
6713.899189154385
 20
5362.199454592617
 30
0.0
  0
SPLINE
  5
34F
330
1F
100
AcDbEntity
  8
0
  6
SLD-Plná
 62
     7
370
    25
100
AcDbSpline
210
0.0
220
0.0
230
1.0
 70
     8
 71
     3
 72
    12
 73
     8
 74
     0
 42
0.00000001
 43
0.00000001
 40
0.0
 40
0.0
 40
0.0
 40
0.0
 40
0.1913660220253508
 40
0.4107021154852006
 40
0.6300458239534228
 40
0.8493894065480027
 40
1.0
 40
1.0
 40
1.0
 40
1.0
 10
6716.399189154391
 20
5361.199454592619
 30
0.0
 10
6716.377149416661
 20
5361.449693581972
 30
0.0
 10
6716.329848611562
 20
5361.986746509218
 30
0.0
 10
6715.933242039891
 20
5362.733737030303
 30
0.0
 10
6715.299616160823
 20
5363.32828573266
 30
0.0
 10
6714.578817078159
 20
5363.651862051224
 30
0.0
 10
6714.095820142351
 20
5363.685685045919
 30
0.0
 10
6713.899189154386
 20
5363.699454592617
 30
0.0
  0
SPLINE
  5
350
330
1F
100
AcDbEntity
  8
0
  6
SLD-Plná
 62
     7
370
    25
100
AcDbSpline
210
0.0
220
0.0
230
1.0
 70
     8
 71
     3
 72
    10
 73
     6
 74
     0
 42
0.00000001
 43
0.00000001
 40
0.0
 40
0.0
 40
0.0
 40
0.0
 40
0.4694893317609826
 40
0.9389786635219786
 40
1.0
 40
1.0
 40
1.0
 40
1.0
 10
6713.899189154408
 20
5065.199454592611
 30
0.0
 10
6714.027745935729
 20
5065.216112423487
 30
0.0
 10
6714.284859498373
 20
5065.249428085239
 30
0.0
 10
6714.545957993754
 20
5065.396293574896
 30
0.0
 10
6714.625339916906
 20
5065.520255765126
 30
0.0
 10
6714.634470724886
 20
5065.534514363442
 30
0.0
  0
SPLINE
  5
351
330
1F
100
AcDbEntity
  8
0
  6
SLD-Plná
 62
     7
370
    25
100
AcDbSpline
210
0.0
220
0.0
230
1.0
 70
     8
 71
     3
 72
    11
 73
     7
 74
     0
 42
0.00000001
 43
0.00000001
 40
0.0
 40
0.0
 40
0.0
 40
0.0
 40
0.2500000000000007
 40
0.5000000000000043
 40
0.7500000000000036
 40
1.0
 40
1.0
 40
1.0
 40
1.0
 10
6713.89918915441
 20
5063.699454592611
 30
0.0
 10
6714.226781763925
 20
5063.73703352458
 30
0.0
 10
6714.881966982955
 20
5063.812191388517
 30
0.0
 10
6715.708329325694
 20
5064.390314421321
 30
0.0
 10
6716.286452358499
 20
5065.216676764059
 30
0.0
 10
6716.361610222438
 20
5065.871861983088
 30
0.0
 10
6716.399189154406
 20
5066.199454592603
 30
0.0
  0
LINE
  5
352
330
1F
100
AcDbEntity
  8
0
  6
SLD-Plná
 62
     7
370
    25
100
AcDbLine
 10
6714.6394727053
 20
5361.8634291242
 30
0.0
 11
6713.8991891544
 21
5362.0226778974
 31
0.0
  0
SPLINE
  5
353
330
1F
100
AcDbEntity
  8
0
  6
SLD-Plná
 62
     8
370
    25
100
AcDbSpline
210
0.0
220
0.0
230
1.0
 70
    24
 71
     3
 72
    13
 73
     9
 74
     0
 42
0.00000001
 43
0.00000001
 40
0.0
 40
0.0
 40
0.0
 40
0.0
 40
0.1875083763831615
 40
0.3750167527663192
 40
0.562525129149476
 40
0.750033505532634
 40
0.9375418819157909
 40
1.0
 40
1.0
 40
1.0
 40
1.0
 10
6722.954751585645
 20
5242.274454576975
 30
0.0
 10
6722.954751585645
 20
5241.898870015495
 30
0.0
 10
6722.954751585645
 20
5241.147700892537
 30
0.0
 10
6722.954751585645
 20
5240.232356326487
 30
0.0
 10
6722.954751585645
 20
5239.512779005276
 30
0.0
 10
6722.954751585645
 20
5239.051785483194
 30
0.0
 10
6722.954751585645
 20
5238.838283676851
 30
0.0
 10
6722.954751585645
 20
5238.87066496114
 30
0.0
 10
6722.954751585645
 20
5238.878755941822
 30
0.0
  0
SPLINE
  5
354
330
1F
100
AcDbEntity
  8
0
  6
SLD-Plná
 62
     8
370
    25
100
AcDbSpline
210
0.0
220
0.0
230
1.0
 70
    24
 71
     3
 72
    18
 73
    14
 74
     0
 42
0.00000001
 43
0.00000001
 40
0.0
 40
0.0
 40
0.0
 40
0.0
 40
0.0625209395547133
 40
0.1562688455992426
 40
0.2500167516437719
 40
0.343764657688301
 40
0.4375125637328303
 40
0.5312604697773592
 40
0.6250083758218885
 40
0.718756281866417
 40
0.812504187910947
 40
0.9062520939554758
 40
1.0
 40
1.0
 40
1.0
 40
1.0
 10
6722.954751585645
 20
5252.520153243419
 30
0.0
 10
6722.954751585645
 20
5252.520417483463
 30
0.0
 10
6722.954751585645
 20
5252.521077941972
 30
0.0
 10
6722.954751585645
 20
5252.221339012332
 30
0.0
 10
6722.954751585645
 20
5251.671684610325
 30
0.0
 10
6722.954751585645
 20
5250.882294143432
 30
0.0
 10
6722.954751585645
 20
5249.896482387582
 30
0.0
 10
6722.954751585645
 20
5248.748598508222
 30
0.0
 10
6722.954751585645
 20
5247.483916206032
 30
0.0
 10
6722.954751585645
 20
5246.149926872381
 30
0.0
 10
6722.954751585645
 20
5244.801172363357
 30
0.0
 10
6722.954751585645
 20
5243.477484622196
 30
0.0
 10
6722.954751585645
 20
5242.675464592047
 30
0.0
 10
6722.954751585645
 20
5242.274454576975
 30
0.0
  0
SPLINE
  5
355
330
1F
100
AcDbEntity
  8
0
  6
SLD-Plná
 62
     8
370
    25
100
AcDbSpline
210
0.0
220
0.0
230
1.0
 70
     8
 71
     3
 72
    11
 73
     7
 74
     0
 42
0.00000001
 43
0.00000001
 40
0.0
 40
0.0
 40
0.0
 40
0.0
 40
0.3424554366179052
 40
0.6403744365356864
 40
0.8935859638784605
 40
1.0
 40
1.0
 40
1.0
 40
1.0
 10
6724.451127987693
 20
5242.791233009895
 30
0.0
 10
6724.451116487128
 20
5242.216520469235
 30
0.0
 10
6724.45109498165
 20
5241.141836933676
 30
0.0
 10
6724.451062678421
 20
5240.245598968604
 30
0.0
 10
6724.451037899319
 20
5239.879524112913
 30
0.0
 10
6724.451022362118
 20
5239.909519105999
 30
0.0
 10
6724.451017764624
 20
5239.918394693839
 30
0.0
  0
LINE
  5
356
330
1F
100
AcDbEntity
  8
0
  6
SLD-Plná
 62
     8
370
    25
100
AcDbLine
 10
6725.1991891544
 20
5250.2893892327
 30
0.0
 11
6725.1991891544
 21
5240.3994545926
 31
0.0
  0
LINE
  5
357
330
1F
100
AcDbEntity
  8
0
  6
SLD-Plná
 62
     8
370
    25
100
AcDbLine
 10
6725.1991891544
 20
5250.9994545926
 30
0.0
 11
6725.1991891544
 21
5250.2893892327
 31
0.0
  0
LINE
  5
358
330
1F
100
AcDbEntity
  8
0
  6
SLD-Plná
 62
     8
370
    25
100
AcDbLine
 10
6729.0991891544
 20
5250.2893892327
 30
0.0
 11
6729.0991891544
 21
5250.9994545926
 31
0.0
  0
LINE
  5
359
330
1F
100
AcDbEntity
  8
0
  6
SLD-Plná
 62
     8
370
    25
100
AcDbLine
 10
6729.0991891544
 20
5240.3994545926
 30
0.0
 11
6729.0991891544
 21
5250.2893892327
 31
0.0
  0
SPLINE
  5
35A
330
1F
100
AcDbEntity
  8
0
  6
SLD-Plná
 62
     8
370
    25
100
AcDbSpline
210
0.0
220
0.0
230
1.0
 70
    24
 71
     3
 72
    13
 73
     9
 74
     0
 42
0.00000001
 43
0.00000001
 40
0.0
 40
0.0
 40
0.0
 40
0.0
 40
0.1875083763831615
 40
0.3750167527663192
 40
0.562525129149476
 40
0.7500335055326338
 40
0.9375418819157908
 40
1.0
 40
1.0
 40
1.0
 40
1.0
 10
6722.954751585645
 20
5261.274454576975
 30
0.0
 10
6722.954751585645
 20
5260.898870015495
 30
0.0
 10
6722.954751585645
 20
5260.147700892537
 30
0.0
 10
6722.954751585645
 20
5259.232356326487
 30
0.0
 10
6722.954751585645
 20
5258.512779005276
 30
0.0
 10
6722.954751585645
 20
5258.051785483194
 30
0.0
 10
6722.954751585645
 20
5257.838283676851
 30
0.0
 10
6722.954751585645
 20
5257.87066496114
 30
0.0
 10
6722.954751585645
 20
5257.878755941822
 30
0.0
  0
SPLINE
  5
35B
330
1F
100
AcDbEntity
  8
0
  6
SLD-Plná
 62
     8
370
    25
100
AcDbSpline
210
0.0
220
0.0
230
1.0
 70
    24
 71
     3
 72
    18
 73
    14
 74
     0
 42
0.00000001
 43
0.00000001
 40
0.0
 40
0.0
 40
0.0
 40
0.0
 40
0.0625209395547134
 40
0.1562688455992426
 40
0.250016751643772
 40
0.3437646576883011
 40
0.4375125637328304
 40
0.5312604697773593
 40
0.6250083758218886
 40
0.7187562818664172
 40
0.8125041879109469
 40
0.9062520939554757
 40
1.0
 40
1.0
 40
1.0
 40
1.0
 10
6722.954751585645
 20
5271.520153243419
 30
0.0
 10
6722.954751585645
 20
5271.520417483463
 30
0.0
 10
6722.954751585645
 20
5271.521077941972
 30
0.0
 10
6722.954751585645
 20
5271.221339012332
 30
0.0
 10
6722.954751585645
 20
5270.671684610325
 30
0.0
 10
6722.954751585645
 20
5269.882294143432
 30
0.0
 10
6722.954751585645
 20
5268.896482387582
 30
0.0
 10
6722.954751585645
 20
5267.748598508222
 30
0.0
 10
6722.954751585645
 20
5266.483916206031
 30
0.0
 10
6722.954751585645
 20
5265.149926872381
 30
0.0
 10
6722.954751585645
 20
5263.801172363357
 30
0.0
 10
6722.954751585645
 20
5262.477484622196
 30
0.0
 10
6722.954751585645
 20
5261.675464592048
 30
0.0
 10
6722.954751585645
 20
5261.274454576975
 30
0.0
  0
SPLINE
  5
35C
330
1F
100
AcDbEntity
  8
0
  6
SLD-Plná
 62
     8
370
    25
100
AcDbSpline
210
0.0
220
0.0
230
1.0
 70
     8
 71
     3
 72
    11
 73
     7
 74
     0
 42
0.00000001
 43
0.00000001
 40
0.0
 40
0.0
 40
0.0
 40
0.0
 40
0.3424554366179054
 40
0.6403744365356866
 40
0.8935859638784592
 40
0.9999999999999999
 40
0.9999999999999999
 40
0.9999999999999999
 40
0.9999999999999999
 10
6724.451127987693
 20
5261.791233009895
 30
0.0
 10
6724.451116487128
 20
5261.216520469234
 30
0.0
 10
6724.45109498165
 20
5260.141836933676
 30
0.0
 10
6724.451062678421
 20
5259.245598968603
 30
0.0
 10
6724.451037899318
 20
5258.879524112913
 30
0.0
 10
6724.451022362118
 20
5258.909519105999
 30
0.0
 10
6724.451017764624
 20
5258.918394693839
 30
0.0
  0
LINE
  5
35D
330
1F
100
AcDbEntity
  8
0
  6
SLD-Plná
 62
     8
370
    25
100
AcDbLine
 10
6725.1991891544
 20
5269.2893892327
 30
0.0
 11
6725.1991891544
 21
5259.3994545926
 31
0.0
  0
LINE
  5
35E
330
1F
100
AcDbEntity
  8
0
  6
SLD-Plná
 62
     8
370
    25
100
AcDbLine
 10
6725.1991891544
 20
5269.9994545926
 30
0.0
 11
6725.1991891544
 21
5269.2893892327
 31
0.0
  0
LINE
  5
35F
330
1F
100
AcDbEntity
  8
0
  6
SLD-Plná
 62
     8
370
    25
100
AcDbLine
 10
6729.0991891544
 20
5269.2893892327
 30
0.0
 11
6729.0991891544
 21
5269.9994545926
 31
0.0
  0
LINE
  5
360
330
1F
100
AcDbEntity
  8
0
  6
SLD-Plná
 62
     8
370
    25
100
AcDbLine
 10
6729.0991891544
 20
5259.3994545926
 30
0.0
 11
6729.0991891544
 21
5269.2893892327
 31
0.0
  0
SPLINE
  5
361
330
1F
100
AcDbEntity
  8
0
  6
SLD-Plná
 62
     8
370
    25
100
AcDbSpline
210
0.0
220
0.0
230
1.0
 70
    24
 71
     3
 72
    13
 73
     9
 74
     0
 42
0.00000001
 43
0.00000001
 40
0.0
 40
0.0
 40
0.0
 40
0.0
 40
0.1875083763831608
 40
0.3750167527663194
 40
0.5625251291494758
 40
0.7500335055326338
 40
0.9375418819157909
 40
1.0
 40
1.0
 40
1.0
 40
1.0
 10
6722.954751585645
 20
5280.274454576975
 30
0.0
 10
6722.954751585645
 20
5279.898870015495
 30
0.0
 10
6722.954751585645
 20
5279.147700892537
 30
0.0
 10
6722.954751585645
 20
5278.232356326487
 30
0.0
 10
6722.954751585645
 20
5277.512779005276
 30
0.0
 10
6722.954751585645
 20
5277.051785483194
 30
0.0
 10
6722.954751585645
 20
5276.838283676851
 30
0.0
 10
6722.954751585645
 20
5276.87066496114
 30
0.0
 10
6722.954751585645
 20
5276.878755941822
 30
0.0
  0
SPLINE
  5
362
330
1F
100
AcDbEntity
  8
0
  6
SLD-Plná
 62
     8
370
    25
100
AcDbSpline
210
0.0
220
0.0
230
1.0
 70
    24
 71
     3
 72
    18
 73
    14
 74
     0
 42
0.00000001
 43
0.00000001
 40
0.0
 40
0.0
 40
0.0
 40
0.0
 40
0.0625209395547133
 40
0.1562688455992427
 40
0.2500167516437718
 40
0.3437646576883012
 40
0.4375125637328302
 40
0.5312604697773594
 40
0.6250083758218878
 40
0.7187562818664167
 40
0.8125041879109469
 40
0.9062520939554751
 40
1.0
 40
1.0
 40
1.0
 40
1.0
 10
6722.954751585645
 20
5290.520153243419
 30
0.0
 10
6722.954751585645
 20
5290.520417483463
 30
0.0
 10
6722.954751585645
 20
5290.521077941971
 30
0.0
 10
6722.954751585645
 20
5290.221339012332
 30
0.0
 10
6722.954751585645
 20
5289.671684610325
 30
0.0
 10
6722.954751585645
 20
5288.882294143433
 30
0.0
 10
6722.954751585645
 20
5287.896482387581
 30
0.0
 10
6722.954751585645
 20
5286.748598508222
 30
0.0
 10
6722.954751585645
 20
5285.483916206032
 30
0.0
 10
6722.954751585645
 20
5284.149926872381
 30
0.0
 10
6722.954751585645
 20
5282.801172363356
 30
0.0
 10
6722.954751585645
 20
5281.477484622195
 30
0.0
 10
6722.954751585645
 20
5280.675464592048
 30
0.0
 10
6722.954751585645
 20
5280.274454576975
 30
0.0
  0
SPLINE
  5
363
330
1F
100
AcDbEntity
  8
0
  6
SLD-Plná
 62
     8
370
    25
100
AcDbSpline
210
0.0
220
0.0
230
1.0
 70
     8
 71
     3
 72
    11
 73
     7
 74
     0
 42
0.00000001
 43
0.00000001
 40
0.0
 40
0.0
 40
0.0
 40
0.0
 40
0.3424554366179042
 40
0.6403744365356864
 40
0.8935859638784591
 40
0.9999999999999999
 40
0.9999999999999999
 40
0.9999999999999999
 40
0.9999999999999999
 10
6724.451127987693
 20
5280.791233009895
 30
0.0
 10
6724.451116487128
 20
5280.216520469234
 30
0.0
 10
6724.45109498165
 20
5279.141836933676
 30
0.0
 10
6724.451062678421
 20
5278.245598968604
 30
0.0
 10
6724.451037899319
 20
5277.879524112913
 30
0.0
 10
6724.451022362118
 20
5277.909519106
 30
0.0
 10
6724.451017764624
 20
5277.918394693839
 30
0.0
  0
LINE
  5
364
330
1F
100
AcDbEntity
  8
0
  6
SLD-Plná
 62
     8
370
    25
100
AcDbLine
 10
6725.1991891544
 20
5288.2893892327
 30
0.0
 11
6725.1991891544
 21
5278.3994545926
 31
0.0
  0
LINE
  5
365
330
1F
100
AcDbEntity
  8
0
  6
SLD-Plná
 62
     8
370
    25
100
AcDbLine
 10
6725.1991891544
 20
5288.9994545926
 30
0.0
 11
6725.1991891544
 21
5288.2893892327
 31
0.0
  0
LINE
  5
366
330
1F
100
AcDbEntity
  8
0
  6
SLD-Plná
 62
     8
370
    25
100
AcDbLine
 10
6729.0991891544
 20
5288.2893892327
 30
0.0
 11
6729.0991891544
 21
5288.9994545926
 31
0.0
  0
LINE
  5
367
330
1F
100
AcDbEntity
  8
0
  6
SLD-Plná
 62
     8
370
    25
100
AcDbLine
 10
6729.0991891544
 20
5278.3994545926
 30
0.0
 11
6729.0991891544
 21
5288.2893892327
 31
0.0
  0
LINE
  5
368
330
1F
100
AcDbEntity
  8
0
  6
SLD-Plná
 62
     8
370
    25
100
AcDbLine
 10
6728.0300805413
 20
5209.1335977129
 30
0.0
 11
6716.3991891544
 21
5208.9305797486
 31
0.0
  0
LINE
  5
369
330
1F
100
AcDbEntity
  8
0
  6
SLD-Plná
 62
     8
370
    25
100
AcDbLine
 10
6716.3991891544
 20
5322.4788842155
 30
0.0
 11
6716.8991891544
 21
5322.4526803258
 31
0.0
  0
LINE
  5
36A
330
1F
100
AcDbEntity
  8
0
  6
SLD-Plná
 62
     8
370
    25
100
AcDbLine
 10
6725.2035524221
 20
5278.3994545926
 30
0.0
 11
6725.2035524221
 21
5275.8052897549
 31
0.0
  0
LINE
  5
36B
330
1F
100
AcDbEntity
  8
0
  6
SLD-Plná
 62
     8
370
    25
100
AcDbLine
 10
6722.725368761
 20
5273.305384948
 30
0.0
 11
6720.6991891544
 21
5273.2877027464
 31
0.0
  0
LINE
  5
36C
330
1F
100
AcDbEntity
  8
0
  6
SLD-Plná
 62
     8
370
    25
100
AcDbLine
 10
6701.0223739073
 20
5065.2994545926
 30
0.0
 11
6701.0333095977
 21
5065.2374352101
 31
0.0
  0
LINE
  5
36D
330
1F
100
AcDbEntity
  8
0
  6
SLD-Plná
 62
     8
370
    25
100
AcDbLine
 10
6685.4991891535
 20
5065.3762312878
 30
0.0
 11
6685.4991891535
 21
5065.1994545927
 31
0.0
  0
ARC
  5
36E
330
1F
100
AcDbEntity
  8
0
  6
SLD-Plná
 62
     8
370
    25
100
AcDbCircle
 10
6695.7991891545
 20
5364.2494545927
 30
0.0
 40
3.31388922415187
100
AcDbArc
 50
359.9999999999
 51
189.5534797602
  0
LINE
  5
36F
330
1F
100
AcDbEntity
  8
0
  6
SLD-Plná
 62
     8
370
    25
100
AcDbLine
 10
6693.1954683957
 20
5362.1994545926
 30
0.0
 11
6693.3449423578
 21
5362.0226778974
 31
0.0
  0
LINE
  5
370
330
1F
100
AcDbEntity
  8
0
  6
SLD-Plná
 62
     8
370
    25
100
AcDbLine
 10
6698.2534359512
 20
5362.0226778974
 30
0.0
 11
6698.4029099133
 21
5362.1994545926
 31
0.0
  0
LINE
  5
371
330
1F
100
AcDbEntity
  8
0
  6
SLD-Plná
 62
     8
370
    25
100
AcDbLine
 10
6699.0671184362
 20
5363.6994545926
 30
0.0
 11
6699.1130783787
 21
5364.2494545926
 31
0.0
  0
ARC
  5
372
330
1F
100
AcDbEntity
  8
0
  6
SLD-Plná
 62
     7
370
    25
100
AcDbCircle
 10
6292.5187553361
 20
4833.7704627756
 30
0.0
 40
2.0
100
AcDbArc
 50
0.0
 51
90.0
  0
ARC
  5
373
330
1F
100
AcDbEntity
  8
0
  6
SLD-Plná
 62
     7
370
    25
100
AcDbCircle
 10
6255.5187553361
 20
4833.7704627756
 30
0.0
 40
2.0
100
AcDbArc
 50
90.0
 51
180.0
  0
LINE
  5
374
330
1F
100
AcDbEntity
  8
0
  6
SLD-Plná
 62
     7
370
    25
100
AcDbLine
 10
6224.4187553361
 20
4701.970462775
 30
0.0
 11
6224.4187553361
 21
4700.970462775
 31
0.0
  0
LINE
  5
375
330
1F
100
AcDbEntity
  8
0
  6
SLD-Plná
 62
     7
370
    25
100
AcDbLine
 10
6242.6187553361
 20
4700.970462775
 30
0.0
 11
6242.6187553361
 21
4701.970462775
 31
0.0
  0
LINE
  5
376
330
1F
100
AcDbEntity
  8
0
  6
SLD-Plná
 62
     7
370
    25
100
AcDbLine
 10
6223.7038007371
 20
4699.089791097
 30
0.0
 11
6225.1192729332
 21
4698.7105164628
 31
0.0
  0
LINE
  5
377
330
1F
100
AcDbEntity
  8
0
  6
SLD-Plná
 62
     7
370
    25
100
AcDbLine
 10
6241.918237739
 20
4698.7105164628
 30
0.0
 11
6243.3337099351
 21
4699.089791097
 31
0.0
  0
LINE
  5
378
330
1F
100
AcDbEntity
  8
0
  6
SLD-Plná
 62
     7
370
    25
100
AcDbLine
 10
6243.3337099123
 20
4700.551134459
 30
0.0
 11
6241.7687553364
 21
4700.9704627763
 31
0.0
  0
LINE
  5
379
330
1F
100
AcDbEntity
  8
0
  6
SLD-Plná
 62
     7
370
    25
100
AcDbLine
 10
6225.2687553357
 20
4700.9704627763
 30
0.0
 11
6223.7038007599
 21
4700.551134459
 31
0.0
  0
ARC
  5
37A
330
1F
100
AcDbEntity
  8
0
  6
SLD-Plná
 62
     7
370
    25
100
AcDbCircle
 10
6240.3687553361
 20
4698.670462775
 30
0.0
 40
1.550000000001091
100
AcDbArc
 50
270.0
 51
1.4807501636
  0
ARC
  5
37B
330
1F
100
AcDbEntity
  8
0
  6
SLD-Plná
 62
     7
370
    25
100
AcDbCircle
 10
6226.6687553361
 20
4698.670462775
 30
0.0
 40
1.550000000001091
100
AcDbArc
 50
178.5192498364
 51
270.0
  0
LINE
  5
37C
330
1F
100
AcDbEntity
  8
0
  6
SLD-Plná
 62
     7
370
    25
100
AcDbLine
 10
6240.3687553361
 20
4695.4149003437
 30
0.0
 11
6240.3687553361
 21
4697.120462775
 31
0.0
  0
LINE
  5
37D
330
1F
100
AcDbEntity
  8
0
  6
SLD-Plná
 62
     7
370
    25
100
AcDbLine
 10
6226.6687553361
 20
4697.120462775
 30
0.0
 11
6226.6687553361
 21
4695.4149003437
 31
0.0
  0
SPLINE
  5
37E
330
1F
100
AcDbEntity
  8
0
  6
SLD-Plná
 62
     7
370
    25
100
AcDbSpline
210
0.0
220
0.0
230
1.0
 70
     8
 71
     3
 72
    11
 73
     7
 74
     0
 42
0.00000001
 43
0.00000001
 40
0.0
 40
0.0
 40
0.0
 40
0.0
 40
0.2961320367399957
 40
0.5612728004069065
 40
0.7959003045451098
 40
1.0
 40
1.0
 40
1.0
 40
1.0
 10
6226.669151034982
 20
4695.414900343713
 30
0.0
 10
6226.689269764339
 20
4695.223377339493
 30
0.0
 10
6226.727401726321
 20
4694.86037489604
 30
0.0
 10
6226.995726394621
 20
4694.410107378467
 30
0.0
 10
6227.327534777338
 20
4694.092957638059
 30
0.0
 10
6227.583663700982
 20
4693.97396502572
 30
0.0
 10
6227.702817095987
 20
4693.918608631216
 30
0.0
  0
SPLINE
  5
37F
330
1F
100
AcDbEntity
  8
0
  6
SLD-Plná
 62
     7
370
    25
100
AcDbSpline
210
0.0
220
0.0
230
1.0
 70
     8
 71
     3
 72
    11
 73
     7
 74
     0
 42
0.00000001
 43
0.00000001
 40
0.0
 40
0.0
 40
0.0
 40
0.0
 40
0.2047166630128645
 40
0.4394627318968519
 40
0.7043524334422182
 40
1.0
 40
1.0
 40
1.0
 40
1.0
 10
6239.340913860715
 20
4693.918608631215
 30
0.0
 10
6239.46023490214
 20
4693.973914578268
 30
0.0
 10
6239.716379907954
 20
4694.092639171684
 30
0.0
 10
6240.048841071431
 20
4694.409825903401
 30
0.0
 10
6240.317566480119
 20
4694.860195700655
 30
0.0
 10
6240.355760122536
 20
4695.223356332141
 30
0.0
 10
6240.375904826698
 20
4695.414900343713
 30
0.0
  0
ARC
  5
380
330
1F
100
AcDbEntity
  8
0
  6
SLD-Plná
 62
     7
370
    25
100
AcDbCircle
 10
6239.6187553361
 20
4693.170462775
 30
0.0
 40
0.8000000000001819
100
AcDbArc
 50
116.7713665947
 51
179.9999999999
  0
ARC
  5
381
330
1F
100
AcDbEntity
  8
0
  6
SLD-Plná
 62
     7
370
    25
100
AcDbCircle
 10
6227.4187553361
 20
4693.170462775
 30
0.0
 40
0.8000000000006247
100
AcDbArc
 50
0.0000000001
 51
65.8553183627
  0
ARC
  5
382
330
1F
100
AcDbEntity
  8
0
  6
SLD-Plná
 62
     7
370
    25
100
AcDbCircle
 10
6237.2187553361
 20
4689.270462775
 30
0.0
 40
1.599999999999454
100
AcDbArc
 50
270.0
 51
0.0
  0
ARC
  5
383
330
1F
100
AcDbEntity
  8
0
  6
SLD-Plná
 62
     7
370
    25
100
AcDbCircle
 10
6229.8187553361
 20
4689.270462775
 30
0.0
 40
1.599999999999454
100
AcDbArc
 50
180.0
 51
270.0
  0
LINE
  5
384
330
1F
100
AcDbEntity
  8
0
  6
SLD-Plná
 62
     7
370
    25
100
AcDbLine
 10
6238.8187553361
 20
4689.270462775
 30
0.0
 11
6238.8187553361
 21
4693.170462775
 31
0.0
  0
LINE
  5
385
330
1F
100
AcDbEntity
  8
0
  6
SLD-Plná
 62
     7
370
    25
100
AcDbLine
 10
6228.2187553361
 20
4693.170462775
 30
0.0
 11
6228.2187553361
 21
4689.270462775
 31
0.0
  0
LINE
  5
386
330
1F
100
AcDbEntity
  8
0
  6
SLD-Plná
 62
     7
370
    25
100
AcDbLine
 10
6262.0187553361
 20
4701.970462775
 30
0.0
 11
6262.0187553361
 21
4700.870462775
 31
0.0
  0
LINE
  5
387
330
1F
100
AcDbEntity
  8
0
  6
SLD-Plná
 62
     7
370
    25
100
AcDbLine
 10
6286.0187553361
 20
4700.870462775
 30
0.0
 11
6286.0187553361
 21
4701.970462775
 31
0.0
  0
LINE
  5
388
330
1F
100
AcDbEntity
  8
0
  6
SLD-Plná
 62
     7
370
    25
100
AcDbLine
 10
6262.0187553361
 20
4700.870462775
 30
0.0
 11
6263.0187553361
 21
4699.870462775
 31
0.0
  0
LINE
  5
389
330
1F
100
AcDbEntity
  8
0
  6
SLD-Plná
 62
     7
370
    25
100
AcDbLine
 10
6285.0187553361
 20
4699.870462775
 30
0.0
 11
6286.0187553361
 21
4700.870462775
 31
0.0
  0
ARC
  5
38A
330
1F
100
AcDbEntity
  8
0
  6
SLD-Plná
 62
     7
370
    25
100
AcDbCircle
 10
6279.4187553361
 20
4699.870462775
 30
0.0
 40
0.1999999999998181
100
AcDbArc
 50
270.0
 51
0.0
  0
ARC
  5
38B
330
1F
100
AcDbEntity
  8
0
  6
SLD-Plná
 62
     7
370
    25
100
AcDbCircle
 10
6268.6187553361
 20
4699.870462775
 30
0.0
 40
0.1999999999998181
100
AcDbArc
 50
180.0
 51
270.0
  0
LINE
  5
38C
330
1F
100
AcDbEntity
  8
0
  6
SLD-Plná
 62
     7
370
    25
100
AcDbLine
 10
6274.1127409747
 20
4699.670462775
 30
0.0
 11
6274.1127409747
 21
4699.870462775
 31
0.0
  0
LINE
  5
38D
330
1F
100
AcDbEntity
  8
0
  6
SLD-Plná
 62
     7
370
    25
100
AcDbLine
 10
6223.9854220028
 20
4726.170462775
 30
0.0
 11
6215.6520886694
 21
4726.170462775
 31
0.0
  0
LINE
  5
38E
330
1F
100
AcDbEntity
  8
0
  6
SLD-Plná
 62
     7
370
    25
100
AcDbLine
 10
6215.6520886694
 20
4718.970462775
 30
0.0
 11
6223.9854220028
 21
4718.970462775
 31
0.0
  0
LINE
  5
38F
330
1F
100
AcDbEntity
  8
0
  6
SLD-Plná
 62
     7
370
    25
100
AcDbLine
 10
6240.6520886694
 20
4726.170462775
 30
0.0
 11
6232.3187553361
 21
4726.170462775
 31
0.0
  0
LINE
  5
390
330
1F
100
AcDbEntity
  8
0
  6
SLD-Plná
 62
     7
370
    25
100
AcDbLine
 10
6232.3187553361
 20
4718.970462775
 30
0.0
 11
6240.6520886694
 21
4718.970462775
 31
0.0
  0
LINE
  5
391
330
1F
100
AcDbEntity
  8
0
  6
SLD-Plná
 62
     7
370
    25
100
AcDbLine
 10
6257.3187553361
 20
4726.170462775
 30
0.0
 11
6248.9854220028
 21
4726.170462775
 31
0.0
  0
LINE
  5
392
330
1F
100
AcDbEntity
  8
0
  6
SLD-Plná
 62
     7
370
    25
100
AcDbLine
 10
6248.9854220028
 20
4718.970462775
 30
0.0
 11
6257.3187553361
 21
4718.970462775
 31
0.0
  0
ARC
  5
393
330
1F
100
AcDbEntity
  8
0
  6
SLD-Plná
 62
     7
370
    25
100
AcDbCircle
 10
6257.535400015
 20
4725.753818096
 30
0.0
 40
0.2166446789415204
100
AcDbArc
 50
37.0509748057
 51
180.0
  0
ARC
  5
394
330
1F
100
AcDbEntity
  8
0
  6
SLD-Plná
 62
     7
370
    25
100
AcDbCircle
 10
6257.535400015
 20
4719.3871074539
 30
0.0
 40
0.2166446789415204
100
AcDbArc
 50
180.0
 51
322.9490251943
  0
ARC
  5
395
330
1F
100
AcDbEntity
  8
0
  6
SLD-Plná
 62
     7
370
    25
100
AcDbCircle
 10
6253.3187553361
 20
4722.570462775
 30
0.0
 40
5.500000000000923
100
AcDbArc
 50
322.9490251942
 51
37.0509748058
  0
LINE
  5
396
330
1F
100
AcDbEntity
  8
0
  6
SLD-Plná
 62
     7
370
    25
100
AcDbLine
 10
6324.0520886695
 20
4718.9704627749
 30
0.0
 11
6332.3854220029
 21
4718.9704627749
 31
0.0
  0
LINE
  5
397
330
1F
100
AcDbEntity
  8
0
  6
SLD-Plná
 62
     7
370
    25
100
AcDbLine
 10
6332.3854220029
 20
4726.1704627749
 30
0.0
 11
6324.0520886695
 21
4726.1704627749
 31
0.0
  0
LINE
  5
398
330
1F
100
AcDbEntity
  8
0
  6
SLD-Plná
 62
     7
370
    25
100
AcDbLine
 10
6307.3854220029
 20
4718.9704627749
 30
0.0
 11
6315.7187553362
 21
4718.9704627749
 31
0.0
  0
LINE
  5
399
330
1F
100
AcDbEntity
  8
0
  6
SLD-Plná
 62
     7
370
    25
100
AcDbLine
 10
6315.7187553362
 20
4726.1704627749
 30
0.0
 11
6307.3854220029
 21
4726.1704627749
 31
0.0
  0
LINE
  5
39A
330
1F
100
AcDbEntity
  8
0
  6
SLD-Plná
 62
     7
370
    25
100
AcDbLine
 10
6290.7187553362
 20
4718.9704627749
 30
0.0
 11
6299.0520886695
 21
4718.9704627749
 31
0.0
  0
LINE
  5
39B
330
1F
100
AcDbEntity
  8
0
  6
SLD-Plná
 62
     7
370
    25
100
AcDbLine
 10
6299.0520886695
 20
4726.1704627749
 30
0.0
 11
6290.7187553362
 21
4726.1704627749
 31
0.0
  0
ARC
  5
39C
330
1F
100
AcDbEntity
  8
0
  6
SLD-Plná
 62
     7
370
    25
100
AcDbCircle
 10
6290.5021106573
 20
4719.3871074538
 30
0.0
 40
0.216644678941915
100
AcDbArc
 50
217.0509748059
 51
0.0
  0
ARC
  5
39D
330
1F
100
AcDbEntity
  8
0
  6
SLD-Plná
 62
     7
370
    25
100
AcDbCircle
 10
6290.5021106573
 20
4725.7538180959
 30
0.0
 40
0.216644678941915
100
AcDbArc
 50
0.0
 51
142.9490251941
  0
ARC
  5
39E
330
1F
100
AcDbEntity
  8
0
  6
SLD-Plná
 62
     7
370
    25
100
AcDbCircle
 10
6294.7187553362
 20
4722.5704627749
 30
0.0
 40
5.499999999999841
100
AcDbArc
 50
142.9490251942
 51
217.0509748058
  0
LINE
  5
39F
330
1F
100
AcDbEntity
  8
0
  6
SLD-Plná
 62
     7
370
    25
100
AcDbLine
 10
6240.6520886694
 20
4718.9704627749
 30
0.0
 11
6248.9854220028
 21
4718.9704627749
 31
0.0
  0
LINE
  5
3A0
330
1F
100
AcDbEntity
  8
0
  6
SLD-Plná
 62
     7
370
    25
100
AcDbLine
 10
6248.9854220027
 20
4726.1704627749
 30
0.0
 11
6240.6520886694
 21
4726.1704627749
 31
0.0
  0
LINE
  5
3A1
330
1F
100
AcDbEntity
  8
0
  6
SLD-Plná
 62
     7
370
    25
100
AcDbLine
 10
6223.9854220028
 20
4718.9704627749
 30
0.0
 11
6232.3187553361
 21
4718.9704627749
 31
0.0
  0
LINE
  5
3A2
330
1F
100
AcDbEntity
  8
0
  6
SLD-Plná
 62
     7
370
    25
100
AcDbLine
 10
6232.3187553361
 20
4726.1704627749
 30
0.0
 11
6223.9854220027
 21
4726.1704627749
 31
0.0
  0
LINE
  5
3A3
330
1F
100
AcDbEntity
  8
0
  6
SLD-Plná
 62
     7
370
    25
100
AcDbLine
 10
6207.3187553361
 20
4718.9704627749
 30
0.0
 11
6215.6520886694
 21
4718.9704627749
 31
0.0
  0
LINE
  5
3A4
330
1F
100
AcDbEntity
  8
0
  6
SLD-Plná
 62
     7
370
    25
100
AcDbLine
 10
6215.6520886694
 20
4726.1704627749
 30
0.0
 11
6207.3187553361
 21
4726.1704627749
 31
0.0
  0
ARC
  5
3A5
330
1F
100
AcDbEntity
  8
0
  6
SLD-Plná
 62
     7
370
    25
100
AcDbCircle
 10
6207.1021106571
 20
4719.3871074538
 30
0.0
 40
0.2166446789424299
100
AcDbArc
 50
217.0509748059
 51
0.0000000002
  0
ARC
  5
3A6
330
1F
100
AcDbEntity
  8
0
  6
SLD-Plná
 62
     7
370
    25
100
AcDbCircle
 10
6207.1021106571
 20
4725.7538180959
 30
0.0
 40
0.216644678941915
100
AcDbArc
 50
0.0
 51
142.9490251941
  0
ARC
  5
3A7
330
1F
100
AcDbEntity
  8
0
  6
SLD-Plná
 62
     7
370
    25
100
AcDbCircle
 10
6211.3187553361
 20
4722.5704627749
 30
0.0
 40
5.500000000000567
100
AcDbArc
 50
142.9490251942
 51
217.0509748058
  0
LINE
  5
3A8
330
1F
100
AcDbEntity
  8
0
  6
SLD-Plná
 62
     7
370
    25
100
AcDbLine
 10
6307.3854220029
 20
4726.170462775
 30
0.0
 11
6299.0520886695
 21
4726.170462775
 31
0.0
  0
LINE
  5
3A9
330
1F
100
AcDbEntity
  8
0
  6
SLD-Plná
 62
     7
370
    25
100
AcDbLine
 10
6299.0520886695
 20
4718.970462775
 30
0.0
 11
6307.3854220029
 21
4718.970462775
 31
0.0
  0
LINE
  5
3AA
330
1F
100
AcDbEntity
  8
0
  6
SLD-Plná
 62
     7
370
    25
100
AcDbLine
 10
6324.0520886695
 20
4726.170462775
 30
0.0
 11
6315.7187553362
 21
4726.170462775
 31
0.0
  0
LINE
  5
3AB
330
1F
100
AcDbEntity
  8
0
  6
SLD-Plná
 62
     7
370
    25
100
AcDbLine
 10
6315.7187553362
 20
4718.970462775
 30
0.0
 11
6324.0520886695
 21
4718.970462775
 31
0.0
  0
LINE
  5
3AC
330
1F
100
AcDbEntity
  8
0
  6
SLD-Plná
 62
     7
370
    25
100
AcDbLine
 10
6340.7187553362
 20
4726.170462775
 30
0.0
 11
6332.3854220029
 21
4726.170462775
 31
0.0
  0
LINE
  5
3AD
330
1F
100
AcDbEntity
  8
0
  6
SLD-Plná
 62
     7
370
    25
100
AcDbLine
 10
6332.3854220029
 20
4718.970462775
 30
0.0
 11
6340.7187553362
 21
4718.970462775
 31
0.0
  0
ARC
  5
3AE
330
1F
100
AcDbEntity
  8
0
  6
SLD-Plná
 62
     7
370
    25
100
AcDbCircle
 10
6340.9354000151
 20
4725.753818096
 30
0.0
 40
0.2166446789424299
100
AcDbArc
 50
37.0509748057
 51
180.0
  0
ARC
  5
3AF
330
1F
100
AcDbEntity
  8
0
  6
SLD-Plná
 62
     7
370
    25
100
AcDbCircle
 10
6340.9354000151
 20
4719.3871074539
 30
0.0
 40
0.2166446789415204
100
AcDbArc
 50
180.0
 51
322.9490251943
  0
ARC
  5
3B0
330
1F
100
AcDbEntity
  8
0
  6
SLD-Plná
 62
     7
370
    25
100
AcDbCircle
 10
6336.7187553362
 20
4722.570462775
 30
0.0
 40
5.500000000000196
100
AcDbArc
 50
322.9490251942
 51
37.0509748058
  0
LINE
  5
3B1
330
1F
100
AcDbEntity
  8
0
  6
SLD-Plná
 62
     7
370
    25
100
AcDbLine
 10
6292.5187553361
 20
4835.7704627756
 30
0.0
 11
6255.5187554188
 21
4835.7704627756
 31
0.0
  0
LINE
  5
3B2
330
1F
100
AcDbEntity
  8
0
  6
SLD-Plná
 62
     7
370
    25
100
AcDbLine
 10
6242.6187553361
 20
4700.970462775
 30
0.0
 11
6224.4187553361
 21
4700.970462775
 31
0.0
  0
LINE
  5
3B3
330
1F
100
AcDbEntity
  8
0
  6
SLD-Plná
 62
     7
370
    25
100
AcDbLine
 10
6228.6112780594
 20
4699.0897910939
 30
0.0
 11
6228.611278048
 21
4700.551134459
 31
0.0
  0
SPLINE
  5
3B4
330
1F
100
AcDbEntity
  8
0
  6
SLD-Plná
 62
     7
370
    25
100
AcDbSpline
210
0.0
220
0.0
230
1.0
 70
     8
 71
     3
 72
     9
 73
     5
 74
     0
 42
0.00000001
 43
0.00000001
 40
0.0
 40
0.0
 40
0.0
 40
0.0
 40
0.4952156671610903
 40
1.0
 40
1.0
 40
1.0
 40
1.0
 10
6238.426232624167
 20
4700.55113445899
 30
0.0
 10
6236.806179782678
 20
4700.72617436249
 30
0.0
 10
6233.534771083561
 20
4701.079636328876
 30
0.0
 10
6230.262878276
 20
4700.728421966556
 30
0.0
 10
6228.611278048015
 20
4700.55113445899
 30
0.0
  0
LINE
  5
3B5
330
1F
100
AcDbEntity
  8
0
  6
SLD-Plná
 62
     7
370
    25
100
AcDbLine
 10
6238.426232647
 20
4699.0897910939
 30
0.0
 11
6238.4262326242
 21
4700.551134459
 31
0.0
  0
SPLINE
  5
3B6
330
1F
100
AcDbEntity
  8
0
  6
SLD-Plná
 62
     7
370
    25
100
AcDbSpline
210
0.0
220
0.0
230
1.0
 70
     8
 71
     3
 72
     9
 73
     5
 74
     0
 42
0.00000001
 43
0.00000001
 40
0.0
 40
0.0
 40
0.0
 40
0.0
 40
0.4952156616863496
 40
1.0
 40
1.0
 40
1.0
 40
1.0
 10
6238.42623264701
 20
4699.089791093899
 30
0.0
 10
6236.806179821676
 20
4698.914751190186
 30
0.0
 10
6233.534771119017
 20
4698.561289219459
 30
0.0
 10
6230.262878307352
 20
4698.912503583527
 30
0.0
 10
6228.611278059382
 20
4699.089791093899
 30
0.0
  0
SPLINE
  5
3B7
330
1F
100
AcDbEntity
  8
0
  6
SLD-Plná
 62
     7
370
    25
100
AcDbSpline
210
0.0
220
0.0
230
1.0
 70
     8
 71
     3
 72
     9
 73
     5
 74
     0
 42
0.00000001
 43
0.00000001
 40
0.0
 40
0.0
 40
0.0
 40
0.0
 40
0.4952156616863536
 40
1.0
 40
1.0
 40
1.0
 40
1.0
 10
6228.611278059382
 20
4699.089791093899
 30
0.0
 10
6227.801251648101
 20
4698.914751190185
 30
0.0
 10
6226.165547299568
 20
4698.561289219459
 30
0.0
 10
6224.529600879589
 20
4698.912503583527
 30
0.0
 10
6223.703800748463
 20
4699.089791093899
 30
0.0
  0
SPLINE
  5
3B8
330
1F
100
AcDbEntity
  8
0
  6
SLD-Plná
 62
     7
370
    25
100
AcDbSpline
210
0.0
220
0.0
230
1.0
 70
     8
 71
     3
 72
     9
 73
     5
 74
     0
 42
0.00000001
 43
0.00000001
 40
0.0
 40
0.0
 40
0.0
 40
0.0
 40
0.4952156654701733
 40
1.0
 40
1.0
 40
1.0
 40
1.0
 10
6243.333709888133
 20
4699.089791084365
 30
0.0
 10
6242.523683473632
 20
4698.91475118369
 30
0.0
 10
6240.887979131097
 20
4698.5612892218
 30
0.0
 10
6239.25203275154
 20
4698.912503585196
 30
0.0
 10
6238.42623264701
 20
4699.089791093899
 30
0.0
  0
LINE
  5
3B9
330
1F
100
AcDbEntity
  8
0
  6
SLD-Plná
 62
     7
370
    25
100
AcDbLine
 10
6240.7929204715
 20
4698.7105164628
 30
0.0
 11
6225.1192729332
 21
4698.7105164628
 31
0.0
  0
LINE
  5
3BA
330
1F
100
AcDbEntity
  8
0
  6
SLD-Plná
 62
     7
370
    25
100
AcDbLine
 10
6241.918237739
 20
4698.7105164628
 30
0.0
 11
6240.7929204715
 21
4698.7105164628
 31
0.0
  0
SPLINE
  5
3BB
330
1F
100
AcDbEntity
  8
0
  6
SLD-Plná
 62
     7
370
    25
100
AcDbSpline
210
0.0
220
0.0
230
1.0
 70
     8
 71
     3
 72
     9
 73
     5
 74
     0
 42
0.00000001
 43
0.00000001
 40
0.0
 40
0.0
 40
0.0
 40
0.0
 40
0.4952156671592677
 40
1.0
 40
1.0
 40
1.0
 40
1.0
 10
6243.333709912278
 20
4700.55113445898
 30
0.0
 10
6242.523683491545
 20
4700.726174362485
 30
0.0
 10
6240.887979142001
 20
4701.079636328879
 30
0.0
 10
6239.252032738182
 20
4700.728421966558
 30
0.0
 10
6238.426232624167
 20
4700.55113445899
 30
0.0
  0
SPLINE
  5
3BC
330
1F
100
AcDbEntity
  8
0
  6
SLD-Plná
 62
     7
370
    25
100
AcDbSpline
210
0.0
220
0.0
230
1.0
 70
     8
 71
     3
 72
     9
 73
     5
 74
     0
 42
0.00000001
 43
0.00000001
 40
0.0
 40
0.0
 40
0.0
 40
0.0
 40
0.4952156671610948
 40
1.0
 40
1.0
 40
1.0
 40
1.0
 10
6228.611278048015
 20
4700.55113445899
 30
0.0
 10
6227.801251627244
 20
4700.72617436249
 30
0.0
 10
6226.165547277631
 20
4701.079636328877
 30
0.0
 10
6224.529600873905
 20
4700.728421966556
 30
0.0
 10
6223.70380075994
 20
4700.55113445899
 30
0.0
  0
LINE
  5
3BD
330
1F
100
AcDbEntity
  8
0
  6
SLD-Plná
 62
     7
370
    25
100
AcDbLine
 10
6239.451029352
 20
4697.120462775
 30
0.0
 11
6226.6687553361
 21
4697.120462775
 31
0.0
  0
LINE
  5
3BE
330
1F
100
AcDbEntity
  8
0
  6
SLD-Plná
 62
     7
370
    25
100
AcDbLine
 10
6240.3687553361
 20
4697.120462775
 30
0.0
 11
6239.451029352
 21
4697.120462775
 31
0.0
  0
SPLINE
  5
3BF
330
1F
100
AcDbEntity
  8
0
  6
SLD-Plná
 62
     7
370
    25
100
AcDbSpline
210
0.0
220
0.0
230
1.0
 70
     8
 71
     3
 72
    36
 73
    32
 74
     0
 42
0.00000001
 43
0.00000001
 40
0.0
 40
0.0
 40
0.0
 40
0.0
 40
0.0143576675762302
 40
0.0474183981096043
 40
0.0804664599000485
 40
0.1134976821510713
 40
0.1465079109284645
 40
0.1693933001876022
 40
0.2126100170620141
 40
0.2571064600678221
 40
0.2706908567970346
 40
0.2753116784421777
 40
0.2784842041673
 40
0.3444131149206646
 40
0.3663916064783852
 40
0.3883490746456791
 40
0.4102823601179373
 40
0.4307306701227411
 40
0.4596231931231727
 40
0.4969686283504898
 40
0.5426222720814973
 40
0.6055279903870225
 40
0.6278970240013372
 40
0.6509478044446395
 40
0.6746332425402867
 40
0.7284011165716602
 40
0.7748225905166756
 40
0.8342318872598504
 40
0.9066058872479279
 40
0.9919174461461252
 40
1.0
 40
1.0
 40
1.0
 40
1.0
 10
6239.27135387738
 20
4693.919602679122
 30
0.0
 10
6239.279917297616
 20
4693.919654313769
 30
0.0
 10
6239.308199305664
 20
4693.919824845104
 30
0.0
 10
6239.181814286638
 20
4693.919261437908
 30
0.0
 10
6239.03572026334
 20
4693.918545816459
 30
0.0
 10
6238.81893764074
 20
4693.917670497966
 30
0.0
 10
6238.580611624391
 20
4693.915910779592
 30
0.0
 10
6238.278013615923
 20
4693.916238639564
 30
0.0
 10
6237.890433196654
 20
4693.917663421401
 30
0.0
 10
6237.477530379267
 20
4693.918929317795
 30
0.0
 10
6237.201494845979
 20
4693.919634561604
 30
0.0
 10
6237.105240002403
 20
4693.919851882426
 30
0.0
 10
6236.770021495379
 20
4693.920430697461
 30
0.0
 10
6236.319487043924
 20
4693.920261021575
 30
0.0
 10
6235.740961422965
 20
4693.919017590326
 30
0.0
 10
6235.384320805227
 20
4693.918011879949
 30
0.0
 10
6235.027963941526
 20
4693.916352175873
 30
0.0
 10
6234.627435498306
 20
4693.915478008871
 30
0.0
 10
6234.133657569942
 20
4693.915843308608
 30
0.0
 10
6233.488819999528
 20
4693.916874707185
 30
0.0
 10
6232.647126502234
 20
4693.919212589925
 30
0.0
 10
6231.905759113325
 20
4693.920476965851
 30
0.0
 10
6231.319765112148
 20
4693.92048951268
 30
0.0
 10
6230.956091366806
 20
4693.920296465891
 30
0.0
 10
6230.44581153206
 20
4693.919485127544
 30
0.0
 10
6229.856127302583
 20
4693.919165628467
 30
0.0
 10
6229.185475151248
 20
4693.918917529138
 30
0.0
 10
6228.547605976547
 20
4693.9187479511
 30
0.0
 10
6228.013642691621
 20
4693.918624163531
 30
0.0
 10
6227.705308041363
 20
4693.918561909833
 30
0.0
 10
6227.735653179339
 20
4693.91855053682
 30
0.0
 10
6227.738279321445
 20
4693.918549552571
 30
0.0
  0
LINE
  5
3C0
330
1F
100
AcDbEntity
  8
0
  6
SLD-Plná
 62
     7
370
    25
100
AcDbLine
 10
6223.7038007485
 20
4699.0897910939
 30
0.0
 11
6223.7038007599
 21
4700.551134459
 31
0.0
  0
LINE
  5
3C1
330
1F
100
AcDbEntity
  8
0
  6
SLD-Plná
 62
     7
370
    25
100
AcDbLine
 10
6243.3337099123
 20
4700.551134459
 30
0.0
 11
6243.3337098881
 21
4699.0897910844
 31
0.0
  0
SPLINE
  5
3C2
330
1F
100
AcDbEntity
  8
0
  6
SLD-Plná
 62
     7
370
    25
100
AcDbSpline
210
0.0
220
0.0
230
1.0
 70
    24
 71
     3
 72
    16
 73
    12
 74
     0
 42
0.00000001
 43
0.00000001
 40
0.0
 40
0.0
 40
0.0
 40
0.0
 40
0.1277966990075391
 40
0.2844723143234109
 40
0.3688135438043046
 40
0.4549446151842136
 40
0.5410756865641222
 40
0.6254169160450153
 40
0.7820925313608743
 40
0.938768146676734
 40
1.0
 40
1.0
 40
1.0
 40
1.0
 10
6230.812627241707
 20
4687.670462774967
 30
0.0
 10
6231.08224995813
 20
4687.670462774967
 30
0.0
 10
6231.682423505104
 20
4687.670462774968
 30
0.0
 10
6232.764137686388
 20
4687.670462774966
 30
0.0
 10
6233.729556499943
 20
4687.670462774966
 30
0.0
 10
6234.483476018023
 20
4687.670462774966
 30
0.0
 10
6235.195148921417
 20
4687.670462774966
 30
0.0
 10
6236.014396926687
 20
4687.670462774966
 30
0.0
 10
6236.792540449937
 20
4687.670462774966
 30
0.0
 10
6237.193185675223
 20
4687.670462774966
 30
0.0
 10
6237.201432300221
 20
4687.670462774966
 30
0.0
 10
6237.203749596345
 20
4687.670462774966
 30
0.0
  0
LINE
  5
3C3
330
1F
100
AcDbEntity
  8
0
  6
SLD-Plná
 62
     7
370
    25
100
AcDbLine
 10
6262.0187553361
 20
4700.870462775
 30
0.0
 11
6286.0187553361
 21
4700.870462775
 31
0.0
  0
LINE
  5
3C4
330
1F
100
AcDbEntity
  8
0
  6
SLD-Plná
 62
     7
370
    25
100
AcDbLine
 10
6285.0187553361
 20
4699.870462775
 30
0.0
 11
6263.0187553361
 21
4699.870462775
 31
0.0
  0
LINE
  5
3C5
330
1F
100
AcDbEntity
  8
0
  6
SLD-Plná
 62
     7
370
    25
100
AcDbLine
 10
6273.5795780464
 20
4699.670462775
 30
0.0
 11
6268.6187553361
 21
4699.670462775
 31
0.0
  0
LINE
  5
3C6
330
1F
100
AcDbEntity
  8
0
  6
SLD-Plná
 62
     7
370
    25
100
AcDbLine
 10
6279.4187553361
 20
4699.670462775
 30
0.0
 11
6274.5795780464
 21
4699.670462775
 31
0.0
  0
SPLINE
  5
3C7
330
1F
100
AcDbEntity
  8
0
  6
SLD-Plná
 62
     7
370
    25
100
AcDbSpline
210
0.0
220
0.0
230
1.0
 70
    24
 71
     3
 72
    13
 73
     9
 74
     0
 42
0.00000001
 43
0.00000001
 40
0.0
 40
0.0
 40
0.0
 40
0.0
 40
0.0078315083444775
 40
0.2242134010656828
 40
0.440506527411377
 40
0.6560344530517136
 40
0.8704785517425164
 40
0.9999999999999999
 40
0.9999999999999999
 40
0.9999999999999999
 40
0.9999999999999999
 10
6274.57957804637
 20
4699.670462774967
 30
0.0
 10
6274.57957804637
 20
4699.670466026536
 30
0.0
 10
6274.57957804637
 20
4699.670559117844
 30
0.0
 10
6274.57957804637
 20
4699.679057963822
 30
0.0
 10
6274.57957804637
 20
4699.713274211824
 30
0.0
 10
6274.57957804637
 20
4699.765333736598
 30
0.0
 10
6274.57957804637
 20
4699.820905486724
 30
0.0
 10
6274.57957804637
 20
4699.856906474984
 30
0.0
 10
6274.57957804637
 20
4699.870462774967
 30
0.0
  0
SPLINE
  5
3C8
330
1F
100
AcDbEntity
  8
0
  6
SLD-Plná
 62
     7
370
    25
100
AcDbSpline
210
0.0
220
0.0
230
1.0
 70
    24
 71
     3
 72
    13
 73
     9
 74
     0
 42
0.00000001
 43
0.00000001
 40
0.0
 40
0.0
 40
0.0
 40
0.0
 40
0.0254342784919342
 40
0.2391405405228668
 40
0.4528843033372799
 40
0.6670512278740933
 40
0.8818628295038904
 40
1.0
 40
1.0
 40
1.0
 40
1.0
 10
6273.579578046369
 20
4699.870462774967
 30
0.0
 10
6273.579578046369
 20
4699.867806759807
 30
0.0
 10
6273.579578046369
 20
4699.842834126862
 30
0.0
 10
6273.579578046369
 20
4699.79554629315
 30
0.0
 10
6273.579578046369
 20
4699.737163225551
 30
0.0
 10
6273.579578046369
 20
4699.693933811839
 30
0.0
 10
6273.579578046369
 20
4699.673067894979
 30
0.0
 10
6273.579578046369
 20
4699.671145042974
 30
0.0
 10
6273.579578046369
 20
4699.670462774967
 30
0.0
  0
LINE
  5
3C9
330
1F
100
AcDbEntity
  8
0
  6
SLD-Plná
 62
     7
370
    25
100
AcDbLine
 10
6273.5795780464
 20
4699.670462775
 30
0.0
 11
6274.1127409747
 21
4699.670462775
 31
0.0
  0
LINE
  5
3CA
330
1F
100
AcDbEntity
  8
0
  6
SLD-Plná
 62
     7
370
    25
100
AcDbLine
 10
6274.1127409747
 20
4699.670462775
 30
0.0
 11
6274.5795780464
 21
4699.670462775
 31
0.0
  0
LINE
  5
3CB
330
1F
100
AcDbEntity
  8
0
  6
SLD-Plná
 62
     7
370
    25
100
AcDbLine
 10
6314.5707337506
 20
4701.470462775
 30
0.0
 11
6308.5913054094
 21
4701.470462775
 31
0.0
  0
LINE
  5
3CC
330
1F
100
AcDbEntity
  8
0
  6
SLD-Plná
 62
     7
370
    25
100
AcDbLine
 10
6315.5699725512
 20
4701.470462775
 30
0.0
 11
6315.5787000836
 21
4701.970462775
 31
0.0
  0
LINE
  5
3CD
330
1F
100
AcDbEntity
  8
0
  6
SLD-Plná
 62
     7
370
    25
100
AcDbLine
 10
6314.5707337506
 20
4701.470462775
 30
0.0
 11
6315.5699725512
 21
4701.470462775
 31
0.0
  0
LINE
  5
3CE
330
1F
100
AcDbEntity
  8
0
  6
SLD-Plná
 62
     7
370
    25
100
AcDbLine
 10
6307.5833390764
 20
4701.970462775
 30
0.0
 11
6307.5920666089
 21
4701.470462775
 31
0.0
  0
LINE
  5
3CF
330
1F
100
AcDbEntity
  8
0
  6
SLD-Plná
 62
     7
370
    25
100
AcDbLine
 10
6307.5920666089
 20
4701.470462775
 30
0.0
 11
6308.5913054094
 21
4701.470462775
 31
0.0
  0
LINE
  5
3D0
330
1F
100
AcDbEntity
  8
0
  6
SLD-Plná
 62
     7
370
    25
100
AcDbLine
 10
6303.7873428422
 20
4701.970462775
 30
0.0
 11
6303.8538244054
 21
4698.1617365717
 31
0.0
  0
LINE
  5
3D1
330
1F
100
AcDbEntity
  8
0
  6
SLD-Plná
 62
     7
370
    25
100
AcDbLine
 10
6325.0374564006
 20
4701.970462775
 30
0.0
 11
6324.9709748374
 21
4698.1617365717
 31
0.0
  0
LINE
  5
3D2
330
1F
100
AcDbEntity
  8
0
  6
SLD-Plná
 62
     7
370
    25
100
AcDbLine
 10
6324.9709748374
 20
4698.1617365717
 30
0.0
 11
6303.8538244054
 21
4698.1617365717
 31
0.0
  0
LINE
  5
3D3
330
1F
100
AcDbEntity
  8
0
  6
SLD-Plná
 62
     7
370
    25
100
AcDbLine
 10
6303.8623996214
 20
4697.670462775
 30
0.0
 11
6324.9623996214
 21
4697.670462775
 31
0.0
  0
LINE
  5
3D4
330
1F
100
AcDbEntity
  8
0
  6
SLD-Plná
 62
     7
370
    25
100
AcDbLine
 10
6303.8538244054
 20
4698.1617365717
 30
0.0
 11
6303.8623996214
 21
4697.670462775
 31
0.0
  0
LINE
  5
3D5
330
1F
100
AcDbEntity
  8
0
  6
SLD-Plná
 62
     7
370
    25
100
AcDbLine
 10
6324.9623996214
 20
4697.670462775
 30
0.0
 11
6324.9709748374
 21
4698.1617365717
 31
0.0
  0
LINE
  5
3D6
330
1F
100
AcDbEntity
  8
0
  6
SLD-Plná
 62
     7
370
    25
100
AcDbLine
 10
6308.4342320045
 20
4683.470462775
 30
0.0
 11
6315.9015786624
 21
4683.470462775
 31
0.0
  0
ARC
  5
3D7
330
1F
100
AcDbEntity
  8
0
  6
SLD-Plná
 62
     7
370
    25
100
AcDbCircle
 10
6308.4342320045
 20
4684.470462775
 30
0.0
 40
1.0
100
AcDbArc
 50
181.5
 51
270.0
  0
LINE
  5
3D8
330
1F
100
AcDbEntity
  8
0
  6
SLD-Plná
 62
     7
370
    25
100
AcDbLine
 10
6309.3439650648
 20
4685.7883444043
 30
0.0
 11
6314.9918456021
 21
4685.7883444043
 31
0.0
  0
ARC
  5
3D9
330
1F
100
AcDbEntity
  8
0
  6
SLD-Plná
 62
     7
370
    25
100
AcDbCircle
 10
6315.9015786624
 20
4684.470462775
 30
0.0
 40
1.000000000000858
100
AcDbArc
 50
270.0
 51
358.5
  0
LINE
  5
3DA
330
1F
100
AcDbEntity
  8
0
  6
SLD-Plná
 62
     7
370
    25
100
AcDbLine
 10
6309.3439650648
 20
4685.7883444043
 30
0.0
 11
6309.2238372418
 21
4692.670462775
 31
0.0
  0
LINE
  5
3DB
330
1F
100
AcDbEntity
  8
0
  6
SLD-Plná
 62
     7
370
    25
100
AcDbLine
 10
6315.1119734251
 20
4692.670462775
 30
0.0
 11
6314.9918456021
 21
4685.7883444043
 31
0.0
  0
LINE
  5
3DC
330
1F
100
AcDbEntity
  8
0
  6
SLD-Plná
 62
     7
370
    25
100
AcDbLine
 10
6307.2191646551
 20
4692.670462775
 30
0.0
 11
6307.4345746795
 21
4684.4442858267
 31
0.0
  0
LINE
  5
3DD
330
1F
100
AcDbEntity
  8
0
  6
SLD-Plná
 62
     7
370
    25
100
AcDbLine
 10
6317.1166460118
 20
4692.670462775
 30
0.0
 11
6316.9012359874
 21
4684.4442858267
 31
0.0
  0
LINE
  5
3DE
330
1F
100
AcDbEntity
  8
0
  6
SLD-Plná
 62
     7
370
    25
100
AcDbLine
 10
6305.6963085782
 20
4697.670462775
 30
0.0
 11
6305.7139907797
 21
4695.6442831685
 31
0.0
  0
SPLINE
  5
3DF
330
1F
100
AcDbEntity
  8
0
  6
SLD-Plná
 62
     7
370
    25
100
AcDbSpline
210
0.0
220
0.0
230
1.0
 70
     8
 71
     3
 72
    11
 73
     7
 74
     0
 42
0.00000001
 43
0.00000001
 40
0.0
 40
0.0
 40
0.0
 40
0.0
 40
0.2500000000000802
 40
0.5000000000000746
 40
0.7500000000000722
 40
1.0
 40
1.0
 40
1.0
 40
1.0
 10
6305.713990779735
 20
4695.644283168472
 30
0.0
 10
6305.721510524988
 20
4695.643777070322
 30
0.0
 10
6305.736550015496
 20
4695.642764874024
 30
0.0
 10
6305.852172107946
 20
4695.642331681087
 30
0.0
 10
6306.017433194285
 20
4695.642764874024
 30
0.0
 10
6306.148458892272
 20
4695.643777070322
 30
0.0
 10
6306.213971741265
 20
4695.644283168472
 30
0.0
  0
LINE
  5
3E0
330
1F
100
AcDbEntity
  8
0
  6
SLD-Plná
 62
     7
370
    25
100
AcDbLine
 10
6322.556469266
 20
4695.6442831685
 30
0.0
 11
6306.2139717413
 21
4695.6442831685
 31
0.0
  0
LINE
  5
3E1
330
1F
100
AcDbEntity
  8
0
  6
SLD-Plná
 62
     7
370
    25
100
AcDbLine
 10
6323.0564502276
 20
4695.6442831685
 30
0.0
 11
6323.0741324291
 21
4697.670462775
 31
0.0
  0
SPLINE
  5
3E2
330
1F
100
AcDbEntity
  8
0
  6
SLD-Plná
 62
     7
370
    25
100
AcDbSpline
210
0.0
220
0.0
230
1.0
 70
     8
 71
     3
 72
    11
 73
     7
 74
     0
 42
0.00000001
 43
0.00000001
 40
0.0
 40
0.0
 40
0.0
 40
0.0
 40
0.2499999999999327
 40
0.4999999999999158
 40
0.7499999999998843
 40
1.0
 40
1.0
 40
1.0
 40
1.0
 10
6322.556469266038
 20
4695.644283168472
 30
0.0
 10
6322.621982115032
 20
4695.643777070322
 30
0.0
 10
6322.753007813018
 20
4695.642764874024
 30
0.0
 10
6322.918268899359
 20
4695.642331681087
 30
0.0
 10
6323.033890991809
 20
4695.642764874024
 30
0.0
 10
6323.048930482317
 20
4695.643777070322
 30
0.0
 10
6323.056450227571
 20
4695.644283168472
 30
0.0
  0
LINE
  5
3E3
330
1F
100
AcDbEntity
  8
0
  6
SLD-Plná
 62
     7
370
    25
100
AcDbLine
 10
6306.2355985218
 20
4692.670462775
 30
0.0
 11
6322.5348424855
 21
4692.670462775
 31
0.0
  0
SPLINE
  5
3E4
330
1F
100
AcDbEntity
  8
0
  6
SLD-Plná
 62
     7
370
    25
100
AcDbSpline
210
0.0
220
0.0
230
1.0
 70
     8
 71
     3
 72
    13
 73
     9
 74
     0
 42
0.00000001
 43
0.00000001
 40
0.0
 40
0.0
 40
0.0
 40
0.0
 40
0.1993624729093034
 40
0.4320079366433489
 40
0.5614183591822913
 40
0.6992244946358029
 40
0.8454204602180125
 40
1.0
 40
1.0
 40
1.0
 40
1.0
 10
6306.23559852244
 20
4692.670462774967
 30
0.0
 10
6306.235297269384
 20
4692.698799654208
 30
0.0
 10
6306.234644469941
 20
4692.760204173087
 30
0.0
 10
6306.231062823989
 20
4693.203181019305
 30
0.0
 10
6306.227163686073
 20
4693.749351994637
 30
0.0
 10
6306.223420312276
 20
4694.290637265951
 30
0.0
 10
6306.219036985941
 20
4694.933990789997
 30
0.0
 10
6306.215691241688
 20
4695.403159960718
 30
0.0
 10
6306.21397174127
 20
4695.644283167883
 30
0.0
  0
SPLINE
  5
3E5
330
1F
100
AcDbEntity
  8
0
  6
SLD-Plná
 62
     7
370
    25
100
AcDbSpline
210
0.0
220
0.0
230
1.0
 70
     8
 71
     3
 72
    13
 73
     9
 74
     0
 42
0.00000001
 43
0.00000001
 40
0.0
 40
0.0
 40
0.0
 40
0.0
 40
0.1545795397755804
 40
0.3007755053532434
 40
0.4385816408040799
 40
0.5679920633422069
 40
0.8006375270796859
 40
1.0
 40
1.0
 40
1.0
 40
1.0
 10
6322.556469266038
 20
4695.644283168472
 30
0.0
 10
6322.554749765622
 20
4695.403159961252
 30
0.0
 10
6322.551404021367
 20
4694.933990790422
 30
0.0
 10
6322.547020695031
 20
4694.2906372662
 30
0.0
 10
6322.543277321233
 20
4693.749351994734
 30
0.0
 10
6322.539378183317
 20
4693.203181019252
 30
0.0
 10
6322.535796537366
 20
4692.760204172945
 30
0.0
 10
6322.535143737923
 20
4692.698799654162
 30
0.0
 10
6322.534842484867
 20
4692.670462774967
 30
0.0
  0
LINE
  5
3E6
330
1F
100
AcDbEntity
  8
0
  6
SLD-Plná
 62
     7
370
    25
100
AcDbLine
 10
6305.7139907797
 20
4695.6442831685
 30
0.0
 11
6305.7356175609
 21
4693.1660995072
 31
0.0
  0
SPLINE
  5
3E7
330
1F
100
AcDbEntity
  8
0
  6
SLD-Plná
 62
     7
370
    25
100
AcDbSpline
210
0.0
220
0.0
230
1.0
 70
     8
 71
     3
 72
    11
 73
     7
 74
     0
 42
0.00000001
 43
0.00000001
 40
0.0
 40
0.0
 40
0.0
 40
0.0
 40
0.2500000000000219
 40
0.5000000000000268
 40
0.7500000000000314
 40
0.9999999999999999
 40
0.9999999999999999
 40
0.9999999999999999
 40
0.9999999999999999
 10
6305.735617560907
 20
4693.166099507383
 30
0.0
 10
6305.743616634893
 20
4693.101012550302
 30
0.0
 10
6305.759614782864
 20
4692.97083863614
 30
0.0
 10
6305.875449125941
 20
4692.807156688984
 30
0.0
 10
6306.040135672911
 20
4692.692755132578
 30
0.0
 10
6306.170444238831
 20
4692.677893560836
 30
0.0
 10
6306.23559852179
 20
4692.670462774967
 30
0.0
  0
LINE
  5
3E8
330
1F
100
AcDbEntity
  8
0
  6
SLD-Plná
 62
     7
370
    25
100
AcDbLine
 10
6323.0348234464
 20
4693.1660995072
 30
0.0
 11
6323.0564502276
 21
4695.6442831685
 31
0.0
  0
SPLINE
  5
3E9
330
1F
100
AcDbEntity
  8
0
  6
SLD-Plná
 62
     7
370
    25
100
AcDbSpline
210
0.0
220
0.0
230
1.0
 70
     8
 71
     3
 72
    11
 73
     7
 74
     0
 42
0.00000001
 43
0.00000001
 40
0.0
 40
0.0
 40
0.0
 40
0.0
 40
0.2499999999999531
 40
0.4999999999999841
 40
0.7499999999999956
 40
1.0
 40
1.0
 40
1.0
 40
1.0
 10
6322.534842485517
 20
4692.670462774967
 30
0.0
 10
6322.599996768477
 20
4692.677893560836
 30
0.0
 10
6322.730305334397
 20
4692.692755132578
 30
0.0
 10
6322.894991881366
 20
4692.807156688984
 30
0.0
 10
6323.010826224443
 20
4692.97083863614
 30
0.0
 10
6323.026824372414
 20
4693.101012550302
 30
0.0
 10
6323.034823446401
 20
4693.166099507383
 30
0.0
  0
LINE
  5
3EA
330
1F
100
AcDbEntity
  8
0
  6
SLD-Plná
 62
     7
370
    25
100
AcDbLine
 10
6354.8419786409
 20
4729.0448183881
 30
0.0
 11
6355.0187553368
 21
4729.0448183881
 31
0.0
  0
LINE
  5
3EB
330
1F
100
AcDbEntity
  8
0
  6
SLD-Plná
 62
     7
370
    25
100
AcDbLine
 10
6193.1955320314
 20
4729.0448183872
 30
0.0
 11
6193.0187553367
 21
4729.0448183872
 31
0.0
  0
LINE
  5
3EC
330
1F
100
AcDbEntity
  8
0
  6
SLD-Plná
 62
     7
370
    25
100
AcDbLine
 10
6193.0187553366
 20
4819.0448183875
 30
0.0
 11
6193.1955320314
 21
4819.0448183875
 31
0.0
  0
LINE
  5
3ED
330
1F
100
AcDbEntity
  8
0
  6
SLD-Plná
 62
     7
370
    25
100
AcDbLine
 10
6355.0187553367
 20
4819.0448183874
 30
0.0
 11
6354.8419786409
 21
4819.0448183874
 31
0.0
  0
LINE
  5
3EE
330
1F
100
AcDbEntity
  8
0
  6
SLD-Plná
 62
     7
370
    25
100
AcDbLine
 10
6259.0187553361
 20
4725.9704627754
 30
0.0
 11
6257.3187553361
 21
4725.9704627754
 31
0.0
  0
LINE
  5
3EF
330
1F
100
AcDbEntity
  8
0
  6
SLD-Plná
 62
     7
370
    25
100
AcDbLine
 10
6207.3187553361
 20
4725.9704627754
 30
0.0
 11
6205.818755336
 21
4725.9704627754
 31
0.0
  0
LINE
  5
3F0
330
1F
100
AcDbEntity
  8
0
  6
SLD-Plná
 62
     7
370
    25
100
AcDbLine
 10
6205.818755336
 20
4725.9704627754
 30
0.0
 11
6205.818755336
 21
4719.1344330097
 31
0.0
  0
LINE
  5
3F1
330
1F
100
AcDbEntity
  8
0
  6
SLD-Plná
 62
     7
370
    25
100
AcDbLine
 10
6193.1955320313
 20
4719.1344330097
 30
0.0
 11
6205.818755336
 21
4719.1344330097
 31
0.0
  0
LINE
  5
3F2
330
1F
100
AcDbEntity
  8
0
  6
SLD-Plná
 62
     7
370
    25
100
AcDbLine
 10
6193.1955320313
 20
4719.1344330097
 30
0.0
 11
6193.1955320313
 21
4831.2704627754
 31
0.0
  0
LINE
  5
3F3
330
1F
100
AcDbEntity
  8
0
  6
SLD-Plná
 62
     7
370
    25
100
AcDbLine
 10
6193.1955320313
 20
4831.2704627754
 30
0.0
 11
6354.8419786408
 21
4831.2704627754
 31
0.0
  0
LINE
  5
3F4
330
1F
100
AcDbEntity
  8
0
  6
SLD-Plná
 62
     7
370
    25
100
AcDbLine
 10
6354.8419786408
 20
4831.2704627754
 30
0.0
 11
6354.8419786408
 21
4719.1344330097
 31
0.0
  0
LINE
  5
3F5
330
1F
100
AcDbEntity
  8
0
  6
SLD-Plná
 62
     7
370
    25
100
AcDbLine
 10
6342.2187553361
 20
4719.1344330097
 30
0.0
 11
6354.8419786408
 21
4719.1344330097
 31
0.0
  0
LINE
  5
3F6
330
1F
100
AcDbEntity
  8
0
  6
SLD-Plná
 62
     7
370
    25
100
AcDbLine
 10
6342.2187553361
 20
4719.1344330097
 30
0.0
 11
6342.2187553361
 21
4725.9704627754
 31
0.0
  0
LINE
  5
3F7
330
1F
100
AcDbEntity
  8
0
  6
SLD-Plná
 62
     7
370
    25
100
AcDbLine
 10
6342.2187553361
 20
4725.9704627754
 30
0.0
 11
6340.7187553362
 21
4725.9704627754
 31
0.0
  0
LINE
  5
3F8
330
1F
100
AcDbEntity
  8
0
  6
SLD-Plná
 62
     7
370
    25
100
AcDbLine
 10
6290.7187553362
 20
4725.9704627754
 30
0.0
 11
6289.0187553361
 21
4725.9704627754
 31
0.0
  0
LINE
  5
3F9
330
1F
100
AcDbEntity
  8
0
  6
SLD-Plná
 62
     7
370
    25
100
AcDbLine
 10
6289.0187553361
 20
4719.1344330097
 30
0.0
 11
6289.0187553361
 21
4725.9704627754
 31
0.0
  0
LINE
  5
3FA
330
1F
100
AcDbEntity
  8
0
  6
SLD-Plná
 62
     7
370
    25
100
AcDbLine
 10
6259.0187553361
 20
4719.1344330097
 30
0.0
 11
6289.0187553361
 21
4719.1344330097
 31
0.0
  0
LINE
  5
3FB
330
1F
100
AcDbEntity
  8
0
  6
SLD-Plná
 62
     7
370
    25
100
AcDbLine
 10
6259.0187553361
 20
4725.9704627754
 30
0.0
 11
6259.0187553361
 21
4719.1344330097
 31
0.0
  0
ELLIPSE
  5
3FC
330
1F
100
AcDbEntity
  8
0
  6
SLD-Plná
 62
     7
370
    25
100
AcDbEllipse
 10
6354.0187553361
 20
4831.2704627754
 30
0.0
 11
-9.094947017729282E-13
 21
2.500000000000909
 31
0.0
210
0.0
220
0.0
230
1.0
 40
0.3292893219
 41
4.712388980383847
 42
6.283185307179586
  0
ELLIPSE
  5
3FD
330
1F
100
AcDbEntity
  8
0
  6
SLD-Plná
 62
     7
370
    25
100
AcDbEllipse
 10
6194.0187553361
 20
4831.2704627754
 30
0.0
 11
9.094947017729282E-13
 21
2.5
 31
0.0
210
0.0
220
0.0
230
1.0
 40
0.3292893219
 41
0.0
 42
1.570796326796108
  0
LINE
  5
3FE
330
1F
100
AcDbEntity
  8
0
  6
SLD-Plná
 62
     7
370
    25
100
AcDbLine
 10
6194.0187553361
 20
4833.7704627754
 30
0.0
 11
6354.018755336
 21
4833.7704627754
 31
0.0
  0
LINE
  5
3FF
330
1F
100
AcDbEntity
  8
0
  6
SLD-Plná
 62
     7
370
    25
100
AcDbLine
 10
6342.2187553361
 20
4718.8477946156
 30
0.0
 11
6342.2187553361
 21
4719.1344330097
 31
0.0
  0
LINE
  5
400
330
1F
100
AcDbEntity
  8
0
  6
SLD-Plná
 62
     7
370
    25
100
AcDbLine
 10
6354.8419786408
 20
4719.1344330097
 30
0.0
 11
6354.8419786408
 21
4718.8477946156
 31
0.0
  0
LINE
  5
401
330
1F
100
AcDbEntity
  8
0
  6
SLD-Plná
 62
     7
370
    25
100
AcDbLine
 10
6205.818755336
 20
4719.1344330097
 30
0.0
 11
6205.818755336
 21
4718.8477946155
 31
0.0
  0
LINE
  5
402
330
1F
100
AcDbEntity
  8
0
  6
SLD-Plná
 62
     7
370
    25
100
AcDbLine
 10
6193.1955320313
 20
4718.8477946155
 30
0.0
 11
6193.1955320313
 21
4719.1344330097
 31
0.0
  0
LINE
  5
403
330
1F
100
AcDbEntity
  8
0
  6
SLD-Plná
 62
     7
370
    25
100
AcDbLine
 10
6289.0187553361
 20
4719.1344330097
 30
0.0
 11
6289.0187553361
 21
4718.8477946156
 31
0.0
  0
LINE
  5
404
330
1F
100
AcDbEntity
  8
0
  6
SLD-Plná
 62
     7
370
    25
100
AcDbLine
 10
6259.0187553361
 20
4718.8477946155
 30
0.0
 11
6259.0187553361
 21
4719.1344330097
 31
0.0
  0
ARC
  5
405
330
1F
100
AcDbEntity
  8
0
  6
SLD-Plná
 62
     7
370
    25
100
AcDbCircle
 10
6354.0187553361
 20
4831.2704627754
 30
0.0
 40
0.9999999999996912
100
AcDbArc
 50
0.0
 51
36.9594727949
  0
ARC
  5
406
330
1F
100
AcDbEntity
  8
0
  6
SLD-Plná
 62
     7
370
    25
100
AcDbCircle
 10
6354.0187553361
 20
4831.2704627754
 30
0.0
 40
2.500000000000909
100
AcDbArc
 50
0.0
 51
90.0000000005
  0
LINE
  5
407
330
1F
100
AcDbEntity
  8
0
  6
SLD-Plná
 62
     7
370
    25
100
AcDbLine
 10
6356.5187553361
 20
4831.2704627754
 30
0.0
 11
6355.0187553361
 21
4831.2704627754
 31
0.0
  0
LINE
  5
408
330
1F
100
AcDbEntity
  8
0
  6
SLD-Plná
 62
     7
370
    25
100
AcDbLine
 10
6355.0187553361
 20
4718.970462775
 30
0.0
 11
6355.0187553361
 21
4831.2704627754
 31
0.0
  0
LINE
  5
409
330
1F
100
AcDbEntity
  8
0
  6
SLD-Plná
 62
     7
370
    25
100
AcDbLine
 10
6356.5187553361
 20
4718.970462775
 30
0.0
 11
6356.5187553361
 21
4831.2704627754
 31
0.0
  0
ARC
  5
40A
330
1F
100
AcDbEntity
  8
0
  6
SLD-Plná
 62
     7
370
    25
100
AcDbCircle
 10
6194.018755336
 20
4831.2704627754
 30
0.0
 40
1.0
100
AcDbArc
 50
143.0405271917
 51
180.0000000001
  0
LINE
  5
40B
330
1F
100
AcDbEntity
  8
0
  6
SLD-Plná
 62
     7
370
    25
100
AcDbLine
 10
6191.518755336
 20
4831.2704627754
 30
0.0
 11
6193.018755336
 21
4831.2704627754
 31
0.0
  0
ARC
  5
40C
330
1F
100
AcDbEntity
  8
0
  6
SLD-Plná
 62
     7
370
    25
100
AcDbCircle
 10
6194.018755336
 20
4831.2704627754
 30
0.0
 40
2.5
100
AcDbArc
 50
89.9999999983
 51
180.0
  0
LINE
  5
40D
330
1F
100
AcDbEntity
  8
0
  6
SLD-Plná
 62
     7
370
    25
100
AcDbLine
 10
6193.018755336
 20
4831.2704627754
 30
0.0
 11
6193.018755336
 21
4718.970462775
 31
0.0
  0
LINE
  5
40E
330
1F
100
AcDbEntity
  8
0
  6
SLD-Plná
 62
     7
370
    25
100
AcDbLine
 10
6191.518755336
 20
4831.2704627754
 30
0.0
 11
6191.518755336
 21
4718.970462775
 31
0.0
  0
LINE
  5
40F
330
1F
100
AcDbEntity
  8
0
  6
SLD-Plná
 62
     7
370
    25
100
AcDbLine
 10
6223.9854220028
 20
4718.970462775
 30
0.0
 11
6223.9854220028
 21
4726.170462775
 31
0.0
  0
LINE
  5
410
330
1F
100
AcDbEntity
  8
0
  6
SLD-Plná
 62
     7
370
    25
100
AcDbLine
 10
6215.6520886694
 20
4726.170462775
 30
0.0
 11
6215.6520886694
 21
4718.970462775
 31
0.0
  0
LINE
  5
411
330
1F
100
AcDbEntity
  8
0
  6
SLD-Plná
 62
     7
370
    25
100
AcDbLine
 10
6232.3187553361
 20
4726.170462775
 30
0.0
 11
6232.3187553361
 21
4718.970462775
 31
0.0
  0
LINE
  5
412
330
1F
100
AcDbEntity
  8
0
  6
SLD-Plná
 62
     7
370
    25
100
AcDbLine
 10
6240.6520886694
 20
4718.970462775
 30
0.0
 11
6240.6520886694
 21
4726.170462775
 31
0.0
  0
LINE
  5
413
330
1F
100
AcDbEntity
  8
0
  6
SLD-Plná
 62
     7
370
    25
100
AcDbLine
 10
6248.9854220028
 20
4726.170462775
 30
0.0
 11
6248.9854220028
 21
4718.970462775
 31
0.0
  0
LINE
  5
414
330
1F
100
AcDbEntity
  8
0
  6
SLD-Plná
 62
     7
370
    25
100
AcDbLine
 10
6257.3187553361
 20
4718.970462775
 30
0.0
 11
6257.3187553361
 21
4726.170462775
 31
0.0
  0
LINE
  5
415
330
1F
100
AcDbEntity
  8
0
  6
SLD-Plná
 62
     7
370
    25
100
AcDbLine
 10
6324.0520886695
 20
4726.1704627749
 30
0.0
 11
6324.0520886695
 21
4718.9704627749
 31
0.0
  0
LINE
  5
416
330
1F
100
AcDbEntity
  8
0
  6
SLD-Plná
 62
     7
370
    25
100
AcDbLine
 10
6332.3854220029
 20
4718.9704627749
 30
0.0
 11
6332.3854220029
 21
4726.1704627749
 31
0.0
  0
LINE
  5
417
330
1F
100
AcDbEntity
  8
0
  6
SLD-Plná
 62
     7
370
    25
100
AcDbLine
 10
6307.3854220029
 20
4726.1704627749
 30
0.0
 11
6307.3854220029
 21
4718.9704627749
 31
0.0
  0
LINE
  5
418
330
1F
100
AcDbEntity
  8
0
  6
SLD-Plná
 62
     7
370
    25
100
AcDbLine
 10
6315.7187553362
 20
4718.9704627749
 30
0.0
 11
6315.7187553362
 21
4726.1704627749
 31
0.0
  0
LINE
  5
419
330
1F
100
AcDbEntity
  8
0
  6
SLD-Plná
 62
     7
370
    25
100
AcDbLine
 10
6290.7187553362
 20
4726.1704627749
 30
0.0
 11
6290.7187553362
 21
4718.9704627749
 31
0.0
  0
LINE
  5
41A
330
1F
100
AcDbEntity
  8
0
  6
SLD-Plná
 62
     7
370
    25
100
AcDbLine
 10
6299.0520886695
 20
4718.9704627749
 30
0.0
 11
6299.0520886695
 21
4726.1704627749
 31
0.0
  0
LINE
  5
41B
330
1F
100
AcDbEntity
  8
0
  6
SLD-Plná
 62
     7
370
    25
100
AcDbLine
 10
6207.3187553361
 20
4726.1704627749
 30
0.0
 11
6207.3187553361
 21
4718.9704627749
 31
0.0
  0
LINE
  5
41C
330
1F
100
AcDbEntity
  8
0
  6
SLD-Plná
 62
     7
370
    25
100
AcDbLine
 10
6340.7187553362
 20
4718.970462775
 30
0.0
 11
6340.7187553362
 21
4726.170462775
 31
0.0
  0
LINE
  5
41D
330
1F
100
AcDbEntity
  8
0
  6
SLD-Plná
 62
     7
370
    25
100
AcDbLine
 10
6354.8419786408
 20
4704.470462775
 30
0.0
 11
6355.7687553361
 21
4704.470462775
 31
0.0
  0
LINE
  5
41E
330
1F
100
AcDbEntity
  8
0
  6
SLD-Plná
 62
     7
370
    25
100
AcDbLine
 10
6354.8419786408
 20
4704.470462775
 30
0.0
 11
6193.1955320314
 21
4704.470462775
 31
0.0
  0
LINE
  5
41F
330
1F
100
AcDbEntity
  8
0
  6
SLD-Plná
 62
     7
370
    25
100
AcDbLine
 10
6193.1955320314
 20
4704.470462775
 30
0.0
 11
6192.2687553361
 21
4704.470462775
 31
0.0
  0
LINE
  5
420
330
1F
100
AcDbEntity
  8
0
  6
SLD-Plná
 62
     7
370
    25
100
AcDbLine
 10
6192.2687553361
 20
4704.470462775
 30
0.0
 11
6192.2687553361
 21
4718.3931125058
 31
0.0
  0
LINE
  5
421
330
1F
100
AcDbEntity
  8
0
  6
SLD-Plná
 62
     7
370
    25
100
AcDbLine
 10
6355.7687553361
 20
4718.3931125058
 30
0.0
 11
6192.2687553361
 21
4718.3931125058
 31
0.0
  0
LINE
  5
422
330
1F
100
AcDbEntity
  8
0
  6
SLD-Plná
 62
     7
370
    25
100
AcDbLine
 10
6355.7687553361
 20
4704.470462775
 30
0.0
 11
6355.7687553361
 21
4718.3931125058
 31
0.0
  0
SPLINE
  5
423
330
1F
100
AcDbEntity
  8
0
  6
SLD-Plná
 62
     7
370
    25
100
AcDbSpline
210
0.0
220
0.0
230
1.0
 70
     8
 71
     3
 72
    12
 73
     8
 74
     0
 42
0.00000001
 43
0.00000001
 40
0.0
 40
0.0
 40
0.0
 40
0.0
 40
0.1913660220253508
 40
0.4107021154852006
 40
0.6300458239534228
 40
0.8493894065480027
 40
1.0
 40
1.0
 40
1.0
 40
1.0
 10
6194.018755336091
 20
4701.970462774967
 30
0.0
 10
6193.966287897281
 20
4701.992502512697
 30
0.0
 10
6193.853684375063
 20
4702.039803317796
 30
0.0
 10
6193.680606363286
 20
4702.436409889468
 30
0.0
 10
6193.500000681652
 20
4703.070035768535
 30
0.0
 10
6193.338022983529
 20
4703.790834851198
 30
0.0
 10
6193.236757731085
 20
4704.273831787007
 30
0.0
 10
6193.195532031377
 20
4704.470462774971
 30
0.0
  0
SPLINE
  5
424
330
1F
100
AcDbEntity
  8
0
  6
SLD-Plná
 62
     7
370
    25
100
AcDbSpline
210
0.0
220
0.0
230
1.0
 70
     8
 71
     3
 72
    12
 73
     8
 74
     0
 42
0.00000001
 43
0.00000001
 40
0.0
 40
0.0
 40
0.0
 40
0.0
 40
0.1933249040909282
 40
0.412663377550725
 40
0.6320089711118774
 40
0.8513544344083852
 40
1.0
 40
1.0
 40
1.0
 40
1.0
 10
6354.841978640829
 20
4704.470462774971
 30
0.0
 10
6354.788969704801
 20
4704.21764217161
 30
0.0
 10
6354.675819013304
 20
4703.677981724923
 30
0.0
 10
6354.502208006038
 20
4702.929891540605
 30
0.0
 10
6354.321602232591
 20
4702.337285200236
 30
0.0
 10
6354.16016053286
 20
4702.017105174131
 30
0.0
 10
6354.059440134019
 20
4701.983882625361
 30
0.0
 10
6354.018755336084
 20
4701.970462774971
 30
0.0
  0
LINE
  5
425
330
1F
100
AcDbEntity
  8
0
  6
SLD-Plná
 62
     7
370
    25
100
AcDbLine
 10
6354.0187553361
 20
4701.970462775
 30
0.0
 11
6194.0187553361
 21
4701.970462775
 31
0.0
  0
LINE
  5
426
330
1F
100
AcDbEntity
  8
0
  6
SLD-Plná
 62
     7
370
    25
100
AcDbLine
 10
6192.2687553361
 20
4718.3931125058
 30
0.0
 11
6192.2687553361
 21
4718.970462775
 31
0.0
  0
LINE
  5
427
330
1F
100
AcDbEntity
  8
0
  6
SLD-Plná
 62
     7
370
    25
100
AcDbLine
 10
6192.2687553361
 20
4718.970462775
 30
0.0
 11
6193.1955320313
 21
4718.970462775
 31
0.0
  0
LINE
  5
428
330
1F
100
AcDbEntity
  8
0
  6
SLD-Plná
 62
     7
370
    25
100
AcDbLine
 10
6205.818755336
 20
4718.970462775
 30
0.0
 11
6207.3187553361
 21
4718.970462775
 31
0.0
  0
LINE
  5
429
330
1F
100
AcDbEntity
  8
0
  6
SLD-Plná
 62
     7
370
    25
100
AcDbLine
 10
6215.6520886694
 20
4718.970462775
 30
0.0
 11
6223.9854220028
 21
4718.970462775
 31
0.0
  0
LINE
  5
42A
330
1F
100
AcDbEntity
  8
0
  6
SLD-Plná
 62
     7
370
    25
100
AcDbLine
 10
6232.3187553361
 20
4718.970462775
 30
0.0
 11
6240.6520886694
 21
4718.970462775
 31
0.0
  0
LINE
  5
42B
330
1F
100
AcDbEntity
  8
0
  6
SLD-Plná
 62
     7
370
    25
100
AcDbLine
 10
6248.9854220028
 20
4718.970462775
 30
0.0
 11
6259.0187553361
 21
4718.970462775
 31
0.0
  0
LINE
  5
42C
330
1F
100
AcDbEntity
  8
0
  6
SLD-Plná
 62
     7
370
    25
100
AcDbLine
 10
6289.0187553361
 20
4718.970462775
 30
0.0
 11
6290.7187553362
 21
4718.970462775
 31
0.0
  0
LINE
  5
42D
330
1F
100
AcDbEntity
  8
0
  6
SLD-Plná
 62
     7
370
    25
100
AcDbLine
 10
6340.7187553362
 20
4718.970462775
 30
0.0
 11
6342.2187553361
 21
4718.970462775
 31
0.0
  0
LINE
  5
42E
330
1F
100
AcDbEntity
  8
0
  6
SLD-Plná
 62
     7
370
    25
100
AcDbLine
 10
6354.8419786408
 20
4718.970462775
 30
0.0
 11
6355.7687553362
 21
4718.970462775
 31
0.0
  0
LINE
  5
42F
330
1F
100
AcDbEntity
  8
0
  6
SLD-Plná
 62
     7
370
    25
100
AcDbLine
 10
6355.7687553362
 20
4718.970462775
 30
0.0
 11
6355.7687553361
 21
4718.3931125058
 31
0.0
  0
LINE
  5
430
330
1F
100
AcDbEntity
  8
0
  6
SLD-Plná
 62
     7
370
    25
100
AcDbLine
 10
6192.2687553361
 20
4718.970462775
 30
0.0
 11
6191.5187553361
 21
4718.970462775
 31
0.0
  0
LINE
  5
431
330
1F
100
AcDbEntity
  8
0
  6
SLD-Plná
 62
     7
370
    25
100
AcDbLine
 10
6192.2687553361
 20
4704.470462775
 30
0.0
 11
6191.5187553361
 21
4704.470462775
 31
0.0
  0
LINE
  5
432
330
1F
100
AcDbEntity
  8
0
  6
SLD-Plná
 62
     7
370
    25
100
AcDbLine
 10
6191.5187553361
 20
4704.470462775
 30
0.0
 11
6191.5187553361
 21
4718.970462775
 31
0.0
  0
LINE
  5
433
330
1F
100
AcDbEntity
  8
0
  6
SLD-Plná
 62
     7
370
    25
100
AcDbLine
 10
6355.7687553361
 20
4718.970462775
 30
0.0
 11
6356.5187553361
 21
4718.970462775
 31
0.0
  0
LINE
  5
434
330
1F
100
AcDbEntity
  8
0
  6
SLD-Plná
 62
     7
370
    25
100
AcDbLine
 10
6355.768755336
 20
4704.470462775
 30
0.0
 11
6356.518755336
 21
4704.470462775
 31
0.0
  0
LINE
  5
435
330
1F
100
AcDbEntity
  8
0
  6
SLD-Plná
 62
     7
370
    25
100
AcDbLine
 10
6356.518755336
 20
4704.470462775
 30
0.0
 11
6356.5187553361
 21
4718.970462775
 31
0.0
  0
SPLINE
  5
436
330
1F
100
AcDbEntity
  8
0
  6
SLD-Plná
 62
     7
370
    25
100
AcDbSpline
210
0.0
220
0.0
230
1.0
 70
     8
 71
     3
 72
    11
 73
     7
 74
     0
 42
0.00000001
 43
0.00000001
 40
0.0
 40
0.0
 40
0.0
 40
0.0
 40
0.2500000000000017
 40
0.5000000000000013
 40
0.749999999999999
 40
1.0
 40
1.0
 40
1.0
 40
1.0
 10
6191.518755336073
 20
4704.470462774966
 30
0.0
 10
6191.556334268042
 20
4704.142870165448
 30
0.0
 10
6191.631492131981
 20
4703.487684946409
 30
0.0
 10
6192.209615164799
 20
4702.661322603661
 30
0.0
 10
6193.035977507558
 20
4702.083199570857
 30
0.0
 10
6193.691162726598
 20
4702.00804170693
 30
0.0
 10
6194.018755336117
 20
4701.970462774967
 30
0.0
  0
SPLINE
  5
437
330
1F
100
AcDbEntity
  8
0
  6
SLD-Plná
 62
     7
370
    25
100
AcDbSpline
210
0.0
220
0.0
230
1.0
 70
     8
 71
     3
 72
    10
 73
     6
 74
     0
 42
0.00000001
 43
0.00000001
 40
0.0
 40
0.0
 40
0.0
 40
0.0
 40
0.4694893317428071
 40
0.9389786634856752
 40
1.0
 40
1.0
 40
1.0
 40
1.0
 10
6193.018755336073
 20
4704.470462774966
 30
0.0
 10
6193.035413166949
 20
4704.341905993643
 30
0.0
 10
6193.068728828702
 20
4704.084792430996
 30
0.0
 10
6193.21559431837
 20
4703.823693935605
 30
0.0
 10
6193.339556508613
 20
4703.744312012448
 30
0.0
 10
6193.353815106939
 20
4703.735181204463
 30
0.0
  0
SPLINE
  5
438
330
1F
100
AcDbEntity
  8
0
  6
SLD-Plná
 62
     7
370
    25
100
AcDbSpline
210
0.0
220
0.0
230
1.0
 70
     8
 71
     3
 72
    10
 73
     6
 74
     0
 42
0.00000001
 43
0.00000001
 40
0.0
 40
0.0
 40
0.0
 40
0.0
 40
0.0582356082020467
 40
0.5291178041010485
 40
1.0
 40
1.0
 40
1.0
 40
1.0
 10
6354.685739574548
 20
4703.736546967798
 30
0.0
 10
6354.699298785075
 20
4703.745245702175
 30
0.0
 10
6354.822495226573
 20
4703.824280769796
 30
0.0
 10
6354.968724962686
 20
4704.084865475049
 30
0.0
 10
6355.002078544982
 20
4704.341930341661
 30
0.0
 10
6355.018755336131
 20
4704.470462774966
 30
0.0
  0
SPLINE
  5
439
330
1F
100
AcDbEntity
  8
0
  6
SLD-Plná
 62
     7
370
    25
100
AcDbSpline
210
0.0
220
0.0
230
1.0
 70
     8
 71
     3
 72
    11
 73
     7
 74
     0
 42
0.00000001
 43
0.00000001
 40
0.0
 40
0.0
 40
0.0
 40
0.0
 40
0.2499999999999981
 40
0.4999999999999983
 40
0.7499999999999982
 40
1.0
 40
1.0
 40
1.0
 40
1.0
 10
6354.018755335987
 20
4701.970462774967
 30
0.0
 10
6354.346347945518
 20
4702.008041706919
 30
0.0
 10
6355.001533164577
 20
4702.083199570824
 30
0.0
 10
6355.827895507371
 20
4702.661322603622
 30
0.0
 10
6356.406018540218
 20
4703.487684946384
 30
0.0
 10
6356.481176404161
 20
4704.142870165439
 30
0.0
 10
6356.518755336131
 20
4704.470462774966
 30
0.0
  0
SPLINE
  5
43A
330
1F
100
AcDbEntity
  8
0
  6
SLD-Plná
 62
     8
370
    25
100
AcDbSpline
210
0.0
220
0.0
230
1.0
 70
    24
 71
     3
 72
    24
 73
    20
 74
     0
 42
0.00000001
 43
0.00000001
 40
0.0
 40
0.0
 40
0.0
 40
0.0
 40
0.0416815573492767
 40
0.1041815573492768
 40
0.1666815573492763
 40
0.2291815573492763
 40
0.2916815573492764
 40
0.3541815573492764
 40
0.4166815573492765
 40
0.4791815573492764
 40
0.5416815573492761
 40
0.6041815573492764
 40
0.6666815573492764
 40
0.7291815573492766
 40
0.7916815573492765
 40
0.8541815573492766
 40
0.9166815573492761
 40
0.9791815573492759
 40
1.0
 40
1.0
 40
1.0
 40
1.0
 10
6240.33945398689
 20
4695.414900343713
 30
0.0
 10
6240.339718219897
 20
4695.414900343713
 30
0.0
 10
6240.340378660817
 20
4695.414900343713
 30
0.0
 10
6240.040639914037
 20
4695.414900343713
 30
0.0
 10
6239.490984768318
 20
4695.414900343713
 30
0.0
 10
6238.701597070576
 20
4695.414900343713
 30
0.0
 10
6237.715774981834
 20
4695.414900343713
 30
0.0
 10
6236.56792966489
 20
4695.414900343713
 30
0.0
 10
6235.30310344593
 20
4695.414900343713
 30
0.0
 10
6233.96965121694
 20
4695.414900343713
 30
0.0
 10
6232.618892206045
 20
4695.414900343713
 30
0.0
 10
6231.302685367707
 20
4695.414900343713
 30
0.0
 10
6230.071736213059
 20
4695.414900343713
 30
0.0
 10
6228.972901702722
 20
4695.414900343713
 30
0.0
 10
6228.050075910483
 20
4695.414900343713
 30
0.0
 10
6227.332504319927
 20
4695.414900343713
 30
0.0
 10
6226.870969101414
 20
4695.414900343713
 30
0.0
 10
6226.657592547334
 20
4695.414900343713
 30
0.0
 10
6226.689967329316
 20
4695.414900343713
 30
0.0
 10
6226.698056685293
 20
4695.414900343713
 30
0.0
  0
LINE
  5
43B
330
1F
100
AcDbEntity
  8
0
  6
SLD-Plná
 62
     8
370
    25
100
AcDbLine
 10
6239.2436408815
 20
4693.919417297
 30
0.0
 11
6239.2713538774
 21
4693.9196026791
 31
0.0
  0
LINE
  5
43C
330
1F
100
AcDbEntity
  8
0
  6
SLD-Plná
 62
     8
370
    25
100
AcDbLine
 10
6227.7382793214
 20
4693.9185495526
 30
0.0
 11
6227.7616100346
 21
4693.9185380518
 31
0.0
  0
LINE
  5
43D
330
1F
100
AcDbEntity
  8
0
  6
SLD-Plná
 62
     8
370
    25
100
AcDbLine
 10
6230.8687553361
 20
4693.170462775
 30
0.0
 11
6228.2187553361
 21
4693.170462775
 31
0.0
  0
LINE
  5
43E
330
1F
100
AcDbEntity
  8
0
  6
SLD-Plná
 62
     8
370
    25
100
AcDbLine
 10
6238.8187553361
 20
4693.170462775
 30
0.0
 11
6230.8687553361
 21
4693.170462775
 31
0.0
  0
LINE
  5
43F
330
1F
100
AcDbEntity
  8
0
  6
SLD-Plná
 62
     8
370
    25
100
AcDbLine
 10
6230.8687553361
 20
4689.270462775
 30
0.0
 11
6238.8187553361
 21
4689.270462775
 31
0.0
  0
LINE
  5
440
330
1F
100
AcDbEntity
  8
0
  6
SLD-Plná
 62
     8
370
    25
100
AcDbLine
 10
6228.2187553361
 20
4689.270462775
 30
0.0
 11
6230.8687553361
 21
4689.270462775
 31
0.0
  0
LINE
  5
441
330
1F
100
AcDbEntity
  8
0
  6
SLD-Plná
 62
     8
370
    25
100
AcDbLine
 10
6308.5913054094
 20
4701.470462775
 30
0.0
 11
6308.5825778769
 21
4701.970462775
 31
0.0
  0
LINE
  5
442
330
1F
100
AcDbEntity
  8
0
  6
SLD-Plná
 62
     8
370
    25
100
AcDbLine
 10
6314.5794612831
 20
4701.970462775
 30
0.0
 11
6314.5707337506
 21
4701.470462775
 31
0.0
  0
LINE
  5
443
330
1F
100
AcDbEntity
  8
0
  6
SLD-Plná
 62
     8
370
    25
100
AcDbLine
 10
6306.2139717413
 20
4695.6442831679
 30
0.0
 11
6306.1962895397
 21
4697.670462775
 31
0.0
  0
LINE
  5
444
330
1F
100
AcDbEntity
  8
0
  6
SLD-Plná
 62
     8
370
    25
100
AcDbLine
 10
6322.5741514676
 20
4697.670462775
 30
0.0
 11
6322.556469266
 21
4695.6442831685
 31
0.0
  0
LINE
  5
445
330
1F
100
AcDbEntity
  8
0
  6
SLD-Plná
 62
     8
370
    25
100
AcDbLine
 10
6257.708304084
 20
4725.8843519991
 30
0.0
 11
6257.708304084
 21
4719.2565735508
 31
0.0
  0
LINE
  5
446
330
1F
100
AcDbEntity
  8
0
  6
SLD-Plná
 62
     8
370
    25
100
AcDbLine
 10
6290.3292065883
 20
4719.2565735507
 30
0.0
 11
6290.3292065883
 21
4725.884351999
 31
0.0
  0
LINE
  5
447
330
1F
100
AcDbEntity
  8
0
  6
SLD-Plná
 62
     8
370
    25
100
AcDbLine
 10
6206.9292065882
 20
4719.2565735507
 30
0.0
 11
6206.9292065882
 21
4725.884351999
 31
0.0
  0
LINE
  5
448
330
1F
100
AcDbEntity
  8
0
  6
SLD-Plná
 62
     8
370
    25
100
AcDbLine
 10
6341.1083040841
 20
4725.8843519991
 30
0.0
 11
6341.1083040841
 21
4719.2565735508
 31
0.0
  0
ENDSEC
  0
SECTION
  2
OBJECTS
  0
DICTIONARY
  5
C
330
0
100
AcDbDictionary
281
     1
  3
ACAD_GROUP
350
D
  3
ACAD_LAYOUT
350
1A
  3
ACAD_MLINESTYLE
350
17
  3
ACAD_PLOTSETTINGS
350
19
  3
ACAD_PLOTSTYLENAME
350
E
  3
ACAD_SCALELIST
350
47
  3
DWGPROPS
350
449
  0
DICTIONARY
  5
D
102
{ACAD_REACTORS
330
C
102
}
330
C
100
AcDbDictionary
281
     1
  0
DICTIONARY
  5
1A
102
{ACAD_REACTORS
330
C
102
}
330
C
100
AcDbDictionary
281
     1
  3
Layout1
350
1E
  3
Layout2
350
26
  3
Model
350
22
  0
DICTIONARY
  5
17
102
{ACAD_REACTORS
330
C
102
}
330
C
100
AcDbDictionary
281
     1
  3
Standard
350
18
  0
DICTIONARY
  5
19
102
{ACAD_REACTORS
330
C
102
}
330
C
100
AcDbDictionary
281
     1
  0
ACDBDICTIONARYWDFLT
  5
E
102
{ACAD_REACTORS
330
C
102
}
330
C
100
AcDbDictionary
281
     1
  3
Normal
350
F
100
AcDbDictionaryWithDefault
340
F
  0
DICTIONARY
  5
47
102
{ACAD_REACTORS
330
C
102
}
330
C
100
AcDbDictionary
281
     1
  3
A0
350
48
  3
A1
350
49
  3
A2
350
4A
  3
A3
350
4B
  3
A4
350
4C
  3
A5
350
4D
  3
A6
350
4E
  3
A7
350
4F
  3
A8
350
50
  3
A9
350
51
  3
B0
350
52
  3
B1
350
53
  3
B2
350
54
  3
B3
350
55
  3
B4
350
56
  3
B5
350
57
  3
B6
350
58
  3
B7
350
59
  3
B8
350
5A
  3
B9
350
5B
  3
C0
350
5C
  3
C1
350
5D
  3
C2
350
5E
  3
C3
350
5F
  3
C4
350
60
  3
C5
350
61
  3
C6
350
62
  3
C7
350
63
  3
C8
350
64
  3
C9
350
65
  3
D0
350
66
  3
D1
350
67
  3
D2
350
68
  0
XRECORD
  5
449
102
{ACAD_REACTORS
330
C
102
}
330
C
100
AcDbXrecord
280
     1
  1
DWGPROPS COOKIE
  2

  3

  4

  6

  7

  8
radek.stransky
  9

300
=
301
=
302
=
303
=
304
=
305
=
306
=
307
=
308
=
309
=
 40
0.0
 41
2460853.275815
 42
2460853.275816852
  1

 90
        0
  0
LAYOUT
  5
1E
102
{ACAD_REACTORS
330
1A
102
}
330
1A
100
AcDbPlotSettings
  1

  2
none_device
  4

  6

 40
0.0
 41
0.0
 42
0.0
 43
0.0
 44
0.0
 45
0.0
 46
0.0
 47
0.0
 48
0.0
 49
0.0
140
0.0
141
0.0
142
1.0
143
1.0
 70
   688
 72
     1
 73
     0
 74
     5
  7

 75
    16
147
1.0
148
0.0
149
0.0
100
AcDbLayout
  1
Layout1
 70
     1
 71
     1
 10
0.0
 20
0.0
 11
420.0
 21
297.0
 12
0.0
 22
0.0
 32
0.0
 14
1.0000000000E+20
 24
1.0000000000E+20
 34
1.0000000000E+20
 15
-1.0000000000E+20
 25
-1.0000000000E+20
 35
-1.0000000000E+20
146
0.0
 13
0.0
 23
0.0
 33
0.0
 16
1.0
 26
0.0
 36
0.0
 17
0.0
 27
1.0
 37
0.0
 76
     0
330
1B
  0
LAYOUT
  5
26
102
{ACAD_REACTORS
330
1A
102
}
330
1A
100
AcDbPlotSettings
  1

  2
none_device
  4

  6

 40
0.0
 41
0.0
 42
0.0
 43
0.0
 44
0.0
 45
0.0
 46
0.0
 47
0.0
 48
0.0
 49
0.0
140
0.0
141
0.0
142
1.0
143
1.0
 70
   688
 72
     1
 73
     0
 74
     5
  7

 75
    16
147
1.0
148
0.0
149
0.0
100
AcDbLayout
  1
Layout2
 70
     1
 71
     2
 10
0.0
 20
0.0
 11
0.0
 21
0.0
 12
0.0
 22
0.0
 32
0.0
 14
0.0
 24
0.0
 34
0.0
 15
0.0
 25
0.0
 35
0.0
146
0.0
 13
0.0
 23
0.0
 33
0.0
 16
1.0
 26
0.0
 36
0.0
 17
0.0
 27
1.0
 37
0.0
 76
     0
330
23
  0
LAYOUT
  5
22
102
{ACAD_REACTORS
330
1A
102
}
330
1A
100
AcDbPlotSettings
  1

  2
none_device
  4
Letter_(8.50_x_11.00_Inches)
  6

 40
6.35
 41
6.35
 42
6.35000508
 43
6.35000508
 44
215.9
 45
279.4
 46
0.0
 47
0.0
 48
0.0
 49
0.0
140
0.0
141
0.0
142
1.0
143
1.0
 70
  1712
 72
     1
 73
     0
 74
     0
  7

 75
     0
147
1.0
148
0.0
149
0.0
100
AcDbLayout
  1
Model
 70
     1
 71
     0
 10
0.0
 20
0.0
 11
20000.0
 21
10000.0
 12
0.0
 22
0.0
 32
0.0
 14
0.0
 24
0.0
 34
0.0
 15
20000.0
 25
10000.0
 35
0.0
146
0.0
 13
0.0
 23
0.0
 33
0.0
 16
1.0
 26
0.0
 36
0.0
 17
0.0
 27
1.0
 37
0.0
 76
     0
330
1F
331
29
  0
MLINESTYLE
  5
18
102
{ACAD_REACTORS
330
17
102
}
330
17
100
AcDbMlineStyle
  2
Standard
 70
     0
  3

 62
   256
 51
90.0
 52
90.0
 71
     2
 49
0.5
 62
   256
  6
BYLAYER
 49
-0.5
 62
   256
  6
BYLAYER
  0
ACDBPLACEHOLDER
  5
F
102
{ACAD_REACTORS
330
E
102
}
330
E
  0
SCALE
  5
48
102
{ACAD_REACTORS
330
47
102
}
330
47
100
AcDbScale
 70
     0
300
1:1
140
1.0
141
1.0
290
     1
  0
SCALE
  5
49
102
{ACAD_REACTORS
330
47
102
}
330
47
100
AcDbScale
 70
     0
300
1:2
140
1.0
141
2.0
290
     0
  0
SCALE
  5
4A
102
{ACAD_REACTORS
330
47
102
}
330
47
100
AcDbScale
 70
     0
300
1:4
140
1.0
141
4.0
290
     0
  0
SCALE
  5
4B
102
{ACAD_REACTORS
330
47
102
}
330
47
100
AcDbScale
 70
     0
300
1:5
140
1.0
141
5.0
290
     0
  0
SCALE
  5
4C
102
{ACAD_REACTORS
330
47
102
}
330
47
100
AcDbScale
 70
     0
300
1:8
140
1.0
141
8.0
290
     0
  0
SCALE
  5
4D
102
{ACAD_REACTORS
330
47
102
}
330
47
100
AcDbScale
 70
     0
300
1:10
140
1.0
141
10.0
290
     0
  0
SCALE
  5
4E
102
{ACAD_REACTORS
330
47
102
}
330
47
100
AcDbScale
 70
     0
300
1:16
140
1.0
141
16.0
290
     0
  0
SCALE
  5
4F
102
{ACAD_REACTORS
330
47
102
}
330
47
100
AcDbScale
 70
     0
300
1:20
140
1.0
141
20.0
290
     0
  0
SCALE
  5
50
102
{ACAD_REACTORS
330
47
102
}
330
47
100
AcDbScale
 70
     0
300
1:30
140
1.0
141
30.0
290
     0
  0
SCALE
  5
51
102
{ACAD_REACTORS
330
47
102
}
330
47
100
AcDbScale
 70
     0
300
1:40
140
1.0
141
40.0
290
     0
  0
SCALE
  5
52
102
{ACAD_REACTORS
330
47
102
}
330
47
100
AcDbScale
 70
     0
300
1:50
140
1.0
141
50.0
290
     0
  0
SCALE
  5
53
102
{ACAD_REACTORS
330
47
102
}
330
47
100
AcDbScale
 70
     0
300
1:100
140
1.0
141
100.0
290
     0
  0
SCALE
  5
54
102
{ACAD_REACTORS
330
47
102
}
330
47
100
AcDbScale
 70
     0
300
2:1
140
2.0
141
1.0
290
     0
  0
SCALE
  5
55
102
{ACAD_REACTORS
330
47
102
}
330
47
100
AcDbScale
 70
     0
300
4:1
140
4.0
141
1.0
290
     0
  0
SCALE
  5
56
102
{ACAD_REACTORS
330
47
102
}
330
47
100
AcDbScale
 70
     0
300
8:1
140
8.0
141
1.0
290
     0
  0
SCALE
  5
57
102
{ACAD_REACTORS
330
47
102
}
330
47
100
AcDbScale
 70
     0
300
10:1
140
10.0
141
1.0
290
     0
  0
SCALE
  5
58
102
{ACAD_REACTORS
330
47
102
}
330
47
100
AcDbScale
 70
     0
300
100:1
140
100.0
141
1.0
290
     0
  0
SCALE
  5
59
102
{ACAD_REACTORS
330
47
102
}
330
47
100
AcDbScale
 70
     0
300
1/128" = 1'-0"
140
0.0078125
141
12.0
290
     0
  0
SCALE
  5
5A
102
{ACAD_REACTORS
330
47
102
}
330
47
100
AcDbScale
 70
     0
300
1/64" = 1'-0"
140
0.015625
141
12.0
290
     0
  0
SCALE
  5
5B
102
{ACAD_REACTORS
330
47
102
}
330
47
100
AcDbScale
 70
     0
300
1/32" = 1'-0"
140
0.03125
141
12.0
290
     0
  0
SCALE
  5
5C
102
{ACAD_REACTORS
330
47
102
}
330
47
100
AcDbScale
 70
     0
300
1/16" = 1'-0"
140
0.0625
141
12.0
290
     0
  0
SCALE
  5
5D
102
{ACAD_REACTORS
330
47
102
}
330
47
100
AcDbScale
 70
     0
300
3/32" = 1'-0"
140
0.09375
141
12.0
290
     0
  0
SCALE
  5
5E
102
{ACAD_REACTORS
330
47
102
}
330
47
100
AcDbScale
 70
     0
300
1/8" = 1'-0"
140
0.125
141
12.0
290
     0
  0
SCALE
  5
5F
102
{ACAD_REACTORS
330
47
102
}
330
47
100
AcDbScale
 70
     0
300
3/16" = 1'-0"
140
0.1875
141
12.0
290
     0
  0
SCALE
  5
60
102
{ACAD_REACTORS
330
47
102
}
330
47
100
AcDbScale
 70
     0
300
1/4" = 1'-0"
140
0.25
141
12.0
290
     0
  0
SCALE
  5
61
102
{ACAD_REACTORS
330
47
102
}
330
47
100
AcDbScale
 70
     0
300
3/8" = 1'-0"
140
0.375
141
12.0
290
     0
  0
SCALE
  5
62
102
{ACAD_REACTORS
330
47
102
}
330
47
100
AcDbScale
 70
     0
300
1/2" = 1'-0"
140
0.5
141
12.0
290
     0
  0
SCALE
  5
63
102
{ACAD_REACTORS
330
47
102
}
330
47
100
AcDbScale
 70
     0
300
3/4" = 1'-0"
140
0.75
141
12.0
290
     0
  0
SCALE
  5
64
102
{ACAD_REACTORS
330
47
102
}
330
47
100
AcDbScale
 70
     0
300
1" = 1'-0"
140
1.0
141
12.0
290
     0
  0
SCALE
  5
65
102
{ACAD_REACTORS
330
47
102
}
330
47
100
AcDbScale
 70
     0
300
1-1/2" = 1'-0"
140
1.5
141
12.0
290
     0
  0
SCALE
  5
66
102
{ACAD_REACTORS
330
47
102
}
330
47
100
AcDbScale
 70
     0
300
3" = 1'-0"
140
3.0
141
12.0
290
     0
  0
SCALE
  5
67
102
{ACAD_REACTORS
330
47
102
}
330
47
100
AcDbScale
 70
     0
300
6" = 1'-0"
140
6.0
141
12.0
290
     0
  0
SCALE
  5
68
102
{ACAD_REACTORS
330
47
102
}
330
47
100
AcDbScale
 70
     0
300
1'-0" = 1'-0"
140
12.0
141
12.0
290
     0
  0
ENDSEC
  0
EOF
