  0
SECTION
  2
HEADER
  9
$ACADVER
  1
AC1015
  9
$ACADMAINTVER
 70
     6
  9
$DWGCODEPAGE
  3
ANSI_1250
  9
$INSBASE
 10
0.0
 20
0.0
 30
0.0
  9
$EXTMIN
 10
0.0
 20
0.0
 30
0.0
  9
$EXTMAX
 10
20000.0
 20
10000.0
 30
0.0
  9
$LIMMIN
 10
0.0
 20
0.0
  9
$LIMMAX
 10
20000.0
 20
10000.0
  9
$ORTHOMODE
 70
     0
  9
$REGENMODE
 70
     1
  9
$FILLMODE
 70
     1
  9
$QTEXTMODE
 70
     0
  9
$MIRRTEXT
 70
     1
  9
$LTSCALE
 40
1.0
  9
$ATTMODE
 70
     1
  9
$TEXTSIZE
 40
2.0
  9
$TRACEWID
 40
1.0
  9
$TEXTSTYLE
  7
Standard
  9
$CLAYER
  8
0
  9
$CELTYPE
  6
ByLayer
  9
$CECOLOR
 62
   256
  9
$CELTSCALE
 40
1.0
  9
$DISPSILH
 70
     0
  9
$DIMSCALE
 40
1.0
  9
$DIMASZ
 40
2.0
  9
$DIMEXO
 40
1.0
  9
$DIMDLI
 40
3.75
  9
$DIMRND
 40
0.0
  9
$DIMDLE
 40
0.0
  9
$DIMEXE
 40
1.0
  9
$DIMTP
 40
0.0
  9
$DIMTM
 40
0.0
  9
$DIMTXT
 40
2.0
  9
$DIMCEN
 40
2.5
  9
$DIMTSZ
 40
0.0
  9
$DIMTOL
 70
     0
  9
$DIMLIM
 70
     0
  9
$DIMTIH
 70
     1
  9
$DIMTOH
 70
     1
  9
$DIMSE1
 70
     0
  9
$DIMSE2
 70
     0
  9
$DIMTAD
 70
     1
  9
$DIMZIN
 70
     0
  9
$DIMBLK
  1

  9
$DIMASO
 70
     1
  9
$DIMSHO
 70
     1
  9
$DIMPOST
  1

  9
$DIMAPOST
  1

  9
$DIMALT
 70
     0
  9
$DIMALTD
 70
     3
  9
$DIMALTF
 40
0.0393700787
  9
$DIMLFAC
 40
1.0
  9
$DIMTOFL
 70
     1
  9
$DIMTVP
 40
0.0
  9
$DIMTIX
 70
     0
  9
$DIMSOXD
 70
     0
  9
$DIMSAH
 70
     0
  9
$DIMBLK1
  1

  9
$DIMBLK2
  1

  9
$DIMSTYLE
  2
ISO-25
  9
$DIMCLRD
 70
     0
  9
$DIMCLRE
 70
     0
  9
$DIMCLRT
 70
     0
  9
$DIMTFAC
 40
1.0
  9
$DIMGAP
 40
1.524
  9
$DIMJUST
 70
     0
  9
$DIMSD1
 70
     0
  9
$DIMSD2
 70
     0
  9
$DIMTOLJ
 70
     0
  9
$DIMTZIN
 70
     0
  9
$DIMALTZ
 70
     0
  9
$DIMALTTZ
 70
     0
  9
$DIMUPT
 70
     0
  9
$DIMDEC
 70
     2
  9
$DIMTDEC
 70
     0
  9
$DIMALTU
 70
     2
  9
$DIMALTTD
 70
     3
  9
$DIMTXSTY
  7
Standard
  9
$DIMAUNIT
 70
     0
  9
$DIMADEC
 70
     2
  9
$DIMALTRND
 40
0.0
  9
$DIMAZIN
 70
     0
  9
$DIMDSEP
 70
    44
  9
$DIMATFIT
 70
     3
  9
$DIMFRAC
 70
     0
  9
$DIMLDRBLK
  1

  9
$DIMLUNIT
 70
     2
  9
$DIMLWD
 70
    -2
  9
$DIMLWE
 70
    -2
  9
$DIMTMOVE
 70
     0
  9
$LUNITS
 70
     2
  9
$LUPREC
 70
     3
  9
$SKETCHINC
 40
1.0
  9
$FILLETRAD
 40
10.0
  9
$AUNITS
 70
     0
  9
$AUPREC
 70
     2
  9
$MENU
  1
.
  9
$ELEVATION
 40
0.0
  9
$PELEVATION
 40
0.0
  9
$THICKNESS
 40
0.0
  9
$LIMCHECK
 70
     0
  9
$CHAMFERA
 40
0.0
  9
$CHAMFERB
 40
0.0
  9
$CHAMFERC
 40
0.0
  9
$CHAMFERD
 40
0.0
  9
$SKPOLY
 70
     0
  9
$TDCREATE
 40
2459837.52949331
  9
$TDUCREATE
 40
2459837.446159977
  9
$TDUPDATE
 40
2459837.529493785
  9
$TDUUPDATE
 40
2459837.446160452
  9
$TDINDWG
 40
0.0000000116
  9
$TDUSRTIMER
 40
0.0000000116
  9
$USRTIMER
 70
     1
  9
$ANGBASE
 50
0.0
  9
$ANGDIR
 70
     0
  9
$PDMODE
 70
     0
  9
$PDSIZE
 40
-1.0
  9
$PLINEWID
 40
0.0
  9
$SPLFRAME
 70
     0
  9
$SPLINETYPE
 70
     6
  9
$SPLINESEGS
 70
     8
  9
$HANDSEED
  5
399
  9
$SURFTAB1
 70
     6
  9
$SURFTAB2
 70
     6
  9
$SURFTYPE
 70
     6
  9
$SURFU
 70
     6
  9
$SURFV
 70
     6
  9
$UCSBASE
  2

  9
$UCSNAME
  2

  9
$UCSORG
 10
0.0
 20
0.0
 30
0.0
  9
$UCSXDIR
 10
1.0
 20
0.0
 30
0.0
  9
$UCSYDIR
 10
0.0
 20
1.0
 30
0.0
  9
$UCSORTHOREF
  2

  9
$UCSORTHOVIEW
 70
     0
  9
$UCSORGTOP
 10
0.0
 20
0.0
 30
0.0
  9
$UCSORGBOTTOM
 10
0.0
 20
0.0
 30
0.0
  9
$UCSORGLEFT
 10
0.0
 20
0.0
 30
0.0
  9
$UCSORGRIGHT
 10
0.0
 20
0.0
 30
0.0
  9
$UCSORGFRONT
 10
0.0
 20
0.0
 30
0.0
  9
$UCSORGBACK
 10
0.0
 20
0.0
 30
0.0
  9
$PUCSBASE
  2

  9
$PUCSNAME
  2

  9
$PUCSORG
 10
0.0
 20
0.0
 30
0.0
  9
$PUCSXDIR
 10
1.0
 20
0.0
 30
0.0
  9
$PUCSYDIR
 10
0.0
 20
1.0
 30
0.0
  9
$PUCSORTHOREF
  2

  9
$PUCSORTHOVIEW
 70
     0
  9
$PUCSORGTOP
 10
0.0
 20
0.0
 30
0.0
  9
$PUCSORGBOTTOM
 10
0.0
 20
0.0
 30
0.0
  9
$PUCSORGLEFT
 10
0.0
 20
0.0
 30
0.0
  9
$PUCSORGRIGHT
 10
0.0
 20
0.0
 30
0.0
  9
$PUCSORGFRONT
 10
0.0
 20
0.0
 30
0.0
  9
$PUCSORGBACK
 10
0.0
 20
0.0
 30
0.0
  9
$USERI1
 70
     0
  9
$USERI2
 70
     0
  9
$USERI3
 70
     0
  9
$USERI4
 70
     0
  9
$USERI5
 70
     0
  9
$USERR1
 40
0.0
  9
$USERR2
 40
0.0
  9
$USERR3
 40
0.0
  9
$USERR4
 40
0.0
  9
$USERR5
 40
0.0
  9
$WORLDVIEW
 70
     1
  9
$SHADEDGE
 70
     3
  9
$SHADEDIF
 70
    70
  9
$TILEMODE
 70
     1
  9
$MAXACTVP
 70
    64
  9
$PINSBASE
 10
0.0
 20
0.0
 30
0.0
  9
$PLIMCHECK
 70
     0
  9
$PEXTMIN
 10
1.0000000000E+20
 20
1.0000000000E+20
 30
1.0000000000E+20
  9
$PEXTMAX
 10
-1.0000000000E+20
 20
-1.0000000000E+20
 30
-1.0000000000E+20
  9
$PLIMMIN
 10
0.0
 20
0.0
  9
$PLIMMAX
 10
420.0
 20
297.0
  9
$UNITMODE
 70
     0
  9
$VISRETAIN
 70
     1
  9
$PLINEGEN
 70
     0
  9
$PSLTSCALE
 70
     1
  9
$TREEDEPTH
 70
  3020
  9
$CMLSTYLE
  2
Standard
  9
$CMLJUST
 70
     0
  9
$CMLSCALE
 40
20.0
  9
$PROXYGRAPHICS
 70
     1
  9
$MEASUREMENT
 70
     1
  9
$CELWEIGHT
370
    -1
  9
$ENDCAPS
280
     0
  9
$JOINSTYLE
280
     0
  9
$LWDISPLAY
290
     1
  9
$INSUNITS
 70
     4
  9
$HYPERLINKBASE
  1

  9
$STYLESHEET
  1

  9
$XEDIT
290
     1
  9
$CEPSNTYPE
380
     0
  9
$PSTYLEMODE
290
     1
  9
$FINGERPRINTGUID
  2
{a69eba87-b7c5-4000-8473-9661675bd51d}
  9
$VERSIONGUID
  2
{FAEB1C32-E019-11D5-929B-00C0DF256EC4}
  9
$EXTNAMES
290
     1
  9
$PSVPSCALE
 40
0.0
  9
$OLESTARTUP
290
     0
  0
ENDSEC
  0
SECTION
  2
CLASSES
  0
CLASS
  1
ACDBDICTIONARYWDFLT
  2
AcDbDictionaryWithDefault
  3
ObjectDBX Classes
 90
        0
280
     0
281
     0
  0
CLASS
  1
VISUALSTYLE
  2
AcDbVisualStyle
  3
ObjectDBX Classes
 90
     4095
280
     0
281
     0
  0
CLASS
  1
MATERIAL
  2
AcDbMaterial
  3
ObjectDBX Classes
 90
     1153
280
     0
281
     0
  0
CLASS
  1
SCALE
  2
AcDbScale
  3
ObjectDBX Classes
 90
     1153
280
     0
281
     0
  0
CLASS
  1
TABLESTYLE
  2
AcDbTableStyle
  3
ObjectDBX Classes
 90
     4095
280
     0
281
     0
  0
CLASS
  1
MLEADERSTYLE
  2
AcDbMLeaderStyle
  3
ACDB_MLEADERSTYLE_CLASS
 90
     4095
280
     0
281
     0
  0
CLASS
  1
SUN
  2
AcDbSun
  3
SCENEOE
 90
     1153
280
     0
281
     0
  0
CLASS
  1
ACDBPLACEHOLDER
  2
AcDbPlaceHolder
  3
ObjectDBX Classes
 90
        0
280
     0
281
     0
  0
CLASS
  1
LAYOUT
  2
AcDbLayout
  3
ObjectDBX Classes
 90
        0
280
     0
281
     0
  0
ENDSEC
  0
SECTION
  2
TABLES
  0
TABLE
  2
VPORT
  5
8
330
0
100
AcDbSymbolTable
 70
     1
  0
VPORT
  5
29
330
8
100
AcDbSymbolTableRecord
100
AcDbViewportTableRecord
  2
*Active
 70
     0
 10
0.0
 20
0.0
 11
1.0
 21
1.0
 12
10000.0
 22
5000.0
 13
0.0
 23
0.0
 14
10.0
 24
10.0
 15
10.0
 25
10.0
 16
0.0
 26
0.0
 36
1.0
 17
0.0
 27
0.0
 37
0.0
 40
10000.0
 41
2.0
 42
50.0
 43
0.0
 44
0.0
 50
0.0
 51
0.0
 71
     0
 72
  2000
 73
     1
 74
     3
 75
     0
 76
     0
 77
     0
 78
     0
281
     0
 65
     1
110
0.0
120
0.0
130
0.0
111
1.0
121
0.0
131
0.0
112
0.0
122
1.0
132
0.0
 79
     0
146
0.0
  0
ENDTAB
  0
TABLE
  2
LTYPE
  5
5
330
0
100
AcDbSymbolTable
 70
     6
  0
LTYPE
  5
14
330
5
100
AcDbSymbolTableRecord
100
AcDbLinetypeTableRecord
  2
ByBlock
 70
     0
  3

 72
    65
 73
     0
 40
0.0
  0
LTYPE
  5
15
330
5
100
AcDbSymbolTableRecord
100
AcDbLinetypeTableRecord
  2
ByLayer
 70
     0
  3

 72
    65
 73
     0
 40
0.0
  0
LTYPE
  5
16
330
5
100
AcDbSymbolTableRecord
100
AcDbLinetypeTableRecord
  2
Continuous
 70
     0
  3
Solid line
 72
    65
 73
     0
 40
0.0
  0
LTYPE
  5
6E
330
5
100
AcDbSymbolTableRecord
100
AcDbLinetypeTableRecord
  2
HIDDEN
 70
     0
  3
Hidden __ __ __ __ __ __ __ __ __ __ __ __ __ __
 72
    65
 73
     2
 40
1.905
 49
1.27
 74
     0
 49
-0.635
 74
     0
  0
LTYPE
  5
6F
330
5
100
AcDbSymbolTableRecord
100
AcDbLinetypeTableRecord
  2
PHANTOM
 70
     0
  3
Phantom ______  __  __  ______  __  __  ______
 72
    65
 73
     6
 40
12.7
 49
6.35
 74
     0
 49
-1.27
 74
     0
 49
1.27
 74
     0
 49
-1.27
 74
     0
 49
1.27
 74
     0
 49
-1.27
 74
     0
  0
LTYPE
  5
70
330
5
100
AcDbSymbolTableRecord
100
AcDbLinetypeTableRecord
  2
CENTER
 70
     0
  3
Center ____ _ ____ _ ____ _ ____ _ ____ _ ____
 72
    65
 73
     4
 40
10.16
 49
6.35
 74
     0
 49
-1.27
 74
     0
 49
1.27
 74
     0
 49
-1.27
 74
     0
  0
LTYPE
  5
71
330
5
100
AcDbSymbolTableRecord
100
AcDbLinetypeTableRecord
  2
CENTERX2
 70
     0
  3
Center (2x) ________  __  ________  __  _____
 72
    65
 73
     4
 40
20.32
 49
12.7
 74
     0
 49
-2.54
 74
     0
 49
2.54
 74
     0
 49
-2.54
 74
     0
  0
LTYPE
  5
72
330
5
100
AcDbSymbolTableRecord
100
AcDbLinetypeTableRecord
  2
DOT2
 70
     0
  3
Dot (.5x) ........................................
 72
    65
 73
     2
 40
0.635
 49
0.0
 74
     0
 49
-0.635
 74
     0
  0
ENDTAB
  0
TABLE
  2
LAYER
  5
2
330
0
100
AcDbSymbolTable
 70
    13
  0
LAYER
  5
10
330
2
100
AcDbSymbolTableRecord
100
AcDbLayerTableRecord
  2
0
 70
     0
 62
     7
  6
Continuous
370
    -3
390
F
  0
LAYER
  5
73
330
2
100
AcDbSymbolTableRecord
100
AcDbLayerTableRecord
  2
FORMAT
 70
     0
 62
     7
  6
Continuous
370
    -3
390
F
  0
LAYER
  5
74
330
2
100
AcDbSymbolTableRecord
100
AcDbLayerTableRecord
  2
OSA
 70
     0
 62
     7
  6
CENTER
370
    -3
390
F
  0
LAYER
  5
75
330
2
100
AcDbSymbolTableRecord
100
AcDbLayerTableRecord
  2
0_35
 70
     0
 62
     7
  6
Continuous
370
    35
390
F
  0
LAYER
  5
76
330
2
100
AcDbSymbolTableRecord
100
AcDbLayerTableRecord
  2
0_5
 70
     0
 62
     7
  6
Continuous
370
    50
390
F
  0
LAYER
  5
77
330
2
100
AcDbSymbolTableRecord
100
AcDbLayerTableRecord
  2
0_25
 70
     0
 62
     7
  6
Continuous
370
    25
390
F
  0
LAYER
  5
78
330
2
100
AcDbSymbolTableRecord
100
AcDbLayerTableRecord
  2
0_18
 70
     0
 62
     7
  6
Continuous
370
    -3
390
F
  0
LAYER
  5
79
330
2
100
AcDbSymbolTableRecord
100
AcDbLayerTableRecord
  2
SLD-0
 70
     0
 62
   179
  6
Continuous
370
    -3
390
F
  0
LAYER
  5
7A
330
2
100
AcDbSymbolTableRecord
100
AcDbLayerTableRecord
  2
KOTY
 70
     0
 62
     7
  6
Continuous
370
    -3
390
F
  0
LAYER
  5
7B
330
2
100
AcDbSymbolTableRecord
100
AcDbLayerTableRecord
  2
SILNA
 70
     0
 62
   179
  6
Continuous
370
    -3
390
F
  0
LAYER
  5
7C
330
2
100
AcDbSymbolTableRecord
100
AcDbLayerTableRecord
  2
0_18_1
 70
     0
 62
   179
  6
Continuous
370
    -3
390
F
  0
LAYER
  5
7D
330
2
100
AcDbSymbolTableRecord
100
AcDbLayerTableRecord
  2
0_35_1
 70
     0
 62
   179
  6
Continuous
370
    35
390
F
  0
LAYER
  5
7E
330
2
100
AcDbSymbolTableRecord
100
AcDbLayerTableRecord
  2
0_5_1
 70
     0
 62
   179
  6
Continuous
370
    50
390
F
  0
ENDTAB
  0
TABLE
  2
STYLE
  5
3
330
0
100
AcDbSymbolTable
 70
     1
  0
STYLE
  5
11
330
3
100
AcDbSymbolTableRecord
100
AcDbTextStyleTableRecord
  2
Standard
 70
     0
 40
0.0
 41
1.0
 50
0.0
 71
     0
 42
2.0
  3
txt
  4

  0
ENDTAB
  0
TABLE
  2
VIEW
  5
6
330
0
100
AcDbSymbolTable
 70
     0
  0
ENDTAB
  0
TABLE
  2
UCS
  5
7
330
0
100
AcDbSymbolTable
 70
     0
  0
ENDTAB
  0
TABLE
  2
APPID
  5
9
330
0
100
AcDbSymbolTable
 70
     1
  0
APPID
  5
12
330
9
100
AcDbSymbolTableRecord
100
AcDbRegAppTableRecord
  2
ACAD
 70
     0
  0
ENDTAB
  0
TABLE
  2
DIMSTYLE
  5
A
330
0
100
AcDbSymbolTable
 70
     1
100
AcDbDimStyleTable
  0
DIMSTYLE
105
27
330
A
100
AcDbSymbolTableRecord
100
AcDbDimStyleTableRecord
  2
ISO-25
 70
     0
 41
2.5
 42
0.625
 43
3.75
 44
1.25
 73
     0
 74
     0
 77
     1
 78
     8
140
2.5
141
2.5
143
0.0393700787
147
0.625
171
     3
172
     1
178
     0
271
     2
272
     2
274
     3
278
    44
283
     0
284
     8
340
11
  0
ENDTAB
  0
TABLE
  2
BLOCK_RECORD
  5
1
330
0
100
AcDbSymbolTable
 70
     1
  0
BLOCK_RECORD
  5
1F
330
1
100
AcDbSymbolTableRecord
100
AcDbBlockTableRecord
  2
*Model_Space
340
22
  0
BLOCK_RECORD
  5
1B
330
1
100
AcDbSymbolTableRecord
100
AcDbBlockTableRecord
  2
*Paper_Space
340
1E
  0
BLOCK_RECORD
  5
23
330
1
100
AcDbSymbolTableRecord
100
AcDbBlockTableRecord
  2
*Paper_Space0
340
26
  0
ENDTAB
  0
ENDSEC
  0
SECTION
  2
BLOCKS
  0
BLOCK
  5
20
330
1F
100
AcDbEntity
  8
0
100
AcDbBlockBegin
  2
*Model_Space
 70
     0
 10
0.0
 20
0.0
 30
0.0
  3
*Model_Space
  1

  0
ENDBLK
  5
21
330
1F
100
AcDbEntity
  8
0
100
AcDbBlockEnd
  0
BLOCK
  5
1C
330
1B
100
AcDbEntity
 67
     1
  8
0
100
AcDbBlockBegin
  2
*Paper_Space
 70
     0
 10
0.0
 20
0.0
 30
0.0
  3
*Paper_Space
  1

  0
ENDBLK
  5
1D
330
1B
100
AcDbEntity
 67
     1
  8
0
100
AcDbBlockEnd
  0
BLOCK
  5
24
330
23
100
AcDbEntity
  8
0
100
AcDbBlockBegin
  2
*Paper_Space0
 70
     0
 10
0.0
 20
0.0
 30
0.0
  3
*Paper_Space0
  1

  0
ENDBLK
  5
25
330
23
100
AcDbEntity
  8
0
100
AcDbBlockEnd
  0
ENDSEC
  0
SECTION
  2
ENTITIES
  0
LINE
  5
7F
330
1F
100
AcDbEntity
  8
0
  6
Continuous
 62
     7
370
    25
100
AcDbLine
 10
5785.5187553361
 20
5178.9578414649
 30
0.0
 11
5785.5187553361
 21
5144.1594129263
 31
0.0
  0
LINE
  5
80
330
1F
100
AcDbEntity
  8
0
  6
Continuous
 62
     7
370
    25
100
AcDbLine
 10
5785.5187553361
 20
5130.1594129263
 30
0.0
 11
5785.5187553361
 21
5127.6594129263
 31
0.0
  0
LINE
  5
81
330
1F
100
AcDbEntity
  8
0
  6
Continuous
 62
     7
370
    25
100
AcDbLine
 10
5817.5187553361
 20
5127.6594129263
 30
0.0
 11
5817.5187553361
 21
5130.1594129263
 31
0.0
  0
LINE
  5
82
330
1F
100
AcDbEntity
  8
0
  6
Continuous
 62
     7
370
    25
100
AcDbLine
 10
5817.5187553361
 20
5144.1594129263
 30
0.0
 11
5817.5187553361
 21
5178.9578414649
 31
0.0
  0
LINE
  5
83
330
1F
100
AcDbEntity
  8
0
  6
Continuous
 62
     7
370
    25
100
AcDbLine
 10
5835.5187553361
 20
5067.6594129263
 30
0.0
 11
5828.8281970913
 21
5125.007055025
 31
0.0
  0
LINE
  5
84
330
1F
100
AcDbEntity
  8
0
  6
Continuous
 62
     7
370
    25
100
AcDbLine
 10
5774.2093135809
 20
5125.007055025
 30
0.0
 11
5767.5187553361
 21
5067.6594129263
 31
0.0
  0
LINE
  5
85
330
1F
100
AcDbEntity
  8
0
  6
Continuous
 62
     7
370
    25
100
AcDbLine
 10
5767.5187553361
 20
5067.6594129263
 30
0.0
 11
5774.412541056
 21
5000.353737065
 31
0.0
  0
LINE
  5
86
330
1F
100
AcDbEntity
  8
0
  6
Continuous
 62
     7
370
    25
100
AcDbLine
 10
5828.6249696162
 20
5000.353737065
 30
0.0
 11
5835.5187553361
 21
5067.6594129263
 31
0.0
  0
ARC
  5
87
330
1F
100
AcDbEntity
  8
0
  6
Continuous
 62
     7
370
    25
100
AcDbCircle
 10
5777.1891029982
 20
5124.6594129263
 30
0.0
 40
3.0
100
AcDbArc
 50
90.0
 51
173.345574954
  0
ARC
  5
88
330
1F
100
AcDbEntity
  8
0
  6
Continuous
 62
     7
370
    25
100
AcDbCircle
 10
5825.848407674
 20
5124.6594129263
 30
0.0
 40
3.0
100
AcDbArc
 50
6.654425046
 51
90.0
  0
ARC
  5
89
330
1F
100
AcDbEntity
  8
0
  6
Continuous
 62
     7
370
    25
100
AcDbCircle
 10
5777.3969274699
 20
5000.6594129263
 30
0.0
 40
3.000000000000332
100
AcDbArc
 50
185.8481280261
 51
270.0
  0
ARC
  5
8A
330
1F
100
AcDbEntity
  8
0
  6
Continuous
 62
     7
370
    25
100
AcDbCircle
 10
5825.6405832023
 20
5000.6594129263
 30
0.0
 40
3.000000000000332
100
AcDbArc
 50
270.0
 51
354.1518719739
  0
LINE
  5
8B
330
1F
100
AcDbEntity
  8
0
  6
Continuous
 62
     7
370
    25
100
AcDbLine
 10
5826.5187553361
 20
5130.1594129263
 30
0.0
 11
5824.5187553361
 21
5134.1594129263
 31
0.0
  0
LINE
  5
8C
330
1F
100
AcDbEntity
  8
0
  6
Continuous
 62
     7
370
    25
100
AcDbLine
 10
5778.5187553361
 20
5134.1594129263
 30
0.0
 11
5776.5187553361
 21
5130.1594129263
 31
0.0
  0
ARC
  5
8D
330
1F
100
AcDbEntity
  8
0
  6
Continuous
 62
     7
370
    25
100
AcDbCircle
 10
5781.5187553361
 20
5141.1594129263
 30
0.0
 40
3.0
100
AcDbArc
 50
90.0
 51
180.0
  0
ARC
  5
8E
330
1F
100
AcDbEntity
  8
0
  6
Continuous
 62
     7
370
    25
100
AcDbCircle
 10
5821.5187553361
 20
5141.1594129263
 30
0.0
 40
3.000000000000909
100
AcDbArc
 50
0.0
 51
90.0
  0
LINE
  5
8F
330
1F
100
AcDbEntity
  8
0
  6
Continuous
 62
     7
370
    25
100
AcDbLine
 10
5778.5187553361
 20
5141.1594129263
 30
0.0
 11
5778.5187553361
 21
5134.1594129263
 31
0.0
  0
LINE
  5
90
330
1F
100
AcDbEntity
  8
0
  6
Continuous
 62
     7
370
    25
100
AcDbLine
 10
5824.5187553361
 20
5134.1594129263
 30
0.0
 11
5824.5187553361
 21
5141.1594129263
 31
0.0
  0
ARC
  5
91
330
1F
100
AcDbEntity
  8
0
  6
Continuous
 62
     7
370
    25
100
AcDbCircle
 10
5771.0187553361
 20
5809.4235408582
 30
0.0
 40
37.0000000000005
100
AcDbArc
 50
75.2574286589
 51
104.7425713411
  0
LINE
  5
92
330
1F
100
AcDbEntity
  8
0
  6
Continuous
 62
     7
370
    25
100
AcDbLine
 10
5972.4280978276
 20
5725.0484989679
 30
0.0
 11
5972.5187553333
 21
5724.9578414622
 31
0.0
  0
LINE
  5
93
330
1F
100
AcDbEntity
  8
0
  6
Continuous
 62
     7
370
    25
100
AcDbLine
 10
5975.5187553333
 20
5724.9578414622
 30
0.0
 11
5975.6094128384
 21
5725.0484989672
 31
0.0
  0
LINE
  5
94
330
1F
100
AcDbEntity
  8
0
  6
Continuous
 62
     7
370
    25
100
AcDbLine
 10
6572.4280978268
 20
5725.0484989679
 30
0.0
 11
6572.5187553329
 21
5724.9578414618
 31
0.0
  0
LINE
  5
95
330
1F
100
AcDbEntity
  8
0
  6
Continuous
 62
     7
370
    25
100
AcDbLine
 10
6575.5187553329
 20
5724.9578414618
 30
0.0
 11
6575.6094128383
 21
5725.0484989672
 31
0.0
  0
LINE
  5
96
330
1F
100
AcDbEntity
  8
0
  6
Continuous
 62
     7
370
    25
100
AcDbLine
 10
6564.7687553357
 20
5730.7986621194
 30
0.0
 11
6564.7687553357
 21
5730.1949584781
 31
0.0
  0
LINE
  5
97
330
1F
100
AcDbEntity
  8
0
  6
Continuous
 62
     7
370
    25
100
AcDbLine
 10
6583.2687553357
 20
5730.1949584781
 30
0.0
 11
6583.2687553357
 21
5730.7986621196
 31
0.0
  0
LINE
  5
98
330
1F
100
AcDbEntity
  8
0
  6
Continuous
 62
     7
370
    25
100
AcDbLine
 10
6581.5187553357
 20
5731.1608843044
 30
0.0
 11
6581.5187553357
 21
5731.3614401508
 31
0.0
  0
LINE
  5
99
330
1F
100
AcDbEntity
  8
0
  6
Continuous
 62
     7
370
    25
100
AcDbLine
 10
6566.5187553357
 20
5731.8575686919
 30
0.0
 11
6566.5187553357
 21
5731.1608843044
 31
0.0
  0
LINE
  5
9A
330
1F
100
AcDbEntity
  8
0
  6
Continuous
 62
     7
370
    25
100
AcDbLine
 10
5964.7687553357
 20
5730.7986621194
 30
0.0
 11
5964.7687553357
 21
5730.1949584781
 31
0.0
  0
LINE
  5
9B
330
1F
100
AcDbEntity
  8
0
  6
Continuous
 62
     7
370
    25
100
AcDbLine
 10
5983.2687553357
 20
5730.1949584781
 30
0.0
 11
5983.2687553357
 21
5730.7986621196
 31
0.0
  0
LINE
  5
9C
330
1F
100
AcDbEntity
  8
0
  6
Continuous
 62
     7
370
    25
100
AcDbLine
 10
5981.5187553357
 20
5731.1608843044
 30
0.0
 11
5981.5187553357
 21
5731.3614401508
 31
0.0
  0
LINE
  5
9D
330
1F
100
AcDbEntity
  8
0
  6
Continuous
 62
     7
370
    25
100
AcDbLine
 10
5966.5187553357
 20
5731.857568692
 30
0.0
 11
5966.5187553357
 21
5731.1608843044
 31
0.0
  0
LINE
  5
9E
330
1F
100
AcDbEntity
  8
0
  6
Continuous
 62
     7
370
    25
100
AcDbLine
 10
6575.6687553358
 20
5725.0529736777
 30
0.0
 11
6575.6687553358
 21
5725.055413619
 31
0.0
  0
LINE
  5
9F
330
1F
100
AcDbEntity
  8
0
  6
Continuous
 62
     7
370
    25
100
AcDbLine
 10
5975.6687553358
 20
5725.0529736777
 30
0.0
 11
5975.6687553358
 21
5725.0554136191
 31
0.0
  0
LINE
  5
A0
330
1F
100
AcDbEntity
  8
0
  6
Continuous
 62
     7
370
    25
100
AcDbLine
 10
6872.0187553361
 20
4590.9578414649
 30
0.0
 11
6872.0187553361
 21
4586.9578414649
 31
0.0
  0
LINE
  5
A1
330
1F
100
AcDbEntity
  8
0
  6
Continuous
 62
     7
370
    25
100
AcDbLine
 10
6882.0187553361
 20
4586.9578414649
 30
0.0
 11
6882.0187553361
 21
4590.9578414649
 31
0.0
  0
LINE
  5
A2
330
1F
100
AcDbEntity
  8
0
  6
Continuous
 62
     7
370
    25
100
AcDbLine
 10
5666.0187553361
 20
4590.9578414649
 30
0.0
 11
5666.0187553361
 21
4586.9578414649
 31
0.0
  0
LINE
  5
A3
330
1F
100
AcDbEntity
  8
0
  6
Continuous
 62
     7
370
    25
100
AcDbLine
 10
5676.0187553361
 20
4586.9578414649
 30
0.0
 11
5676.0187553361
 21
4590.9578414649
 31
0.0
  0
LINE
  5
A4
330
1F
100
AcDbEntity
  8
0
  6
Continuous
 62
     7
370
    25
100
AcDbLine
 10
6899.0187553361
 20
5848.4410677205
 30
0.0
 11
6897.0187553361
 21
5848.4410677205
 31
0.0
  0
LINE
  5
A5
330
1F
100
AcDbEntity
  8
0
  6
Continuous
 62
     7
370
    25
100
AcDbLine
 10
5651.0187553361
 20
5848.4410677205
 30
0.0
 11
5649.0187553361
 21
5848.4410677205
 31
0.0
  0
LINE
  5
A6
330
1F
100
AcDbEntity
  8
0
  6
Continuous
 62
     7
370
    25
100
AcDbLine
 10
6897.0187553361
 20
5848.4410677205
 30
0.0
 11
5651.0187553361
 21
5848.4410677205
 31
0.0
  0
ARC
  5
A7
330
1F
100
AcDbEntity
  8
0
  6
Continuous
 62
     7
370
    25
100
AcDbCircle
 10
5801.5187553361
 20
5105.6594129263
 30
0.0
 40
40.00000000000065
100
AcDbArc
 50
27.6050232597
 51
54.9003678046
  0
ARC
  5
A8
330
1F
100
AcDbEntity
  8
0
  6
Continuous
 62
     7
370
    25
100
AcDbCircle
 10
5801.5187553361
 20
5105.6594129263
 30
0.0
 40
40.00000000000026
100
AcDbArc
 50
125.0996321954
 51
216.1070114058
  0
ARC
  5
A9
330
1F
100
AcDbEntity
  8
0
  6
Continuous
 62
     7
370
    25
100
AcDbCircle
 10
5801.5187553361
 20
5105.6594129263
 30
0.0
 40
40.00000000000065
100
AcDbArc
 50
323.8929885942
 51
27.6050232597
  0
LINE
  5
AA
330
1F
100
AcDbEntity
  8
0
  6
Continuous
 62
     7
370
    25
100
AcDbLine
 10
5767.5187553361
 20
5067.6594129263
 30
0.0
 11
5835.5187553361
 21
5067.6594129263
 31
0.0
  0
LINE
  5
AB
330
1F
100
AcDbEntity
  8
0
  6
Continuous
 62
     7
370
    25
100
AcDbLine
 10
5777.1891029982
 20
5127.6594129263
 30
0.0
 11
5825.848407674
 21
5127.6594129263
 31
0.0
  0
LINE
  5
AC
330
1F
100
AcDbEntity
  8
0
  6
Continuous
 62
     7
370
    25
100
AcDbLine
 10
5777.3969274699
 20
4997.6594129263
 30
0.0
 11
5825.6405832023
 21
4997.6594129263
 31
0.0
  0
LINE
  5
AD
330
1F
100
AcDbEntity
  8
0
  6
Continuous
 62
     7
370
    25
100
AcDbLine
 10
5778.5187553361
 20
5134.1594129263
 30
0.0
 11
5824.5187553361
 21
5134.1594129263
 31
0.0
  0
LINE
  5
AE
330
1F
100
AcDbEntity
  8
0
  6
Continuous
 62
     7
370
    25
100
AcDbLine
 10
5776.5187553361
 20
5130.1594129263
 30
0.0
 11
5826.5187553361
 21
5130.1594129263
 31
0.0
  0
LINE
  5
AF
330
1F
100
AcDbEntity
  8
0
  6
Continuous
 62
     7
370
    25
100
AcDbLine
 10
5781.5187553361
 20
5144.1594129263
 30
0.0
 11
5821.5187553361
 21
5144.1594129263
 31
0.0
  0
LINE
  5
B0
330
1F
100
AcDbEntity
  8
0
  6
Continuous
 62
     7
370
    25
100
AcDbLine
 10
5818.0187553361
 20
5127.6594129263
 30
0.0
 11
5817.5187553361
 21
5128.0256821727
 31
0.0
  0
LINE
  5
B1
330
1F
100
AcDbEntity
  8
0
  6
Continuous
 62
     7
370
    25
100
AcDbLine
 10
5785.5187553361
 20
5128.0256821727
 30
0.0
 11
5785.0187553361
 21
5127.6594129263
 31
0.0
  0
LWPOLYLINE
  5
B2
330
1F
100
AcDbEntity
  8
0
  6
Continuous
 62
     7
370
    25
100
AcDbPolyline
 90
       14
 70
   128
 43
0.0
 10
5771.0187553361
 20
5841.1637665941
 10
5773.1025334681
 20
5841.2016703432
 10
5775.122997056
 20
5841.3142299042
 10
5777.0187553361
 20
5841.498025212
 10
5778.7322066523
 20
5841.7474717389
 10
5780.2112886535
 20
5842.0549901787
 10
5781.4110601815
 20
5842.411236739
 10
5782.2950667855
 20
5842.8053870484
 10
5782.8364483722
 20
5843.2254650492
 10
5783.0187553361
 20
5843.6587068839
 10
5782.8364483722
 20
5844.0919487186
 10
5782.2950667855
 20
5844.5120267194
 10
5781.4110601815
 20
5844.9061770288
 10
5780.4343882098
 20
5845.2054616785
  0
LWPOLYLINE
  5
B3
330
1F
100
AcDbEntity
  8
0
  6
Continuous
 62
     7
370
    25
100
AcDbPolyline
 90
       14
 70
   128
 43
0.0
 10
5761.6031224624
 20
5845.2054616785
 10
5760.6264504907
 20
5844.9061770288
 10
5759.7424438867
 20
5844.5120267194
 10
5759.2010623
 20
5844.0919487186
 10
5759.0187553361
 20
5843.6587068839
 10
5759.2010623
 20
5843.2254650492
 10
5759.7424438867
 20
5842.8053870484
 10
5760.6264504907
 20
5842.411236739
 10
5761.8262220187
 20
5842.0549901787
 10
5763.3053040199
 20
5841.7474717389
 10
5765.0187553361
 20
5841.498025212
 10
5766.9145136162
 20
5841.3142299042
 10
5768.9349772041
 20
5841.2016703432
 10
5771.0187553361
 20
5841.1637665941
  0
ARC
  5
B4
330
1F
100
AcDbEntity
  8
0
  6
Continuous
 62
     7
370
    25
100
AcDbCircle
 10
6693.2668477894
 20
5740.0291146483
 30
0.0
 40
0.6676186886570576
100
AcDbArc
 50
180.0
 51
0.0
  0
LINE
  5
B5
330
1F
100
AcDbEntity
  8
0
  6
Continuous
 62
     7
370
    25
100
AcDbLine
 10
6693.934466478
 20
5742.9701461829
 30
0.0
 11
6693.934466478
 21
5740.0291146483
 31
0.0
  0
ARC
  5
B6
330
1F
100
AcDbEntity
  8
0
  6
Continuous
 62
     7
370
    25
100
AcDbCircle
 10
6694.1745765943
 20
5742.9701461829
 30
0.0
 40
0.2401101162877239
100
AcDbArc
 50
90.0
 51
180.0
  0
LINE
  5
B7
330
1F
100
AcDbEntity
  8
0
  6
Continuous
 62
     7
370
    25
100
AcDbLine
 10
6694.7989897732
 20
5743.2102562991
 30
0.0
 11
6694.1745765943
 21
5743.2102562991
 31
0.0
  0
ARC
  5
B8
330
1F
100
AcDbEntity
  8
0
  6
Continuous
 62
     7
370
    25
100
AcDbCircle
 10
6694.7989897732
 20
5742.9701461829
 30
0.0
 40
0.2401101162877239
100
AcDbArc
 50
0.0
 51
90.0
  0
LINE
  5
B9
330
1F
100
AcDbEntity
  8
0
  6
Continuous
 62
     7
370
    25
100
AcDbLine
 10
6695.0390998895
 20
5740.0291146483
 30
0.0
 11
6695.0390998895
 21
5742.9701461829
 31
0.0
  0
ARC
  5
BA
330
1F
100
AcDbEntity
  8
0
  6
Continuous
 62
     7
370
    25
100
AcDbCircle
 10
6695.7067185782
 20
5740.0291146483
 30
0.0
 40
0.6676186886570576
100
AcDbArc
 50
180.0
 51
0.0
  0
LINE
  5
BB
330
1F
100
AcDbEntity
  8
0
  6
Continuous
 62
     7
370
    25
100
AcDbLine
 10
6696.3743372668
 20
5742.4609919477
 30
0.0
 11
6696.3743372668
 21
5740.0291146483
 31
0.0
  0
ARC
  5
BC
330
1F
100
AcDbEntity
  8
0
  6
Continuous
 62
     7
370
    25
100
AcDbCircle
 10
6696.6144473831
 20
5742.4609919477
 30
0.0
 40
0.2401101162886334
100
AcDbArc
 50
90.0
 51
180.0
  0
LINE
  5
BD
330
1F
100
AcDbEntity
  8
0
  6
Continuous
 62
     7
370
    25
100
AcDbLine
 10
6697.361566925
 20
5742.701102064
 30
0.0
 11
6696.6144473831
 21
5742.701102064
 31
0.0
  0
ARC
  5
BE
330
1F
100
AcDbEntity
  8
0
  6
Continuous
 62
     7
370
    25
100
AcDbCircle
 10
6697.361566925
 20
5742.4609919477
 30
0.0
 40
0.2401101162886334
100
AcDbArc
 50
0.0
 51
90.0
  0
LINE
  5
BF
330
1F
100
AcDbEntity
  8
0
  6
Continuous
 62
     7
370
    25
100
AcDbLine
 10
6697.6016770413
 20
5740.0291146483
 30
0.0
 11
6697.6016770413
 21
5742.4609919477
 31
0.0
  0
ARC
  5
C0
330
1F
100
AcDbEntity
  8
0
  6
Continuous
 62
     7
370
    25
100
AcDbCircle
 10
6698.2692957299
 20
5740.0291146483
 30
0.0
 40
0.6676186886570576
100
AcDbArc
 50
180.0
 51
0.0
  0
LINE
  5
C1
330
1F
100
AcDbEntity
  8
0
  6
Continuous
 62
     7
370
    25
100
AcDbLine
 10
6698.9369144186
 20
5741.544641639
 30
0.0
 11
6698.9369144186
 21
5740.0291146483
 31
0.0
  0
ARC
  5
C2
330
1F
100
AcDbEntity
  8
0
  6
Continuous
 62
     7
370
    25
100
AcDbCircle
 10
6699.1770245349
 20
5741.544641639
 30
0.0
 40
0.2401101162868144
100
AcDbArc
 50
90.0
 51
180.0000000002
  0
LINE
  5
C3
330
1F
100
AcDbEntity
  8
0
  6
Continuous
 62
     7
370
    25
100
AcDbLine
 10
6699.8390522594
 20
5741.7847517553
 30
0.0
 11
6699.1770245349
 21
5741.7847517553
 31
0.0
  0
ARC
  5
C4
330
1F
100
AcDbEntity
  8
0
  6
Continuous
 62
     7
370
    25
100
AcDbCircle
 10
6699.8390522594
 20
5741.544641639
 30
0.0
 40
0.2401101162877239
100
AcDbArc
 50
0.0
 51
90.0
  0
LINE
  5
C5
330
1F
100
AcDbEntity
  8
0
  6
Continuous
 62
     7
370
    25
100
AcDbLine
 10
6700.0791623757
 20
5733.6614793582
 30
0.0
 11
6700.0791623757
 21
5741.544641639
 31
0.0
  0
ARC
  5
C6
330
1F
100
AcDbEntity
  8
0
  6
Continuous
 62
     7
370
    25
100
AcDbCircle
 10
6696.5531618251
 20
5733.6614793582
 30
0.0
 40
3.526000550637946
100
AcDbArc
 50
270.0
 51
0.0
  0
LINE
  5
C7
330
1F
100
AcDbEntity
  8
0
  6
Continuous
 62
     7
370
    25
100
AcDbLine
 10
6694.1859374181
 20
5730.1354788075
 30
0.0
 11
6696.5531618251
 21
5730.1354788075
 31
0.0
  0
ARC
  5
C8
330
1F
100
AcDbEntity
  8
0
  6
Continuous
 62
     7
370
    25
100
AcDbCircle
 10
6694.1859374181
 20
5735.4284091353
 30
0.0
 40
5.292930327734211
100
AcDbArc
 50
180.0
 51
270.0
  0
LINE
  5
C9
330
1F
100
AcDbEntity
  8
0
  6
Continuous
 62
     7
370
    25
100
AcDbLine
 10
6688.8930070904
 20
5739.8745168974
 30
0.0
 11
6688.8930070904
 21
5735.4284091353
 31
0.0
  0
ARC
  5
CA
330
1F
100
AcDbEntity
  8
0
  6
Continuous
 62
     7
370
    25
100
AcDbCircle
 10
6688.549693047
 20
5738.3738745346
 30
0.0
 40
1.539412885871924
100
AcDbArc
 50
0.0
 51
77.1137478469
  0
LINE
  5
CB
330
1F
100
AcDbEntity
  8
0
  6
Continuous
 62
     7
370
    25
100
AcDbLine
 10
6690.0891059329
 20
5736.4194536526
 30
0.0
 11
6690.0891059329
 21
5738.3738745346
 31
0.0
  0
ARC
  5
CC
330
1F
100
AcDbEntity
  8
0
  6
Continuous
 62
     7
370
    25
100
AcDbCircle
 10
6690.7567246216
 20
5736.4194536526
 30
0.0
 40
0.6676186886570576
100
AcDbArc
 50
180.0
 51
0.0
  0
LINE
  5
CD
330
1F
100
AcDbEntity
  8
0
  6
Continuous
 62
     7
370
    25
100
AcDbLine
 10
6691.4243433102
 20
5747.6999549224
 30
0.0
 11
6691.4243433102
 21
5736.4194536526
 31
0.0
  0
LINE
  5
CE
330
1F
100
AcDbEntity
  8
0
  6
Continuous
 62
     7
370
    25
100
AcDbLine
 10
6692.5992291007
 20
5740.0291146483
 30
0.0
 11
6692.5992291007
 21
5747.6999549224
 31
0.0
  0
ARC
  5
CF
330
1F
100
AcDbEntity
  8
0
  6
Continuous
 62
     7
370
    25
100
AcDbCircle
 10
6692.0117862055
 20
5747.6999549224
 30
0.0
 40
0.5874428952447488
100
AcDbArc
 50
0.0
 51
180.0
  0
CIRCLE
  5
D0
330
1F
100
AcDbEntity
  8
0
  6
Continuous
 62
     7
370
    25
100
AcDbCircle
 10
6694.0187553361
 20
5738.9578414649
 30
0.0
 40
12.5
  0
LINE
  5
D1
330
1F
100
AcDbEntity
  8
0
  6
Continuous
 62
     7
370
    25
100
AcDbLine
 10
6693.6288291007
 20
5744.1542352779
 30
0.0
 11
6693.6288291007
 21
5747.6999549224
 31
0.0
  0
LINE
  5
D2
330
1F
100
AcDbEntity
  8
0
  6
Continuous
 62
     7
370
    25
100
AcDbLine
 10
6690.3947433102
 20
5747.6999549224
 30
0.0
 11
6690.3947433102
 21
5740.1615033367
 31
0.0
  0
ARC
  5
D3
330
1F
100
AcDbEntity
  8
0
  6
Continuous
 62
     7
370
    25
100
AcDbCircle
 10
6688.549693047
 20
5738.3738745346
 30
0.0
 40
2.569012885872036
100
AcDbArc
 50
44.0944057146
 51
105.4941474424
  0
LINE
  5
D4
330
1F
100
AcDbEntity
  8
0
  6
Continuous
 62
     7
370
    25
100
AcDbLine
 10
6687.8634070904
 20
5740.8495237007
 30
0.0
 11
6687.8634070904
 21
5735.4284091353
 31
0.0
  0
ARC
  5
D5
330
1F
100
AcDbEntity
  8
0
  6
Continuous
 62
     7
370
    25
100
AcDbCircle
 10
6694.1859374181
 20
5735.4284091353
 30
0.0
 40
6.322530327734057
100
AcDbArc
 50
180.0
 51
270.0
  0
LINE
  5
D6
330
1F
100
AcDbEntity
  8
0
  6
Continuous
 62
     7
370
    25
100
AcDbLine
 10
6694.1859374181
 20
5729.1058788075
 30
0.0
 11
6696.5531618251
 21
5729.1058788075
 31
0.0
  0
ARC
  5
D7
330
1F
100
AcDbEntity
  8
0
  6
Continuous
 62
     7
370
    25
100
AcDbCircle
 10
6696.5531618251
 20
5733.6614793582
 30
0.0
 40
4.555600550637791
100
AcDbArc
 50
270.0
 51
0.0
  0
LINE
  5
D8
330
1F
100
AcDbEntity
  8
0
  6
Continuous
 62
     7
370
    25
100
AcDbLine
 10
6701.1087623757
 20
5733.6614793582
 30
0.0
 11
6701.1087623757
 21
5741.4982498865
 31
0.0
  0
ARC
  5
D9
330
1F
100
AcDbEntity
  8
0
  6
Continuous
 62
     7
370
    25
100
AcDbCircle
 10
6699.7551511295
 20
5741.4982498865
 30
0.0
 40
1.353611246208857
100
AcDbArc
 50
0.0
 51
90.0
  0
LINE
  5
DA
330
1F
100
AcDbEntity
  8
0
  6
Continuous
 62
     7
370
    25
100
AcDbLine
 10
6699.7551511295
 20
5742.8518611327
 30
0.0
 11
6699.2609256648
 21
5742.8518611327
 31
0.0
  0
ARC
  5
DB
330
1F
100
AcDbEntity
  8
0
  6
Continuous
 62
     7
370
    25
100
AcDbCircle
 10
6699.2609256648
 20
5741.4982498865
 30
0.0
 40
1.353611246208857
100
AcDbArc
 50
90.0
 51
118.7365577358
  0
ARC
  5
DC
330
1F
100
AcDbEntity
  8
0
  6
Continuous
 62
     7
370
    25
100
AcDbCircle
 10
6697.2776657951
 20
5742.4468298099
 30
0.0
 40
1.353611246209766
100
AcDbArc
 50
10.1404867648
 51
90.0
  0
LINE
  5
DD
330
1F
100
AcDbEntity
  8
0
  6
Continuous
 62
     7
370
    25
100
AcDbLine
 10
6697.2776657951
 20
5743.8004410561
 30
0.0
 11
6696.698348513
 21
5743.8004410561
 31
0.0
  0
ARC
  5
DE
330
1F
100
AcDbEntity
  8
0
  6
Continuous
 62
     7
370
    25
100
AcDbCircle
 10
6696.698348513
 20
5742.4468298099
 30
0.0
 40
1.353611246209766
100
AcDbArc
 50
90.0
 51
124.744002227
  0
ARC
  5
DF
330
1F
100
AcDbEntity
  8
0
  6
Continuous
 62
     7
370
    25
100
AcDbCircle
 10
6694.7150886433
 20
5742.9559840451
 30
0.0
 40
1.353611246207947
100
AcDbArc
 50
26.4592691593
 51
90.0
  0
LINE
  5
E0
330
1F
100
AcDbEntity
  8
0
  6
Continuous
 62
     7
370
    25
100
AcDbLine
 10
6694.7150886433
 20
5744.3095952913
 30
0.0
 11
6694.2584777242
 21
5744.3095952913
 31
0.0
  0
ARC
  5
E1
330
1F
100
AcDbEntity
  8
0
  6
Continuous
 62
     7
370
    25
100
AcDbCircle
 10
6694.2584777242
 20
5742.9559840451
 30
0.0
 40
1.353611246208857
100
AcDbArc
 50
90.0
 51
117.7207121261
  0
ARC
  5
E2
330
1F
100
AcDbEntity
  8
0
  6
Continuous
 62
     7
370
    25
100
AcDbCircle
 10
6692.0117862055
 20
5747.6999549224
 30
0.0
 40
1.617042895244595
100
AcDbArc
 50
0.0
 51
180.0
  0
CIRCLE
  5
E3
330
1F
100
AcDbEntity
  8
0
  6
Continuous
 62
     7
370
    25
100
AcDbCircle
 10
6694.0187553361
 20
5738.9578414649
 30
0.0
 40
14.0
  0
ARC
  5
E4
330
1F
100
AcDbEntity
  8
0
  6
Continuous
 62
     7
370
    25
100
AcDbCircle
 10
6093.2668477894
 20
5740.0291146483
 30
0.0
 40
0.6676186886561482
100
AcDbArc
 50
180.0
 51
0.0
  0
LINE
  5
E5
330
1F
100
AcDbEntity
  8
0
  6
Continuous
 62
     7
370
    25
100
AcDbLine
 10
6093.934466478
 20
5742.9701461829
 30
0.0
 11
6093.934466478
 21
5740.0291146483
 31
0.0
  0
ARC
  5
E6
330
1F
100
AcDbEntity
  8
0
  6
Continuous
 62
     7
370
    25
100
AcDbCircle
 10
6094.1745765943
 20
5742.9701461829
 30
0.0
 40
0.2401101162877239
100
AcDbArc
 50
90.0
 51
180.0
  0
LINE
  5
E7
330
1F
100
AcDbEntity
  8
0
  6
Continuous
 62
     7
370
    25
100
AcDbLine
 10
6094.7989897732
 20
5743.2102562991
 30
0.0
 11
6094.1745765943
 21
5743.2102562991
 31
0.0
  0
ARC
  5
E8
330
1F
100
AcDbEntity
  8
0
  6
Continuous
 62
     7
370
    25
100
AcDbCircle
 10
6094.7989897732
 20
5742.9701461829
 30
0.0
 40
0.2401101162877239
100
AcDbArc
 50
0.0
 51
90.0
  0
LINE
  5
E9
330
1F
100
AcDbEntity
  8
0
  6
Continuous
 62
     7
370
    25
100
AcDbLine
 10
6095.0390998895
 20
5740.0291146483
 30
0.0
 11
6095.0390998895
 21
5742.9701461829
 31
0.0
  0
ARC
  5
EA
330
1F
100
AcDbEntity
  8
0
  6
Continuous
 62
     7
370
    25
100
AcDbCircle
 10
6095.7067185782
 20
5740.0291146483
 30
0.0
 40
0.6676186886570576
100
AcDbArc
 50
180.0
 51
0.0
  0
LINE
  5
EB
330
1F
100
AcDbEntity
  8
0
  6
Continuous
 62
     7
370
    25
100
AcDbLine
 10
6096.3743372668
 20
5742.4609919477
 30
0.0
 11
6096.3743372668
 21
5740.0291146483
 31
0.0
  0
ARC
  5
EC
330
1F
100
AcDbEntity
  8
0
  6
Continuous
 62
     7
370
    25
100
AcDbCircle
 10
6096.6144473831
 20
5742.4609919477
 30
0.0
 40
0.2401101162886334
100
AcDbArc
 50
90.0
 51
180.0
  0
LINE
  5
ED
330
1F
100
AcDbEntity
  8
0
  6
Continuous
 62
     7
370
    25
100
AcDbLine
 10
6097.361566925
 20
5742.701102064
 30
0.0
 11
6096.6144473831
 21
5742.701102064
 31
0.0
  0
ARC
  5
EE
330
1F
100
AcDbEntity
  8
0
  6
Continuous
 62
     7
370
    25
100
AcDbCircle
 10
6097.361566925
 20
5742.4609919477
 30
0.0
 40
0.2401101162886334
100
AcDbArc
 50
0.0
 51
90.0
  0
LINE
  5
EF
330
1F
100
AcDbEntity
  8
0
  6
Continuous
 62
     7
370
    25
100
AcDbLine
 10
6097.6016770413
 20
5740.0291146483
 30
0.0
 11
6097.6016770413
 21
5742.4609919477
 31
0.0
  0
ARC
  5
F0
330
1F
100
AcDbEntity
  8
0
  6
Continuous
 62
     7
370
    25
100
AcDbCircle
 10
6098.2692957299
 20
5740.0291146483
 30
0.0
 40
0.6676186886570576
100
AcDbArc
 50
180.0
 51
0.0
  0
LINE
  5
F1
330
1F
100
AcDbEntity
  8
0
  6
Continuous
 62
     7
370
    25
100
AcDbLine
 10
6098.9369144186
 20
5741.544641639
 30
0.0
 11
6098.9369144186
 21
5740.0291146483
 31
0.0
  0
ARC
  5
F2
330
1F
100
AcDbEntity
  8
0
  6
Continuous
 62
     7
370
    25
100
AcDbCircle
 10
6099.1770245349
 20
5741.544641639
 30
0.0
 40
0.2401101162886334
100
AcDbArc
 50
90.0
 51
180.0000000002
  0
LINE
  5
F3
330
1F
100
AcDbEntity
  8
0
  6
Continuous
 62
     7
370
    25
100
AcDbLine
 10
6099.8390522594
 20
5741.7847517553
 30
0.0
 11
6099.1770245349
 21
5741.7847517553
 31
0.0
  0
ARC
  5
F4
330
1F
100
AcDbEntity
  8
0
  6
Continuous
 62
     7
370
    25
100
AcDbCircle
 10
6099.8390522594
 20
5741.544641639
 30
0.0
 40
0.2401101162877239
100
AcDbArc
 50
0.0
 51
90.0
  0
LINE
  5
F5
330
1F
100
AcDbEntity
  8
0
  6
Continuous
 62
     7
370
    25
100
AcDbLine
 10
6100.0791623757
 20
5733.6614793582
 30
0.0
 11
6100.0791623757
 21
5741.544641639
 31
0.0
  0
ARC
  5
F6
330
1F
100
AcDbEntity
  8
0
  6
Continuous
 62
     7
370
    25
100
AcDbCircle
 10
6096.5531618251
 20
5733.6614793582
 30
0.0
 40
3.526000550638855
100
AcDbArc
 50
270.0
 51
0.0
  0
LINE
  5
F7
330
1F
100
AcDbEntity
  8
0
  6
Continuous
 62
     7
370
    25
100
AcDbLine
 10
6094.1859374181
 20
5730.1354788075
 30
0.0
 11
6096.5531618251
 21
5730.1354788075
 31
0.0
  0
ARC
  5
F8
330
1F
100
AcDbEntity
  8
0
  6
Continuous
 62
     7
370
    25
100
AcDbCircle
 10
6094.1859374181
 20
5735.4284091353
 30
0.0
 40
5.292930327734211
100
AcDbArc
 50
180.0
 51
270.0
  0
LINE
  5
F9
330
1F
100
AcDbEntity
  8
0
  6
Continuous
 62
     7
370
    25
100
AcDbLine
 10
6088.8930070904
 20
5739.8745168974
 30
0.0
 11
6088.8930070904
 21
5735.4284091353
 31
0.0
  0
ARC
  5
FA
330
1F
100
AcDbEntity
  8
0
  6
Continuous
 62
     7
370
    25
100
AcDbCircle
 10
6088.549693047
 20
5738.3738745346
 30
0.0
 40
1.539412885871721
100
AcDbArc
 50
0.0
 51
77.1137478469
  0
LINE
  5
FB
330
1F
100
AcDbEntity
  8
0
  6
Continuous
 62
     7
370
    25
100
AcDbLine
 10
6090.0891059329
 20
5736.4194536526
 30
0.0
 11
6090.0891059329
 21
5738.3738745346
 31
0.0
  0
ARC
  5
FC
330
1F
100
AcDbEntity
  8
0
  6
Continuous
 62
     7
370
    25
100
AcDbCircle
 10
6090.7567246216
 20
5736.4194536526
 30
0.0
 40
0.6676186886561482
100
AcDbArc
 50
180.0
 51
0.0
  0
LINE
  5
FD
330
1F
100
AcDbEntity
  8
0
  6
Continuous
 62
     7
370
    25
100
AcDbLine
 10
6091.4243433102
 20
5747.6999549224
 30
0.0
 11
6091.4243433102
 21
5736.4194536526
 31
0.0
  0
LINE
  5
FE
330
1F
100
AcDbEntity
  8
0
  6
Continuous
 62
     7
370
    25
100
AcDbLine
 10
6092.5992291007
 20
5740.0291146483
 30
0.0
 11
6092.5992291007
 21
5747.6999549224
 31
0.0
  0
ARC
  5
FF
330
1F
100
AcDbEntity
  8
0
  6
Continuous
 62
     7
370
    25
100
AcDbCircle
 10
6092.0117862055
 20
5747.6999549224
 30
0.0
 40
0.5874428952456583
100
AcDbArc
 50
0.0
 51
180.0
  0
CIRCLE
  5
100
330
1F
100
AcDbEntity
  8
0
  6
Continuous
 62
     7
370
    25
100
AcDbCircle
 10
6094.0187553361
 20
5738.9578414649
 30
0.0
 40
12.5
  0
LINE
  5
101
330
1F
100
AcDbEntity
  8
0
  6
Continuous
 62
     7
370
    25
100
AcDbLine
 10
6093.6288291007
 20
5744.1542352779
 30
0.0
 11
6093.6288291007
 21
5747.6999549224
 31
0.0
  0
ARC
  5
102
330
1F
100
AcDbEntity
  8
0
  6
Continuous
 62
     7
370
    25
100
AcDbCircle
 10
6092.0117862055
 20
5747.6999549224
 30
0.0
 40
1.617042895244595
100
AcDbArc
 50
0.0
 51
180.0
  0
LINE
  5
103
330
1F
100
AcDbEntity
  8
0
  6
Continuous
 62
     7
370
    25
100
AcDbLine
 10
6090.3947433102
 20
5747.6999549224
 30
0.0
 11
6090.3947433102
 21
5740.1615033367
 31
0.0
  0
ARC
  5
104
330
1F
100
AcDbEntity
  8
0
  6
Continuous
 62
     7
370
    25
100
AcDbCircle
 10
6088.549693047
 20
5738.3738745346
 30
0.0
 40
2.569012885872463
100
AcDbArc
 50
44.0944057146
 51
105.4941474424
  0
LINE
  5
105
330
1F
100
AcDbEntity
  8
0
  6
Continuous
 62
     7
370
    25
100
AcDbLine
 10
6087.8634070904
 20
5740.8495237007
 30
0.0
 11
6087.8634070904
 21
5735.4284091353
 31
0.0
  0
ARC
  5
106
330
1F
100
AcDbEntity
  8
0
  6
Continuous
 62
     7
370
    25
100
AcDbCircle
 10
6094.1859374181
 20
5735.4284091353
 30
0.0
 40
6.322530327734057
100
AcDbArc
 50
180.0
 51
270.0
  0
LINE
  5
107
330
1F
100
AcDbEntity
  8
0
  6
Continuous
 62
     7
370
    25
100
AcDbLine
 10
6094.1859374181
 20
5729.1058788075
 30
0.0
 11
6096.5531618251
 21
5729.1058788075
 31
0.0
  0
ARC
  5
108
330
1F
100
AcDbEntity
  8
0
  6
Continuous
 62
     7
370
    25
100
AcDbCircle
 10
6096.5531618251
 20
5733.6614793582
 30
0.0
 40
4.555600550638701
100
AcDbArc
 50
270.0
 51
0.0
  0
LINE
  5
109
330
1F
100
AcDbEntity
  8
0
  6
Continuous
 62
     7
370
    25
100
AcDbLine
 10
6101.1087623757
 20
5733.6614793582
 30
0.0
 11
6101.1087623757
 21
5741.4982498865
 31
0.0
  0
ARC
  5
10A
330
1F
100
AcDbEntity
  8
0
  6
Continuous
 62
     7
370
    25
100
AcDbCircle
 10
6099.7551511295
 20
5741.4982498865
 30
0.0
 40
1.353611246209766
100
AcDbArc
 50
0.0
 51
90.0
  0
LINE
  5
10B
330
1F
100
AcDbEntity
  8
0
  6
Continuous
 62
     7
370
    25
100
AcDbLine
 10
6099.7551511295
 20
5742.8518611327
 30
0.0
 11
6099.2609256648
 21
5742.8518611327
 31
0.0
  0
ARC
  5
10C
330
1F
100
AcDbEntity
  8
0
  6
Continuous
 62
     7
370
    25
100
AcDbCircle
 10
6099.2609256648
 20
5741.4982498865
 30
0.0
 40
1.353611246208857
100
AcDbArc
 50
90.0
 51
118.7365577358
  0
ARC
  5
10D
330
1F
100
AcDbEntity
  8
0
  6
Continuous
 62
     7
370
    25
100
AcDbCircle
 10
6097.2776657951
 20
5742.4468298099
 30
0.0
 40
1.353611246209766
100
AcDbArc
 50
10.1404867648
 51
90.0
  0
LINE
  5
10E
330
1F
100
AcDbEntity
  8
0
  6
Continuous
 62
     7
370
    25
100
AcDbLine
 10
6097.2776657951
 20
5743.8004410561
 30
0.0
 11
6096.698348513
 21
5743.8004410561
 31
0.0
  0
ARC
  5
10F
330
1F
100
AcDbEntity
  8
0
  6
Continuous
 62
     7
370
    25
100
AcDbCircle
 10
6096.698348513
 20
5742.4468298099
 30
0.0
 40
1.353611246209766
100
AcDbArc
 50
90.0
 51
124.7440022271
  0
ARC
  5
110
330
1F
100
AcDbEntity
  8
0
  6
Continuous
 62
     7
370
    25
100
AcDbCircle
 10
6094.7150886433
 20
5742.9559840451
 30
0.0
 40
1.353611246207947
100
AcDbArc
 50
26.4592691593
 51
90.0
  0
LINE
  5
111
330
1F
100
AcDbEntity
  8
0
  6
Continuous
 62
     7
370
    25
100
AcDbLine
 10
6094.7150886433
 20
5744.3095952913
 30
0.0
 11
6094.2584777242
 21
5744.3095952913
 31
0.0
  0
ARC
  5
112
330
1F
100
AcDbEntity
  8
0
  6
Continuous
 62
     7
370
    25
100
AcDbCircle
 10
6094.2584777242
 20
5742.9559840451
 30
0.0
 40
1.35361124620922
100
AcDbArc
 50
90.0
 51
117.7207121261
  0
CIRCLE
  5
113
330
1F
100
AcDbEntity
  8
0
  6
Continuous
 62
     7
370
    25
100
AcDbCircle
 10
6094.0187553361
 20
5738.9578414649
 30
0.0
 40
14.0
  0
LINE
  5
114
330
1F
100
AcDbEntity
  8
0
  6
Continuous
 62
     7
370
    25
100
AcDbLine
 10
5975.5187553333
 20
5724.9578414622
 30
0.0
 11
5972.5187553333
 21
5724.9578414622
 31
0.0
  0
LINE
  5
115
330
1F
100
AcDbEntity
  8
0
  6
Continuous
 62
     7
370
    25
100
AcDbLine
 10
6575.5187553329
 20
5724.9578414618
 30
0.0
 11
6572.5187553329
 21
5724.9578414618
 31
0.0
  0
ARC
  5
116
330
1F
100
AcDbEntity
  8
0
  6
Continuous
 62
     7
370
    25
100
AcDbCircle
 10
6574.1283682083
 20
5761.0998300826
 30
0.0
 40
32.33234845701944
100
AcDbArc
 50
270.3195445578
 51
277.00524986
  0
ARC
  5
117
330
1F
100
AcDbEntity
  8
0
  6
Continuous
 62
     7
370
    25
100
AcDbCircle
 10
6575.9277318063
 20
5746.687160871
 30
0.0
 40
18.76440461087395
100
AcDbArc
 50
277.5095473836
 51
284.9272291805
  0
LINE
  5
118
330
1F
100
AcDbEntity
  8
0
  6
Continuous
 62
     7
370
    25
100
AcDbLine
 10
6580.7612927609
 20
5729.521909987
 30
0.0
 11
6580.7612927609
 21
5728.5559841607
 31
0.0
  0
ARC
  5
119
330
1F
100
AcDbEntity
  8
0
  6
Continuous
 62
     7
370
    25
100
AcDbCircle
 10
6578.8861959738
 20
5736.8986857007
 30
0.0
 40
7.611360449417216
100
AcDbArc
 50
284.2619248086
 51
297.2228497749
  0
ARC
  5
11A
330
1F
100
AcDbEntity
  8
0
  6
Continuous
 62
     7
370
    25
100
AcDbCircle
 10
6582.361655103
 20
5730.2459079862
 30
0.0
 40
0.9028767270901663
100
AcDbArc
 50
304.32312055
 51
1.5289520686
  0
LINE
  5
11B
330
1F
100
AcDbEntity
  8
0
  6
Continuous
 62
     7
370
    25
100
AcDbLine
 10
6583.2642103788
 20
5730.8737022574
 30
0.0
 11
6583.2642103788
 21
5730.2699986159
 31
0.0
  0
LINE
  5
11C
330
1F
100
AcDbEntity
  8
0
  6
Continuous
 62
     7
370
    25
100
AcDbLine
 10
6582.1760443413
 20
5731.6354035692
 30
0.0
 11
6582.1760443413
 21
5731.3237518661
 31
0.0
  0
ARC
  5
11D
330
1F
100
AcDbEntity
  8
0
  6
Continuous
 62
     7
370
    25
100
AcDbCircle
 10
6578.2872514107
 20
5722.819239779
 30
0.0
 40
9.351440332756436
100
AcDbArc
 50
65.427167351
 51
77.2488974281
  0
LINE
  5
11E
330
1F
100
AcDbEntity
  8
0
  6
Continuous
 62
     7
370
    25
100
AcDbLine
 10
6580.3512658227
 20
5732.156098817
 30
0.0
 11
6580.3512658227
 21
5731.9400555761
 31
0.0
  0
LINE
  5
11F
330
1F
100
AcDbEntity
  8
0
  6
Continuous
 62
     7
370
    25
100
AcDbLine
 10
6576.7029088204
 20
5732.6545694635
 30
0.0
 11
6576.7029088204
 21
5732.4860234383
 31
0.0
  0
ARC
  5
120
330
1F
100
AcDbEntity
  8
0
  6
Continuous
 62
     7
370
    25
100
AcDbCircle
 10
6574.0319420387
 20
5697.960469072
 30
0.0
 40
34.62871594291202
100
AcDbArc
 50
85.5762935842
 51
90.5015401573
  0
LINE
  5
121
330
1F
100
AcDbEntity
  8
0
  6
Continuous
 62
     7
370
    25
100
AcDbLine
 10
6573.7288225072
 20
5732.7496947109
 30
0.0
 11
6573.7288225072
 21
5732.5878583239
 31
0.0
  0
LINE
  5
122
330
1F
100
AcDbEntity
  8
0
  6
Continuous
 62
     7
370
    25
100
AcDbLine
 10
6569.6574325916
 20
5732.4880205638
 30
0.0
 11
6569.6574325916
 21
5732.3062202292
 31
0.0
  0
ARC
  5
123
330
1F
100
AcDbEntity
  8
0
  6
Continuous
 62
     7
370
    25
100
AcDbCircle
 10
6572.1097788651
 20
5713.7027560849
 30
0.0
 40
18.76440461116709
100
AcDbArc
 50
97.5095473837
 51
104.9272291805
  0
LINE
  5
124
330
1F
100
AcDbEntity
  8
0
  6
Continuous
 62
     7
370
    25
100
AcDbLine
 10
6567.2762179104
 20
5732.062294645
 30
0.0
 11
6567.2762179104
 21
5731.8339327954
 31
0.0
  0
LINE
  5
125
330
1F
100
AcDbEntity
  8
0
  6
Continuous
 62
     7
370
    25
100
AcDbLine
 10
6565.1667600764
 20
5731.3277998569
 30
0.0
 11
6565.1667600764
 21
5730.8896685199
 31
0.0
  0
ARC
  5
126
330
1F
100
AcDbEntity
  8
0
  6
Continuous
 62
     7
370
    25
100
AcDbCircle
 10
6565.6758555683
 20
5730.14400897
 30
0.0
 40
0.9028767270901663
100
AcDbArc
 50
124.32312055
 51
181.5289520686
  0
ARC
  5
127
330
1F
100
AcDbEntity
  8
0
  6
Continuous
 62
     7
370
    25
100
AcDbCircle
 10
6567.3863979118
 20
5733.2760286769
 30
0.0
 40
3.584487205074927
100
AcDbArc
 50
234.2803061768
 51
244.8224128598
  0
LINE
  5
128
330
1F
100
AcDbEntity
  8
0
  6
Continuous
 62
     7
370
    25
100
AcDbLine
 10
6565.86146633
 20
5730.0320909164
 30
0.0
 11
6565.86146633
 21
5729.0661650901
 31
0.0
  0
ARC
  5
129
330
1F
100
AcDbEntity
  8
0
  6
Continuous
 62
     7
370
    25
100
AcDbCircle
 10
6569.7502592607
 20
5737.5706771773
 30
0.0
 40
9.35144033287389
100
AcDbArc
 50
245.4271673511
 51
257.248897428
  0
ARC
  5
12A
330
1F
100
AcDbEntity
  8
0
  6
Continuous
 62
     7
370
    25
100
AcDbCircle
 10
6573.0789547739
 20
5753.1880045882
 30
0.0
 40
24.38066653489656
100
AcDbArc
 50
258.1893005351
 51
265.8971784142
  0
LINE
  5
12B
330
1F
100
AcDbEntity
  8
0
  6
Continuous
 62
     7
370
    25
100
AcDbLine
 10
6571.3346018509
 20
5728.8698193441
 30
0.0
 11
6571.3346018509
 21
5727.9038935178
 31
0.0
  0
ARC
  5
12C
330
1F
100
AcDbEntity
  8
0
  6
Continuous
 62
     7
370
    25
100
AcDbCircle
 10
6574.0055686326
 20
5762.4294478828
 30
0.0
 40
34.62871594152455
100
AcDbArc
 50
265.5762935841
 51
270.5015401574
  0
LWPOLYLINE
  5
12D
330
1F
100
AcDbEntity
  8
0
  6
Continuous
 62
     7
370
    25
100
AcDbPolyline
 90
        6
 70
   128
 43
0.0
 10
6567.4704149623
 20
5729.8620938617
 10
6566.570181746
 20
5730.2428516016
 10
6565.9954869377
 20
5730.6637317758
 10
6565.7714474584
 20
5731.1063399011
 10
6565.9078549082
 20
5731.5513318786
 10
6566.0352518277
 20
5731.6992137165
  0
LWPOLYLINE
  5
12E
330
1F
100
AcDbEntity
  8
0
  6
Continuous
 62
     7
370
    25
100
AcDbPolyline
 90
       14
 70
   128
 43
0.0
 10
6582.1760443413
 20
5731.4800970797
 10
6582.266063213
 20
5731.2154287076
 10
6582.1296557631
 20
5730.7704367301
 10
6581.6387630442
 20
5730.3425091852
 10
6580.8148394235
 20
5729.95034856
 10
6579.693894317
 20
5729.6110941556
 10
6578.3249184046
 20
5729.3395730174
 10
6576.7677425029
 20
5729.1476519221
 10
6575.0904226708
 20
5729.0437187425
 10
6573.3662658338
 20
5729.0323158572
 10
6571.670625919
 20
5729.113941627
 10
6570.0776105273
 20
5729.2850286142
 10
6568.6568420754
 20
5729.5380994964
 10
6567.4704149623
 20
5729.8620938617
  0
LINE
  5
12F
330
1F
100
AcDbEntity
  8
0
  6
Continuous
 62
     7
370
    25
100
AcDbLine
 10
6582.7614923341
 20
5731.2531378749
 30
0.0
 11
6583.0233034866
 21
5731.24417327
 31
0.0
  0
ARC
  5
130
330
1F
100
AcDbEntity
  8
0
  6
Continuous
 62
     7
370
    25
100
AcDbCircle
 10
6581.7781463861
 20
5731.3048523839
 30
0.0
 40
1.011320879479781
100
AcDbArc
 50
305.6817763792
 51
346.492222801
  0
LINE
  5
131
330
1F
100
AcDbEntity
  8
0
  6
Continuous
 62
     7
370
    25
100
AcDbLine
 10
6580.7612927609
 20
5729.521909987
 30
0.0
 11
6580.4528453951
 21
5729.6260855096
 31
0.0
  0
ARC
  5
132
330
1F
100
AcDbEntity
  8
0
  6
Continuous
 62
     7
370
    25
100
AcDbCircle
 10
6575.8208210869
 20
5746.7411394376
 30
0.0
 40
17.73078453280405
100
AcDbArc
 50
277.2930101398
 51
285.1437664243
  0
ARC
  5
133
330
1F
100
AcDbEntity
  8
0
  6
Continuous
 62
     7
370
    25
100
AcDbCircle
 10
6574.0069851071
 20
5761.6245014577
 30
0.0
 40
32.72847533145269
100
AcDbArc
 50
265.4332158269
 51
270.6446179145
  0
LINE
  5
134
330
1F
100
AcDbEntity
  8
0
  6
Continuous
 62
     7
370
    25
100
AcDbLine
 10
6571.4011094477
 20
5728.9999323484
 30
0.0
 11
6571.3346018509
 21
5728.8698193441
 31
0.0
  0
ARC
  5
135
330
1F
100
AcDbEntity
  8
0
  6
Continuous
 62
     7
370
    25
100
AcDbCircle
 10
6569.9862885796
 20
5738.1235317034
 30
0.0
 40
8.83411188474801
100
AcDbArc
 50
245.0796807338
 51
257.5963840453
  0
LINE
  5
136
330
1F
100
AcDbEntity
  8
0
  6
Continuous
 62
     7
370
    25
100
AcDbLine
 10
6565.86146633
 20
5730.0320909164
 30
0.0
 11
6566.2639696411
 21
5730.111922969
 31
0.0
  0
LWPOLYLINE
  5
137
330
1F
100
AcDbEntity
  8
0
  6
Continuous
 62
     7
370
    25
100
AcDbPolyline
 90
        3
 70
   128
 43
0.0
 10
6566.5187553357
 20
5731.2372667315
 10
6565.9954869377
 20
5731.6296576021
 10
6565.9584706992
 20
5731.6715304669
  0
LINE
  5
138
330
1F
100
AcDbEntity
  8
0
  6
Continuous
 62
     7
370
    25
100
AcDbLine
 10
6581.6384724886
 20
5731.3082538073
 30
0.0
 11
6581.5187553357
 21
5731.2372667315
 31
0.0
  0
LINE
  5
139
330
1F
100
AcDbEntity
  8
0
  6
Continuous
 62
     7
370
    25
100
AcDbLine
 10
6576.6364012237
 20
5732.355910434
 30
0.0
 11
6576.7029088204
 21
5732.4860234383
 31
0.0
  0
ARC
  5
13A
330
1F
100
AcDbEntity
  8
0
  6
Continuous
 62
     7
370
    25
100
AcDbCircle
 10
6574.0305255643
 20
5699.7313413245
 30
0.0
 40
32.72847533166436
100
AcDbArc
 50
85.4332158269
 51
90.6446179145
  0
LINE
  5
13B
330
1F
100
AcDbEntity
  8
0
  6
Continuous
 62
     7
370
    25
100
AcDbLine
 10
6573.6623149104
 20
5732.4577453196
 30
0.0
 11
6573.7288225072
 21
5732.5878583239
 31
0.0
  0
LWPOLYLINE
  5
13C
330
1F
100
AcDbEntity
  8
0
  6
Continuous
 62
     7
370
    25
100
AcDbPolyline
 90
        7
 70
   128
 43
0.0
 10
6568.0657186326
 20
5729.9801657201
 10
6567.224213719
 20
5730.338987964
 10
6566.7004140198
 20
5730.7362411674
 10
6566.5188118267
 20
5731.1533502119
 10
6566.6878986566
 20
5731.5708115422
 10
6567.1997681971
 20
5731.9691051304
 10
6567.2762179104
 20
5732.0109852614
  0
LWPOLYLINE
  5
13D
330
1F
100
AcDbEntity
  8
0
  6
Continuous
 62
     7
370
    25
100
AcDbPolyline
 90
       14
 70
   128
 43
0.0
 10
6581.4698226713
 20
5731.3822609288
 10
6581.4715865641
 20
5731.3782471092
 10
6581.4778811448
 20
5730.9585013542
 10
6581.1353952929
 20
5730.548218801
 10
6580.4601432661
 20
5730.1665838059
 10
6579.4836990989
 20
5729.8314411969
 10
6578.2517202351
 20
5729.5584618701
 10
6576.8218126372
 20
5729.3604100354
 10
6575.2608371953
 20
5729.2465463764
 10
6573.6417833861
 20
5729.2221950313
 10
6572.0403563663
 20
5729.2884946419
 10
6570.5314370834
 20
5729.4423451121
 10
6569.1855809262
 20
5729.6765525649
 10
6568.0657186326
 20
5729.9801657201
  0
LINE
  5
13E
330
1F
100
AcDbEntity
  8
0
  6
Continuous
 62
     7
370
    25
100
AcDbLine
 10
6573.6623149104
 20
5732.7491310487
 30
0.0
 11
6573.6623149104
 21
5732.4577453196
 31
0.0
  0
LINE
  5
13F
330
1F
100
AcDbEntity
  8
0
  6
Continuous
 62
     7
370
    25
100
AcDbLine
 10
6569.6574325916
 20
5732.3062202292
 30
0.0
 11
6569.9658799574
 21
5732.2020447065
 31
0.0
  0
ARC
  5
140
330
1F
100
AcDbEntity
  8
0
  6
Continuous
 62
     7
370
    25
100
AcDbCircle
 10
6572.2166895845
 20
5714.6147033445
 30
0.0
 40
17.73078453314492
100
AcDbArc
 50
97.2930101399
 51
105.1437664243
  0
LINE
  5
141
330
1F
100
AcDbEntity
  8
0
  6
Continuous
 62
     7
370
    25
100
AcDbLine
 10
6567.2762179104
 20
5731.8339327954
 30
0.0
 11
6567.5846652762
 21
5731.7297572728
 31
0.0
  0
LINE
  5
142
330
1F
100
AcDbEntity
  8
0
  6
Continuous
 62
     7
370
    25
100
AcDbLine
 10
6569.9658799574
 20
5732.5256211218
 30
0.0
 11
6569.9658799574
 21
5732.2020447065
 31
0.0
  0
LINE
  5
143
330
1F
100
AcDbEntity
  8
0
  6
Continuous
 62
     7
370
    25
100
AcDbLine
 10
6580.3512658227
 20
5731.9400555761
 30
0.0
 11
6579.9487625116
 21
5731.8602235234
 31
0.0
  0
LINE
  5
144
330
1F
100
AcDbEntity
  8
0
  6
Continuous
 62
     7
370
    25
100
AcDbLine
 10
6582.1760443413
 20
5731.3237518661
 30
0.0
 11
6581.7735410302
 21
5731.2439198134
 31
0.0
  0
ARC
  5
145
330
1F
100
AcDbEntity
  8
0
  6
Continuous
 62
     7
370
    25
100
AcDbCircle
 10
6578.0512220918
 20
5723.2323110792
 30
0.0
 40
8.834111884596394
100
AcDbArc
 50
65.0796807337
 51
77.5963840454
  0
LINE
  5
146
330
1F
100
AcDbEntity
  8
0
  6
Continuous
 62
     7
370
    25
100
AcDbLine
 10
6579.9487625116
 20
5732.2386563279
 30
0.0
 11
6579.9487625116
 21
5731.8602235234
 31
0.0
  0
LINE
  5
147
330
1F
100
AcDbEntity
  8
0
  6
Continuous
 62
     7
370
    25
100
AcDbLine
 10
6565.6694781211
 20
5731.5597276475
 30
0.0
 11
6565.6694781211
 21
5730.8724550872
 31
0.0
  0
LINE
  5
148
330
1F
100
AcDbEntity
  8
0
  6
Continuous
 62
     7
370
    25
100
AcDbLine
 10
6565.6694781211
 20
5730.8724550872
 30
0.0
 11
6565.1667600764
 21
5730.8896685199
 31
0.0
  0
ARC
  5
149
330
1F
100
AcDbEntity
  8
0
  6
Continuous
 62
     7
370
    25
100
AcDbCircle
 10
6566.1341910338
 20
5730.1494818068
 30
0.0
 40
0.8594465983347112
100
AcDbArc
 50
122.7321069522
 51
183.1199656665
  0
LINE
  5
14A
330
1F
100
AcDbEntity
  8
0
  6
Continuous
 62
     7
370
    25
100
AcDbLine
 10
6565.2760183373
 20
5730.1027049076
 30
0.0
 11
6564.7733002925
 21
5730.1199183403
 31
0.0
  0
LINE
  5
14B
330
1F
100
AcDbEntity
  8
0
  6
Continuous
 62
     7
370
    25
100
AcDbLine
 10
6565.2760183373
 20
5730.2872120486
 30
0.0
 11
6565.2760183373
 21
5730.1027049076
 31
0.0
  0
LINE
  5
14C
330
1F
100
AcDbEntity
  8
0
  6
Continuous
 62
     7
370
    25
100
AcDbLine
 10
6582.7614923341
 20
5731.2531378749
 30
0.0
 11
6582.7614923341
 21
5730.2872120486
 31
0.0
  0
LINE
  5
14D
330
1F
100
AcDbEntity
  8
0
  6
Continuous
 62
     7
370
    25
100
AcDbLine
 10
6582.7614923341
 20
5730.2872120486
 30
0.0
 11
6583.2642103788
 21
5730.2699986159
 31
0.0
  0
ARC
  5
14E
330
1F
100
AcDbEntity
  8
0
  6
Continuous
 62
     7
370
    25
100
AcDbCircle
 10
6581.9033196375
 20
5730.2404351493
 30
0.0
 40
0.8594465983349953
100
AcDbArc
 50
302.7321069523
 51
3.1199656664
  0
LINE
  5
14F
330
1F
100
AcDbEntity
  8
0
  6
Continuous
 62
     7
370
    25
100
AcDbLine
 10
6582.3680325502
 20
5729.5174618689
 30
0.0
 11
6582.8707505949
 21
5729.5002484362
 31
0.0
  0
LINE
  5
150
330
1F
100
AcDbEntity
  8
0
  6
Continuous
 62
     7
370
    25
100
AcDbLine
 10
6582.3680325502
 20
5730.4833876952
 30
0.0
 11
6582.3680325502
 21
5729.5174618689
 31
0.0
  0
LINE
  5
151
330
1F
100
AcDbEntity
  8
0
  6
Continuous
 62
     7
370
    25
100
AcDbLine
 10
6566.2639696411
 20
5730.111922969
 30
0.0
 11
6566.2639696411
 21
5729.1459971428
 31
0.0
  0
LINE
  5
152
330
1F
100
AcDbEntity
  8
0
  6
Continuous
 62
     7
370
    25
100
AcDbLine
 10
6565.86146633
 20
5729.0661650901
 30
0.0
 11
6566.2639696411
 21
5729.1459971428
 31
0.0
  0
ARC
  5
153
330
1F
100
AcDbEntity
  8
0
  6
Continuous
 62
     7
370
    25
100
AcDbCircle
 10
6569.9862885796
 20
5737.1576058771
 30
0.0
 40
8.834111884697839
100
AcDbArc
 50
245.0796807338
 51
257.5963840454
  0
LINE
  5
154
330
1F
100
AcDbEntity
  8
0
  6
Continuous
 62
     7
370
    25
100
AcDbLine
 10
6568.0887481597
 20
5729.4956192591
 30
0.0
 11
6568.0887481597
 21
5728.5296934328
 31
0.0
  0
LINE
  5
155
330
1F
100
AcDbEntity
  8
0
  6
Continuous
 62
     7
370
    25
100
AcDbLine
 10
6567.6862448486
 20
5728.4498613801
 30
0.0
 11
6568.0887481597
 21
5728.5296934328
 31
0.0
  0
LINE
  5
156
330
1F
100
AcDbEntity
  8
0
  6
Continuous
 62
     7
370
    25
100
AcDbLine
 10
6580.4528453951
 20
5729.6260855096
 30
0.0
 11
6580.4528453951
 21
5728.6601596833
 31
0.0
  0
LINE
  5
157
330
1F
100
AcDbEntity
  8
0
  6
Continuous
 62
     7
370
    25
100
AcDbLine
 10
6580.7612927609
 20
5728.5559841607
 30
0.0
 11
6580.4528453951
 21
5728.6601596833
 31
0.0
  0
ARC
  5
158
330
1F
100
AcDbEntity
  8
0
  6
Continuous
 62
     7
370
    25
100
AcDbCircle
 10
6575.8208210868
 20
5745.7752136117
 30
0.0
 40
17.73078453322104
100
AcDbArc
 50
277.2930101399
 51
285.1437664243
  0
LINE
  5
159
330
1F
100
AcDbEntity
  8
0
  6
Continuous
 62
     7
370
    25
100
AcDbLine
 10
6578.0716307139
 20
5729.1537980759
 30
0.0
 11
6578.0716307139
 21
5728.1878722496
 31
0.0
  0
LINE
  5
15A
330
1F
100
AcDbEntity
  8
0
  6
Continuous
 62
     7
370
    25
100
AcDbLine
 10
6578.3800780797
 20
5728.083696727
 30
0.0
 11
6578.0716307139
 21
5728.1878722496
 31
0.0
  0
LINE
  5
15B
330
1F
100
AcDbEntity
  8
0
  6
Continuous
 62
     7
370
    25
100
AcDbLine
 10
6571.4011094477
 20
5728.9999323484
 30
0.0
 11
6571.4011094477
 21
5728.0340065221
 31
0.0
  0
LINE
  5
15C
330
1F
100
AcDbEntity
  8
0
  6
Continuous
 62
     7
370
    25
100
AcDbLine
 10
6574.3751957609
 20
5728.8980974629
 30
0.0
 11
6574.3751957609
 21
5727.9321716366
 31
0.0
  0
ARC
  5
15D
330
1F
100
AcDbEntity
  8
0
  6
Continuous
 62
     7
370
    25
100
AcDbCircle
 10
6574.006985107
 20
5760.6585756313
 30
0.0
 40
32.72847533130633
100
AcDbArc
 50
265.433215827
 51
270.6446179145
  0
LINE
  5
15E
330
1F
100
AcDbEntity
  8
0
  6
Continuous
 62
     7
370
    25
100
AcDbLine
 10
6571.4011094477
 20
5728.0340065221
 30
0.0
 11
6571.3346018509
 21
5727.9038935178
 31
0.0
  0
LINE
  5
15F
330
1F
100
AcDbEntity
  8
0
  6
Continuous
 62
     7
370
    25
100
AcDbLine
 10
6574.3751957609
 20
5727.9321716366
 30
0.0
 11
6574.3086881642
 21
5727.8020586323
 31
0.0
  0
ARC
  5
160
330
1F
100
AcDbEntity
  8
0
  6
Continuous
 62
     7
370
    25
100
AcDbCircle
 10
5974.1283682084
 20
5761.0998300824
 30
0.0
 40
32.33234845672551
100
AcDbArc
 50
270.3195445577
 51
277.00524986
  0
ARC
  5
161
330
1F
100
AcDbEntity
  8
0
  6
Continuous
 62
     7
370
    25
100
AcDbCircle
 10
5975.9277318064
 20
5746.687160871
 30
0.0
 40
18.76440461087499
100
AcDbArc
 50
277.5095473836
 51
284.9272291806
  0
LINE
  5
162
330
1F
100
AcDbEntity
  8
0
  6
Continuous
 62
     7
370
    25
100
AcDbLine
 10
5980.761292761
 20
5729.521909987
 30
0.0
 11
5980.761292761
 21
5728.5559841607
 31
0.0
  0
ARC
  5
163
330
1F
100
AcDbEntity
  8
0
  6
Continuous
 62
     7
370
    25
100
AcDbCircle
 10
5978.8861959738
 20
5736.8986857008
 30
0.0
 40
7.611360449485431
100
AcDbArc
 50
284.2619248087
 51
297.2228497748
  0
ARC
  5
164
330
1F
100
AcDbEntity
  8
0
  6
Continuous
 62
     7
370
    25
100
AcDbCircle
 10
5982.3616551031
 20
5730.2459079862
 30
0.0
 40
0.9028767270856933
100
AcDbArc
 50
304.3231205499
 51
1.5289520688
  0
LINE
  5
165
330
1F
100
AcDbEntity
  8
0
  6
Continuous
 62
     7
370
    25
100
AcDbLine
 10
5983.2642103789
 20
5730.8737022574
 30
0.0
 11
5983.2642103789
 21
5730.2699986159
 31
0.0
  0
LINE
  5
166
330
1F
100
AcDbEntity
  8
0
  6
Continuous
 62
     7
370
    25
100
AcDbLine
 10
5982.1760443414
 20
5731.6354035692
 30
0.0
 11
5982.1760443414
 21
5731.3237518661
 31
0.0
  0
ARC
  5
167
330
1F
100
AcDbEntity
  8
0
  6
Continuous
 62
     7
370
    25
100
AcDbCircle
 10
5978.2872514106
 20
5722.8192397788
 30
0.0
 40
9.351440332999013
100
AcDbArc
 50
65.4271673512
 51
77.248897428
  0
LINE
  5
168
330
1F
100
AcDbEntity
  8
0
  6
Continuous
 62
     7
370
    25
100
AcDbLine
 10
5980.3512658228
 20
5732.156098817
 30
0.0
 11
5980.3512658228
 21
5731.9400555761
 31
0.0
  0
LINE
  5
169
330
1F
100
AcDbEntity
  8
0
  6
Continuous
 62
     7
370
    25
100
AcDbLine
 10
5976.7029088205
 20
5732.6545694635
 30
0.0
 11
5976.7029088205
 21
5732.4860234384
 31
0.0
  0
ARC
  5
16A
330
1F
100
AcDbEntity
  8
0
  6
Continuous
 62
     7
370
    25
100
AcDbCircle
 10
5974.0319420388
 20
5697.9604690725
 30
0.0
 40
34.62871594244279
100
AcDbArc
 50
85.5762935841
 51
90.5015401573
  0
LINE
  5
16B
330
1F
100
AcDbEntity
  8
0
  6
Continuous
 62
     7
370
    25
100
AcDbLine
 10
5973.7288225072
 20
5732.749694711
 30
0.0
 11
5973.7288225072
 21
5732.5878583239
 31
0.0
  0
LINE
  5
16C
330
1F
100
AcDbEntity
  8
0
  6
Continuous
 62
     7
370
    25
100
AcDbLine
 10
5969.6574325917
 20
5732.4880205638
 30
0.0
 11
5969.6574325917
 21
5732.3062202292
 31
0.0
  0
ARC
  5
16D
330
1F
100
AcDbEntity
  8
0
  6
Continuous
 62
     7
370
    25
100
AcDbCircle
 10
5972.1097788651
 20
5713.7027560851
 30
0.0
 40
18.76440461103019
100
AcDbArc
 50
97.5095473837
 51
104.9272291805
  0
LINE
  5
16E
330
1F
100
AcDbEntity
  8
0
  6
Continuous
 62
     7
370
    25
100
AcDbLine
 10
5967.2762179105
 20
5732.0622946451
 30
0.0
 11
5967.2762179105
 21
5731.8339327955
 31
0.0
  0
LINE
  5
16F
330
1F
100
AcDbEntity
  8
0
  6
Continuous
 62
     7
370
    25
100
AcDbLine
 10
5965.1667600764
 20
5731.327799857
 30
0.0
 11
5965.1667600764
 21
5730.8896685199
 31
0.0
  0
ARC
  5
170
330
1F
100
AcDbEntity
  8
0
  6
Continuous
 62
     7
370
    25
100
AcDbCircle
 10
5965.6758555684
 20
5730.14400897
 30
0.0
 40
0.9028767270910998
100
AcDbArc
 50
124.3231205501
 51
181.5289520687
  0
ARC
  5
171
330
1F
100
AcDbEntity
  8
0
  6
Continuous
 62
     7
370
    25
100
AcDbCircle
 10
5967.3704688234
 20
5733.2464429472
 30
0.0
 40
3.550936144588876
100
AcDbArc
 50
233.8550182221
 51
244.8519277994
  0
LINE
  5
172
330
1F
100
AcDbEntity
  8
0
  6
Continuous
 62
     7
370
    25
100
AcDbLine
 10
5965.86146633
 20
5730.0320909164
 30
0.0
 11
5965.86146633
 21
5729.0661650901
 31
0.0
  0
ARC
  5
173
330
1F
100
AcDbEntity
  8
0
  6
Continuous
 62
     7
370
    25
100
AcDbCircle
 10
5969.7502592607
 20
5737.5706771772
 30
0.0
 40
9.351440332775585
100
AcDbArc
 50
245.427167351
 51
257.2488974281
  0
ARC
  5
174
330
1F
100
AcDbEntity
  8
0
  6
Continuous
 62
     7
370
    25
100
AcDbCircle
 10
5973.078954774
 20
5753.1880045885
 30
0.0
 40
24.38066653519675
100
AcDbArc
 50
258.1893005351
 51
265.8971784141
  0
LINE
  5
175
330
1F
100
AcDbEntity
  8
0
  6
Continuous
 62
     7
370
    25
100
AcDbLine
 10
5971.334601851
 20
5728.8698193441
 30
0.0
 11
5971.334601851
 21
5727.9038935179
 31
0.0
  0
ARC
  5
176
330
1F
100
AcDbEntity
  8
0
  6
Continuous
 62
     7
370
    25
100
AcDbCircle
 10
5974.0055686327
 20
5762.4294478825
 30
0.0
 40
34.62871594121803
100
AcDbArc
 50
265.576293584
 51
270.5015401574
  0
LWPOLYLINE
  5
177
330
1F
100
AcDbEntity
  8
0
  6
Continuous
 62
     7
370
    25
100
AcDbPolyline
 90
        6
 70
   128
 43
0.0
 10
5967.4704149624
 20
5729.8620938617
 10
5966.570181746
 20
5730.2428516016
 10
5965.9954869378
 20
5730.6637317758
 10
5965.7714474584
 20
5731.1063399012
 10
5965.9078549083
 20
5731.5513318787
 10
5966.0640216277
 20
5731.7270246621
  0
LWPOLYLINE
  5
178
330
1F
100
AcDbEntity
  8
0
  6
Continuous
 62
     7
370
    25
100
AcDbPolyline
 90
        6
 70
   128
 43
0.0
 10
5982.1760443414
 20
5731.4800970797
 10
5982.266063213
 20
5731.2154287076
 10
5982.1296557632
 20
5730.7704367301
 10
5981.6387630442
 20
5730.3425091852
 10
5980.8148394236
 20
5729.95034856
 10
5980.461527171
 20
5729.8271952378
  0
LINE
  5
179
330
1F
100
AcDbEntity
  8
0
  6
Continuous
 62
     7
370
    25
100
AcDbLine
 10
5967.7926818958
 20
5729.7599460505
 30
0.0
 11
5967.4704149624
 21
5729.8620938617
 31
0.0
  0
LINE
  5
17A
330
1F
100
AcDbEntity
  8
0
  6
Continuous
 62
     7
370
    25
100
AcDbLine
 10
5982.7614923341
 20
5731.2531378749
 30
0.0
 11
5983.0233034866
 21
5731.24417327
 31
0.0
  0
ARC
  5
17B
330
1F
100
AcDbEntity
  8
0
  6
Continuous
 62
     7
370
    25
100
AcDbCircle
 10
5981.7781463862
 20
5731.3048523839
 30
0.0
 40
1.011320879485389
100
AcDbArc
 50
305.6817763793
 51
346.4922228009
  0
LINE
  5
17C
330
1F
100
AcDbEntity
  8
0
  6
Continuous
 62
     7
370
    25
100
AcDbLine
 10
5980.761292761
 20
5729.521909987
 30
0.0
 11
5980.4528453952
 21
5729.6260855097
 31
0.0
  0
ARC
  5
17D
330
1F
100
AcDbEntity
  8
0
  6
Continuous
 62
     7
370
    25
100
AcDbCircle
 10
5975.8208210869
 20
5746.741139438
 30
0.0
 40
17.73078453315149
100
AcDbArc
 50
277.2930101399
 51
285.1437664242
  0
ARC
  5
17E
330
1F
100
AcDbEntity
  8
0
  6
Continuous
 62
     7
370
    25
100
AcDbCircle
 10
5974.0069851071
 20
5761.6245014577
 30
0.0
 40
32.72847533143267
100
AcDbArc
 50
265.4332158269
 51
270.6446179145
  0
LINE
  5
17F
330
1F
100
AcDbEntity
  8
0
  6
Continuous
 62
     7
370
    25
100
AcDbLine
 10
5971.4011094477
 20
5728.9999323484
 30
0.0
 11
5971.334601851
 21
5728.8698193441
 31
0.0
  0
ARC
  5
180
330
1F
100
AcDbEntity
  8
0
  6
Continuous
 62
     7
370
    25
100
AcDbCircle
 10
5969.9862885796
 20
5738.1235317034
 30
0.0
 40
8.834111884709824
100
AcDbArc
 50
245.0796807338
 51
257.5963840454
  0
LINE
  5
181
330
1F
100
AcDbEntity
  8
0
  6
Continuous
 62
     7
370
    25
100
AcDbLine
 10
5965.86146633
 20
5730.0320909164
 30
0.0
 11
5966.2639696412
 21
5730.1119229691
 31
0.0
  0
LWPOLYLINE
  5
182
330
1F
100
AcDbEntity
  8
0
  6
Continuous
 62
     7
370
    25
100
AcDbPolyline
 90
        3
 70
   128
 43
0.0
 10
5966.5187553357
 20
5731.2372667316
 10
5965.9954869378
 20
5731.6296576021
 10
5965.9825591465
 20
5731.6438472175
  0
LINE
  5
183
330
1F
100
AcDbEntity
  8
0
  6
Continuous
 62
     7
370
    25
100
AcDbLine
 10
5981.6384724885
 20
5731.3082538072
 30
0.0
 11
5981.5187553357
 21
5731.2372667316
 31
0.0
  0
LINE
  5
184
330
1F
100
AcDbEntity
  8
0
  6
Continuous
 62
     7
370
    25
100
AcDbLine
 10
5976.6364012237
 20
5732.3559104341
 30
0.0
 11
5976.7029088205
 21
5732.4860234384
 31
0.0
  0
ARC
  5
185
330
1F
100
AcDbEntity
  8
0
  6
Continuous
 62
     7
370
    25
100
AcDbCircle
 10
5974.0305255643
 20
5699.731341324
 30
0.0
 40
32.72847533219444
100
AcDbArc
 50
85.433215827
 51
90.6446179144
  0
LINE
  5
186
330
1F
100
AcDbEntity
  8
0
  6
Continuous
 62
     7
370
    25
100
AcDbLine
 10
5973.6623149105
 20
5732.4577453196
 30
0.0
 11
5973.7288225072
 21
5732.5878583239
 31
0.0
  0
LWPOLYLINE
  5
187
330
1F
100
AcDbEntity
  8
0
  6
Continuous
 62
     7
370
    25
100
AcDbPolyline
 90
        7
 70
   128
 43
0.0
 10
5968.0657186327
 20
5729.9801657201
 10
5967.2242137191
 20
5730.3389879641
 10
5966.7004140198
 20
5730.7362411674
 10
5966.5188118268
 20
5731.1533502119
 10
5966.6878986566
 20
5731.5708115422
 10
5967.1997681971
 20
5731.9691051304
 10
5967.2762179105
 20
5732.0109852615
  0
LWPOLYLINE
  5
188
330
1F
100
AcDbEntity
  8
0
  6
Continuous
 62
     7
370
    25
100
AcDbPolyline
 90
       14
 70
   128
 43
0.0
 10
5981.4698226711
 20
5731.3822609295
 10
5981.4715865641
 20
5731.3782471092
 10
5981.4778811448
 20
5730.9585013542
 10
5981.1353952929
 20
5730.5482188011
 10
5980.4601432662
 20
5730.1665838059
 10
5979.4836990989
 20
5729.831441197
 10
5978.2517202351
 20
5729.5584618702
 10
5976.8218126373
 20
5729.3604100354
 10
5975.2608371953
 20
5729.2465463764
 10
5973.6417833861
 20
5729.2221950313
 10
5972.0403563663
 20
5729.2884946419
 10
5970.5314370835
 20
5729.4423451121
 10
5969.1855809262
 20
5729.6765525649
 10
5968.0657186327
 20
5729.9801657201
  0
LINE
  5
189
330
1F
100
AcDbEntity
  8
0
  6
Continuous
 62
     7
370
    25
100
AcDbLine
 10
5973.6623149105
 20
5732.7491310487
 30
0.0
 11
5973.6623149105
 21
5732.4577453196
 31
0.0
  0
LINE
  5
18A
330
1F
100
AcDbEntity
  8
0
  6
Continuous
 62
     7
370
    25
100
AcDbLine
 10
5969.6574325917
 20
5732.3062202292
 30
0.0
 11
5969.9658799575
 21
5732.2020447065
 31
0.0
  0
ARC
  5
18B
330
1F
100
AcDbEntity
  8
0
  6
Continuous
 62
     7
370
    25
100
AcDbCircle
 10
5972.2166895845
 20
5714.6147033447
 30
0.0
 40
17.7307845330178
100
AcDbArc
 50
97.2930101399
 51
105.1437664243
  0
LINE
  5
18C
330
1F
100
AcDbEntity
  8
0
  6
Continuous
 62
     7
370
    25
100
AcDbLine
 10
5967.2762179105
 20
5731.8339327955
 30
0.0
 11
5967.5846652763
 21
5731.7297572728
 31
0.0
  0
LINE
  5
18D
330
1F
100
AcDbEntity
  8
0
  6
Continuous
 62
     7
370
    25
100
AcDbLine
 10
5969.9658799575
 20
5732.5256211218
 30
0.0
 11
5969.9658799575
 21
5732.2020447065
 31
0.0
  0
LINE
  5
18E
330
1F
100
AcDbEntity
  8
0
  6
Continuous
 62
     7
370
    25
100
AcDbLine
 10
5980.3512658228
 20
5731.9400555761
 30
0.0
 11
5979.9487625117
 21
5731.8602235234
 31
0.0
  0
LINE
  5
18F
330
1F
100
AcDbEntity
  8
0
  6
Continuous
 62
     7
370
    25
100
AcDbLine
 10
5982.1760443414
 20
5731.3237518661
 30
0.0
 11
5981.7735410303
 21
5731.2439198134
 31
0.0
  0
ARC
  5
190
330
1F
100
AcDbEntity
  8
0
  6
Continuous
 62
     7
370
    25
100
AcDbCircle
 10
5978.0512220918
 20
5723.2323110791
 30
0.0
 40
8.83411188470806
100
AcDbArc
 50
65.0796807338
 51
77.5963840454
  0
LINE
  5
191
330
1F
100
AcDbEntity
  8
0
  6
Continuous
 62
     7
370
    25
100
AcDbLine
 10
5979.9487625117
 20
5732.238656328
 30
0.0
 11
5979.9487625117
 21
5731.8602235234
 31
0.0
  0
LINE
  5
192
330
1F
100
AcDbEntity
  8
0
  6
Continuous
 62
     7
370
    25
100
AcDbLine
 10
5965.6694781212
 20
5731.5597276475
 30
0.0
 11
5965.6694781212
 21
5730.8724550873
 31
0.0
  0
LINE
  5
193
330
1F
100
AcDbEntity
  8
0
  6
Continuous
 62
     7
370
    25
100
AcDbLine
 10
5965.6694781212
 20
5730.8724550873
 30
0.0
 11
5965.1667600764
 21
5730.8896685199
 31
0.0
  0
ARC
  5
194
330
1F
100
AcDbEntity
  8
0
  6
Continuous
 62
     7
370
    25
100
AcDbCircle
 10
5966.1341910339
 20
5730.1494818068
 30
0.0
 40
0.8594465983328949
100
AcDbArc
 50
122.7321069521
 51
183.1199656665
  0
LINE
  5
195
330
1F
100
AcDbEntity
  8
0
  6
Continuous
 62
     7
370
    25
100
AcDbLine
 10
5965.2760183373
 20
5730.1027049076
 30
0.0
 11
5964.7733002926
 21
5730.1199183403
 31
0.0
  0
LINE
  5
196
330
1F
100
AcDbEntity
  8
0
  6
Continuous
 62
     7
370
    25
100
AcDbLine
 10
5965.2760183373
 20
5730.2872120486
 30
0.0
 11
5965.2760183373
 21
5730.1027049076
 31
0.0
  0
LINE
  5
197
330
1F
100
AcDbEntity
  8
0
  6
Continuous
 62
     7
370
    25
100
AcDbLine
 10
5982.7614923341
 20
5731.2531378749
 30
0.0
 11
5982.7614923341
 21
5730.2872120486
 31
0.0
  0
LINE
  5
198
330
1F
100
AcDbEntity
  8
0
  6
Continuous
 62
     7
370
    25
100
AcDbLine
 10
5982.7614923341
 20
5730.2872120486
 30
0.0
 11
5983.2642103789
 21
5730.2699986159
 31
0.0
  0
ARC
  5
199
330
1F
100
AcDbEntity
  8
0
  6
Continuous
 62
     7
370
    25
100
AcDbCircle
 10
5981.9033196376
 20
5730.2404351494
 30
0.0
 40
0.8594465983338031
100
AcDbArc
 50
302.7321069523
 51
3.1199656665
  0
LINE
  5
19A
330
1F
100
AcDbEntity
  8
0
  6
Continuous
 62
     7
370
    25
100
AcDbLine
 10
5982.3680325503
 20
5729.517461869
 30
0.0
 11
5982.870750595
 21
5729.5002484363
 31
0.0
  0
LINE
  5
19B
330
1F
100
AcDbEntity
  8
0
  6
Continuous
 62
     7
370
    25
100
AcDbLine
 10
5982.3680325503
 20
5730.4833876953
 30
0.0
 11
5982.3680325503
 21
5729.517461869
 31
0.0
  0
LINE
  5
19C
330
1F
100
AcDbEntity
  8
0
  6
Continuous
 62
     7
370
    25
100
AcDbLine
 10
5966.2639696412
 20
5730.1119229691
 30
0.0
 11
5966.2639696412
 21
5729.1459971428
 31
0.0
  0
LINE
  5
19D
330
1F
100
AcDbEntity
  8
0
  6
Continuous
 62
     7
370
    25
100
AcDbLine
 10
5965.86146633
 20
5729.0661650901
 30
0.0
 11
5966.2639696412
 21
5729.1459971428
 31
0.0
  0
ARC
  5
19E
330
1F
100
AcDbEntity
  8
0
  6
Continuous
 62
     7
370
    25
100
AcDbCircle
 10
5969.9862885796
 20
5737.157605877
 30
0.0
 40
8.834111884617501
100
AcDbArc
 50
245.0796807337
 51
257.5963840454
  0
LINE
  5
19F
330
1F
100
AcDbEntity
  8
0
  6
Continuous
 62
     7
370
    25
100
AcDbLine
 10
5968.0887481598
 20
5729.4956192591
 30
0.0
 11
5968.0887481598
 21
5728.5296934328
 31
0.0
  0
LINE
  5
1A0
330
1F
100
AcDbEntity
  8
0
  6
Continuous
 62
     7
370
    25
100
AcDbLine
 10
5967.6862448487
 20
5728.4498613801
 30
0.0
 11
5968.0887481598
 21
5728.5296934328
 31
0.0
  0
LINE
  5
1A1
330
1F
100
AcDbEntity
  8
0
  6
Continuous
 62
     7
370
    25
100
AcDbLine
 10
5980.4528453952
 20
5729.6260855097
 30
0.0
 11
5980.4528453952
 21
5728.6601596834
 31
0.0
  0
LINE
  5
1A2
330
1F
100
AcDbEntity
  8
0
  6
Continuous
 62
     7
370
    25
100
AcDbLine
 10
5980.761292761
 20
5728.5559841607
 30
0.0
 11
5980.4528453952
 21
5728.6601596834
 31
0.0
  0
ARC
  5
1A3
330
1F
100
AcDbEntity
  8
0
  6
Continuous
 62
     7
370
    25
100
AcDbCircle
 10
5975.8208210869
 20
5745.7752136115
 30
0.0
 40
17.73078453298672
100
AcDbArc
 50
277.2930101399
 51
285.1437664243
  0
LINE
  5
1A4
330
1F
100
AcDbEntity
  8
0
  6
Continuous
 62
     7
370
    25
100
AcDbLine
 10
5978.071630714
 20
5729.153798076
 30
0.0
 11
5978.071630714
 21
5728.1878722497
 31
0.0
  0
LINE
  5
1A5
330
1F
100
AcDbEntity
  8
0
  6
Continuous
 62
     7
370
    25
100
AcDbLine
 10
5978.3800780798
 20
5728.083696727
 30
0.0
 11
5978.071630714
 21
5728.1878722497
 31
0.0
  0
LINE
  5
1A6
330
1F
100
AcDbEntity
  8
0
  6
Continuous
 62
     7
370
    25
100
AcDbLine
 10
5971.4011094477
 20
5728.9999323484
 30
0.0
 11
5971.4011094477
 21
5728.0340065222
 31
0.0
  0
LINE
  5
1A7
330
1F
100
AcDbEntity
  8
0
  6
Continuous
 62
     7
370
    25
100
AcDbLine
 10
5974.375195761
 20
5728.8980974629
 30
0.0
 11
5974.375195761
 21
5727.9321716366
 31
0.0
  0
ARC
  5
1A8
330
1F
100
AcDbEntity
  8
0
  6
Continuous
 62
     7
370
    25
100
AcDbCircle
 10
5974.0069851071
 20
5760.6585756311
 30
0.0
 40
32.72847533109817
100
AcDbArc
 50
265.4332158269
 51
270.6446179145
  0
LINE
  5
1A9
330
1F
100
AcDbEntity
  8
0
  6
Continuous
 62
     7
370
    25
100
AcDbLine
 10
5971.4011094477
 20
5728.0340065222
 30
0.0
 11
5971.334601851
 21
5727.9038935179
 31
0.0
  0
LINE
  5
1AA
330
1F
100
AcDbEntity
  8
0
  6
Continuous
 62
     7
370
    25
100
AcDbLine
 10
5974.375195761
 20
5727.9321716366
 30
0.0
 11
5974.3086881642
 21
5727.8020586323
 31
0.0
  0
CIRCLE
  5
1AB
330
1F
100
AcDbEntity
  8
0
  6
Continuous
 62
     7
370
    25
100
AcDbCircle
 10
5974.0187553363
 20
5738.957841465
 30
0.0
 40
29.49999999999986
  0
CIRCLE
  5
1AC
330
1F
100
AcDbEntity
  8
0
  6
Continuous
 62
     7
370
    25
100
AcDbCircle
 10
5974.0187553363
 20
5738.957841465
 30
0.0
 40
30.00000000000118
  0
CIRCLE
  5
1AD
330
1F
100
AcDbEntity
  8
0
  6
Continuous
 62
     7
370
    25
100
AcDbCircle
 10
6574.0187553364
 20
5738.957841465
 30
0.0
 40
29.49999999999986
  0
CIRCLE
  5
1AE
330
1F
100
AcDbEntity
  8
0
  6
Continuous
 62
     7
370
    25
100
AcDbCircle
 10
6574.0187553364
 20
5738.957841465
 30
0.0
 40
29.99999999999991
  0
ARC
  5
1AF
330
1F
100
AcDbEntity
  8
0
  6
Continuous
 62
     7
370
    25
100
AcDbCircle
 10
6574.0187553358
 20
5738.9578414646
 30
0.0
 40
13.99999999999974
100
AcDbArc
 50
339.5575579255
 51
200.4424420745
  0
LINE
  5
1B0
330
1F
100
AcDbEntity
  8
0
  6
Continuous
 62
     7
370
    25
100
AcDbLine
 10
6587.1370847032
 20
5734.0681140072
 30
0.0
 11
6586.1694411465
 21
5734.3360631996
 31
0.0
  0
ARC
  5
1B1
330
1F
100
AcDbEntity
  8
0
  6
Continuous
 62
     7
370
    25
100
AcDbCircle
 10
6574.0187553358
 20
5738.9578414646
 30
0.0
 40
13.00000000000112
100
AcDbArc
 50
339.1745965348
 51
200.8254034652
  0
LINE
  5
1B2
330
1F
100
AcDbEntity
  8
0
  6
Continuous
 62
     7
370
    25
100
AcDbLine
 10
6561.8680695251
 20
5734.3360631996
 30
0.0
 11
6560.9004259683
 21
5734.0681140072
 31
0.0
  0
LINE
  5
1B3
330
1F
100
AcDbEntity
  8
0
  6
Continuous
 62
     7
370
    25
100
AcDbLine
 10
6561.8680695251
 20
5734.3360631996
 30
0.0
 11
6586.1694411465
 21
5734.3360631996
 31
0.0
  0
ARC
  5
1B4
330
1F
100
AcDbEntity
  8
0
  6
Continuous
 62
     7
370
    25
100
AcDbCircle
 10
6574.0187553358
 20
5738.9578414646
 30
0.0
 40
13.99999999999974
100
AcDbArc
 50
200.4424420745
 51
339.5575579255
  0
LWPOLYLINE
  5
1B5
330
1F
100
AcDbEntity
  8
0
  6
Continuous
 62
     7
370
    25
100
AcDbPolyline
 90
       34
 70
   128
 43
0.0
 10
6574.0187553358
 20
5732.7507965484
 10
6575.8876113739
 20
5732.7046092249
 10
6577.6889220854
 20
5732.5677165845
 10
6579.3575834082
 20
5732.3450662841
 10
6580.8332855742
 20
5732.0447054854
 10
6582.0626928623
 20
5731.6774900105
 10
6583.0013712899
 20
5731.2566919832
 10
6583.615394573
 20
5730.7975201408
 10
6583.8825703102
 20
5730.3165701499
 10
6583.7932420744
 20
5729.8312247964
 10
6583.3506384206
 20
5729.3590257258
 10
6582.5707561982
 20
5728.9170394428
 10
6581.4817823825
 20
5728.5212404834
 10
6580.1230753247
 20
5728.1859340531
 10
6578.5437422379
 20
5727.923239
 10
6576.8008643346
 20
5727.7426498078
 10
6574.9574337634
 20
5727.6506934403
 10
6573.0800769082
 20
5727.6506934403
 10
6571.236646337
 20
5727.7426498078
 10
6569.4937684337
 20
5727.923239
 10
6567.9144353469
 20
5728.1859340531
 10
6566.555728289
 20
5728.5212404834
 10
6565.4667544734
 20
5728.9170394428
 10
6564.686872251
 20
5729.3590257258
 10
6564.2442685972
 20
5729.8312247964
 10
6564.1549403614
 20
5730.3165701499
 10
6564.4221160986
 20
5730.7975201408
 10
6565.0361393817
 20
5731.2566919832
 10
6565.9748178093
 20
5731.6774900105
 10
6567.2042250974
 20
5732.0447054854
 10
6568.6799272634
 20
5732.3450662841
 10
6570.3485885862
 20
5732.5677165845
 10
6572.1498992977
 20
5732.7046092249
 10
6574.0187553358
 20
5732.7507965484
  0
LWPOLYLINE
  5
1B6
330
1F
100
AcDbEntity
  8
0
  6
Continuous
 62
     7
370
    25
100
AcDbPolyline
 90
        3
 70
   128
 43
0.0
 10
6583.2687553357
 20
5731.0728325249
 10
6583.3937553358
 20
5730.6779213912
 10
6583.2687553357
 20
5730.2830102574
  0
LWPOLYLINE
  5
1B7
330
1F
100
AcDbEntity
  8
0
  6
Continuous
 62
     7
370
    25
100
AcDbPolyline
 90
        3
 70
   128
 43
0.0
 10
6582.3680325502
 20
5729.5743625382
 10
6581.8137829511
 20
5729.3298699174
 10
6580.7612927609
 20
5728.9920413194
  0
ARC
  5
1B8
330
1F
100
AcDbEntity
  8
0
  6
Continuous
 62
     7
370
    25
100
AcDbCircle
 10
6574.1490895186
 20
5760.765502292
 30
0.0
 40
32.51304127730906
100
AcDbArc
 50
270.3984566598
 51
276.9293382742
  0
ARC
  5
1B9
330
1F
100
AcDbEntity
  8
0
  6
Continuous
 62
     7
370
    25
100
AcDbCircle
 10
6573.1479077263
 20
5753.6115607161
 30
0.0
 40
25.32349552560663
100
AcDbArc
 50
258.4758326317
 51
265.8937831656
  0
LWPOLYLINE
  5
1BA
330
1F
100
AcDbEntity
  8
0
  6
Continuous
 62
     7
370
    25
100
AcDbPolyline
 90
        3
 70
   128
 43
0.0
 10
6565.86146633
 20
5729.4820412483
 10
6565.3573847185
 20
5729.7493673861
 10
6564.8989688728
 20
5730.1156153564
  0
LWPOLYLINE
  5
1BB
330
1F
100
AcDbEntity
  8
0
  6
Continuous
 62
     7
370
    25
100
AcDbPolyline
 90
        3
 70
   128
 43
0.0
 10
6564.7687553357
 20
5730.2830102578
 10
6564.6437553358
 20
5730.6779213912
 10
6564.7687553357
 20
5731.0728325245
  0
LINE
  5
1BC
330
1F
100
AcDbEntity
  8
0
  6
Continuous
 62
     7
370
    25
100
AcDbLine
 10
5961.8680695251
 20
5734.3360631997
 30
0.0
 11
5986.1694411465
 21
5734.3360631997
 31
0.0
  0
LINE
  5
1BD
330
1F
100
AcDbEntity
  8
0
  6
Continuous
 62
     7
370
    25
100
AcDbLine
 10
5987.1370847033
 20
5734.0681140073
 30
0.0
 11
5986.1694411465
 21
5734.3360631997
 31
0.0
  0
ARC
  5
1BE
330
1F
100
AcDbEntity
  8
0
  6
Continuous
 62
     7
370
    25
100
AcDbCircle
 10
5974.0187553358
 20
5738.9578414646
 30
0.0
 40
13.99999999999974
100
AcDbArc
 50
200.4424420745
 51
339.5575579255
  0
LINE
  5
1BF
330
1F
100
AcDbEntity
  8
0
  6
Continuous
 62
     7
370
    25
100
AcDbLine
 10
5961.8680695251
 20
5734.3360631997
 30
0.0
 11
5960.9004259684
 21
5734.0681140073
 31
0.0
  0
LWPOLYLINE
  5
1C0
330
1F
100
AcDbEntity
  8
0
  6
Continuous
 62
     7
370
    25
100
AcDbPolyline
 90
       34
 70
   128
 43
0.0
 10
5974.0187553358
 20
5732.7507965484
 10
5975.8876113739
 20
5732.7046092249
 10
5977.6889220855
 20
5732.5677165846
 10
5979.3575834082
 20
5732.3450662841
 10
5980.8332855742
 20
5732.0447054855
 10
5982.0626928623
 20
5731.6774900105
 10
5983.00137129
 20
5731.2566919833
 10
5983.615394573
 20
5730.7975201409
 10
5983.8825703103
 20
5730.31657015
 10
5983.7932420744
 20
5729.8312247964
 10
5983.3506384206
 20
5729.3590257258
 10
5982.5707561982
 20
5728.9170394429
 10
5981.4817823826
 20
5728.5212404834
 10
5980.1230753248
 20
5728.1859340532
 10
5978.5437422379
 20
5727.9232390001
 10
5976.8008643346
 20
5727.7426498078
 10
5974.9574337635
 20
5727.6506934403
 10
5973.0800769082
 20
5727.6506934403
 10
5971.236646337
 20
5727.7426498078
 10
5969.4937684338
 20
5727.9232390001
 10
5967.9144353469
 20
5728.1859340532
 10
5966.5557282891
 20
5728.5212404834
 10
5965.4667544735
 20
5728.9170394429
 10
5964.686872251
 20
5729.3590257258
 10
5964.2442685973
 20
5729.8312247964
 10
5964.1549403614
 20
5730.31657015
 10
5964.4221160986
 20
5730.7975201409
 10
5965.0361393817
 20
5731.2566919833
 10
5965.9748178093
 20
5731.6774900105
 10
5967.2042250974
 20
5732.0447054855
 10
5968.6799272635
 20
5732.3450662841
 10
5970.3485885862
 20
5732.5677165846
 10
5972.1498992978
 20
5732.7046092249
 10
5974.0187553358
 20
5732.7507965484
  0
ARC
  5
1C1
330
1F
100
AcDbEntity
  8
0
  6
Continuous
 62
     7
370
    25
100
AcDbCircle
 10
5974.0187553358
 20
5738.9578414646
 30
0.0
 40
13.99999999999974
100
AcDbArc
 50
339.5575579255
 51
200.4424420745
  0
ARC
  5
1C2
330
1F
100
AcDbEntity
  8
0
  6
Continuous
 62
     7
370
    25
100
AcDbCircle
 10
5974.0187553358
 20
5738.9578414646
 30
0.0
 40
13.0000000000006
100
AcDbArc
 50
339.1745965348
 51
200.8254034652
  0
LWPOLYLINE
  5
1C3
330
1F
100
AcDbEntity
  8
0
  6
Continuous
 62
     7
370
    25
100
AcDbPolyline
 90
        3
 70
   128
 43
0.0
 10
5983.2687553357
 20
5731.0728325249
 10
5983.3937553358
 20
5730.6779213912
 10
5983.2687553357
 20
5730.2830102575
  0
LWPOLYLINE
  5
1C4
330
1F
100
AcDbEntity
  8
0
  6
Continuous
 62
     7
370
    25
100
AcDbPolyline
 90
        3
 70
   128
 43
0.0
 10
5982.3680325503
 20
5729.5743625383
 10
5981.8137829512
 20
5729.3298699175
 10
5980.761292761
 20
5728.9920413194
  0
ARC
  5
1C5
330
1F
100
AcDbEntity
  8
0
  6
Continuous
 62
     7
370
    25
100
AcDbCircle
 10
5974.1490895187
 20
5760.7655022922
 30
0.0
 40
32.51304127747566
100
AcDbArc
 50
270.3984566599
 51
276.9293382743
  0
ARC
  5
1C6
330
1F
100
AcDbEntity
  8
0
  6
Continuous
 62
     7
370
    25
100
AcDbCircle
 10
5973.1479077263
 20
5753.6115607162
 30
0.0
 40
25.32349552566647
100
AcDbArc
 50
258.4758326317
 51
265.8937831656
  0
LWPOLYLINE
  5
1C7
330
1F
100
AcDbEntity
  8
0
  6
Continuous
 62
     7
370
    25
100
AcDbPolyline
 90
        3
 70
   128
 43
0.0
 10
5965.86146633
 20
5729.4820412483
 10
5965.3573847185
 20
5729.7493673861
 10
5964.8989688728
 20
5730.1156153564
  0
LWPOLYLINE
  5
1C8
330
1F
100
AcDbEntity
  8
0
  6
Continuous
 62
     7
370
    25
100
AcDbPolyline
 90
        3
 70
   128
 43
0.0
 10
5964.7687553357
 20
5730.2830102578
 10
5964.6437553358
 20
5730.6779213912
 10
5964.7687553357
 20
5731.0728325246
  0
LINE
  5
1C9
330
1F
100
AcDbEntity
  8
0
  6
Continuous
 62
     7
370
    25
100
AcDbLine
 10
5691.0187553361
 20
4773.9578414649
 30
0.0
 11
6857.0187553361
 21
4773.9578414649
 31
0.0
  0
LINE
  5
1CA
330
1F
100
AcDbEntity
  8
0
  6
Continuous
 62
     7
370
    25
100
AcDbLine
 10
5691.0187553361
 20
4771.9578414649
 30
0.0
 11
6857.0187553361
 21
4771.9578414649
 31
0.0
  0
LINE
  5
1CB
330
1F
100
AcDbEntity
  8
0
  6
Continuous
 62
     7
370
    25
100
AcDbLine
 10
5691.0187553361
 20
4735.9578414649
 30
0.0
 11
6857.0187553361
 21
4735.9578414649
 31
0.0
  0
LINE
  5
1CC
330
1F
100
AcDbEntity
  8
0
  6
Continuous
 62
     7
370
    25
100
AcDbLine
 10
5691.0187553361
 20
4733.9578414649
 30
0.0
 11
6857.0187553361
 21
4733.9578414649
 31
0.0
  0
ELLIPSE
  5
1CD
330
1F
100
AcDbEntity
  8
0
  6
Continuous
 62
     7
370
    25
100
AcDbEllipse
 10
6862.5187553361
 20
4596.9578414649
 30
0.0
 11
0.0
 21
5.999999999999091
 31
0.0
210
0.0
220
0.0
230
1.0
 40
0.5833333333
 41
1.570796326794897
 42
3.141592653589793
  0
ARC
  5
1CE
330
1F
100
AcDbEntity
  8
0
  6
Continuous
 62
     7
370
    25
100
AcDbCircle
 10
6862.5187553361
 20
4596.9578414649
 30
0.0
 40
6.000000000000909
100
AcDbArc
 50
180.0
 51
270.0
  0
LINE
  5
1CF
330
1F
100
AcDbEntity
  8
0
  6
Continuous
 62
     7
370
    25
100
AcDbLine
 10
6859.0187553361
 20
4596.9578414649
 30
0.0
 11
6856.5187553361
 21
4596.9578414649
 31
0.0
  0
LINE
  5
1D0
330
1F
100
AcDbEntity
  8
0
  6
Continuous
 62
     7
370
    25
100
AcDbLine
 10
6856.5187553361
 20
4596.9578414649
 30
0.0
 11
6856.5187553361
 21
4598.9578414649
 31
0.0
  0
LINE
  5
1D1
330
1F
100
AcDbEntity
  8
0
  6
Continuous
 62
     7
370
    25
100
AcDbLine
 10
6856.5187553361
 20
4598.9578414649
 30
0.0
 11
6859.0187553361
 21
4598.9578414649
 31
0.0
  0
LINE
  5
1D2
330
1F
100
AcDbEntity
  8
0
  6
Continuous
 62
     7
370
    25
100
AcDbLine
 10
6859.0187553361
 20
4596.9578414649
 30
0.0
 11
6859.0187553361
 21
4598.9578414649
 31
0.0
  0
LINE
  5
1D3
330
1F
100
AcDbEntity
  8
0
  6
Continuous
 62
     7
370
    25
100
AcDbLine
 10
6895.0187553361
 20
4596.9578414649
 30
0.0
 11
6859.0187553361
 21
4596.9578414649
 31
0.0
  0
LINE
  5
1D4
330
1F
100
AcDbEntity
  8
0
  6
Continuous
 62
     7
370
    25
100
AcDbLine
 10
6859.0187553361
 20
4598.9578414649
 30
0.0
 11
6895.0187553361
 21
4598.9578414649
 31
0.0
  0
LINE
  5
1D5
330
1F
100
AcDbEntity
  8
0
  6
Continuous
 62
     7
370
    25
100
AcDbLine
 10
6895.0187553361
 20
4596.9578414649
 30
0.0
 11
6895.0187553361
 21
4598.9578414649
 31
0.0
  0
LINE
  5
1D6
330
1F
100
AcDbEntity
  8
0
  6
Continuous
 62
     7
370
    25
100
AcDbLine
 10
6862.5187553361
 20
4590.9578414649
 30
0.0
 11
6891.5187553361
 21
4590.9578414649
 31
0.0
  0
ELLIPSE
  5
1D7
330
1F
100
AcDbEntity
  8
0
  6
Continuous
 62
     7
370
    25
100
AcDbEllipse
 10
6891.5187553361
 20
4596.9578414649
 30
0.0
 11
0.0
 21
5.999999999999091
 31
0.0
210
0.0
220
0.0
230
1.0
 40
0.5833333333
 41
3.141592653589793
 42
4.712388980384698
  0
ARC
  5
1D8
330
1F
100
AcDbEntity
  8
0
  6
Continuous
 62
     7
370
    25
100
AcDbCircle
 10
6891.5187553361
 20
4596.9578414649
 30
0.0
 40
6.000000000000909
100
AcDbArc
 50
270.0
 51
0.0
  0
LINE
  5
1D9
330
1F
100
AcDbEntity
  8
0
  6
Continuous
 62
     7
370
    25
100
AcDbLine
 10
6897.5187553361
 20
4596.9578414649
 30
0.0
 11
6895.0187553361
 21
4596.9578414649
 31
0.0
  0
LINE
  5
1DA
330
1F
100
AcDbEntity
  8
0
  6
Continuous
 62
     7
370
    25
100
AcDbLine
 10
6897.5187553361
 20
4596.9578414649
 30
0.0
 11
6897.5187553361
 21
4598.9578414649
 31
0.0
  0
LINE
  5
1DB
330
1F
100
AcDbEntity
  8
0
  6
Continuous
 62
     7
370
    25
100
AcDbLine
 10
6895.0187553361
 20
4598.9578414649
 30
0.0
 11
6897.5187553361
 21
4598.9578414649
 31
0.0
  0
LINE
  5
1DC
330
1F
100
AcDbEntity
  8
0
  6
Continuous
 62
     7
370
    25
100
AcDbLine
 10
6885.6790093739
 20
4578.9578414649
 30
0.0
 11
6885.6790093739
 21
4586.9578414649
 31
0.0
  0
LINE
  5
1DD
330
1F
100
AcDbEntity
  8
0
  6
Continuous
 62
     7
370
    25
100
AcDbLine
 10
6868.3585012982
 20
4578.9578414649
 30
0.0
 11
6885.6790093739
 21
4578.9578414649
 31
0.0
  0
LINE
  5
1DE
330
1F
100
AcDbEntity
  8
0
  6
Continuous
 62
     7
370
    25
100
AcDbLine
 10
6868.3585012982
 20
4578.9578414649
 30
0.0
 11
6868.3585012982
 21
4586.9578414649
 31
0.0
  0
LINE
  5
1DF
330
1F
100
AcDbEntity
  8
0
  6
Continuous
 62
     7
370
    25
100
AcDbLine
 10
6868.3585012982
 20
4586.9578414649
 30
0.0
 11
6885.6790093739
 21
4586.9578414649
 31
0.0
  0
LINE
  5
1E0
330
1F
100
AcDbEntity
  8
0
  6
Continuous
 62
     7
370
    25
100
AcDbLine
 10
6894.3392634118
 20
4578.9578414649
 30
0.0
 11
6894.3392634118
 21
4586.9578414649
 31
0.0
  0
LINE
  5
1E1
330
1F
100
AcDbEntity
  8
0
  6
Continuous
 62
     7
370
    25
100
AcDbLine
 10
6885.6790093739
 20
4586.9578414649
 30
0.0
 11
6894.3392634118
 21
4586.9578414649
 31
0.0
  0
LINE
  5
1E2
330
1F
100
AcDbEntity
  8
0
  6
Continuous
 62
     7
370
    25
100
AcDbLine
 10
6885.6790093739
 20
4578.9578414649
 30
0.0
 11
6894.3392634118
 21
4578.9578414649
 31
0.0
  0
LINE
  5
1E3
330
1F
100
AcDbEntity
  8
0
  6
Continuous
 62
     7
370
    25
100
AcDbLine
 10
6859.6982472604
 20
4578.9578414649
 30
0.0
 11
6859.6982472604
 21
4586.9578414649
 31
0.0
  0
LINE
  5
1E4
330
1F
100
AcDbEntity
  8
0
  6
Continuous
 62
     7
370
    25
100
AcDbLine
 10
6859.6982472604
 20
4586.9578414649
 30
0.0
 11
6868.3585012982
 21
4586.9578414649
 31
0.0
  0
LINE
  5
1E5
330
1F
100
AcDbEntity
  8
0
  6
Continuous
 62
     7
370
    25
100
AcDbLine
 10
6859.6982472604
 20
4578.9578414649
 30
0.0
 11
6868.3585012982
 21
4578.9578414649
 31
0.0
  0
LINE
  5
1E6
330
1F
100
AcDbEntity
  8
0
  6
Continuous
 62
     7
370
    25
100
AcDbLine
 10
6857.0187553361
 20
4598.9578414649
 30
0.0
 11
6857.0187553361
 21
5178.9578414649
 31
0.0
  0
LINE
  5
1E7
330
1F
100
AcDbEntity
  8
0
  6
Continuous
 62
     7
370
    25
100
AcDbLine
 10
6897.0187553361
 20
4598.9578414649
 30
0.0
 11
6897.0187553361
 21
5178.9578414649
 31
0.0
  0
ARC
  5
1E8
330
1F
100
AcDbEntity
  8
0
  6
Continuous
 62
     7
370
    25
100
AcDbCircle
 10
5685.5187553361
 20
4596.9578414649
 30
0.0
 40
6.000000000000909
100
AcDbArc
 50
270.0
 51
0.0
  0
ELLIPSE
  5
1E9
330
1F
100
AcDbEntity
  8
0
  6
Continuous
 62
     7
370
    25
100
AcDbEllipse
 10
5685.5187553361
 20
4596.9578414649
 30
0.0
 11
0.0
 21
5.999999999999091
 31
0.0
210
0.0
220
0.0
230
1.0
 40
0.5833333333
 41
3.141592653589793
 42
4.712388980384698
  0
LINE
  5
1EA
330
1F
100
AcDbEntity
  8
0
  6
Continuous
 62
     7
370
    25
100
AcDbLine
 10
5689.0187553361
 20
4596.9578414649
 30
0.0
 11
5691.5187553361
 21
4596.9578414649
 31
0.0
  0
LINE
  5
1EB
330
1F
100
AcDbEntity
  8
0
  6
Continuous
 62
     7
370
    25
100
AcDbLine
 10
5653.0187553361
 20
4596.9578414649
 30
0.0
 11
5689.0187553361
 21
4596.9578414649
 31
0.0
  0
LINE
  5
1EC
330
1F
100
AcDbEntity
  8
0
  6
Continuous
 62
     7
370
    25
100
AcDbLine
 10
5685.5187553361
 20
4590.9578414649
 30
0.0
 11
5656.5187553361
 21
4590.9578414649
 31
0.0
  0
ELLIPSE
  5
1ED
330
1F
100
AcDbEntity
  8
0
  6
Continuous
 62
     7
370
    25
100
AcDbEllipse
 10
5656.5187553361
 20
4596.9578414649
 30
0.0
 11
0.0
 21
5.999999999999091
 31
0.0
210
0.0
220
0.0
230
1.0
 40
0.5833333333
 41
1.570796326794897
 42
3.141592653589793
  0
LINE
  5
1EE
330
1F
100
AcDbEntity
  8
0
  6
Continuous
 62
     7
370
    25
100
AcDbLine
 10
5689.0187553361
 20
4598.9578414649
 30
0.0
 11
5653.0187553361
 21
4598.9578414649
 31
0.0
  0
LINE
  5
1EF
330
1F
100
AcDbEntity
  8
0
  6
Continuous
 62
     7
370
    25
100
AcDbLine
 10
5689.0187553361
 20
4596.9578414649
 30
0.0
 11
5689.0187553361
 21
4598.9578414649
 31
0.0
  0
LINE
  5
1F0
330
1F
100
AcDbEntity
  8
0
  6
Continuous
 62
     7
370
    25
100
AcDbLine
 10
5653.0187553361
 20
4596.9578414649
 30
0.0
 11
5653.0187553361
 21
4598.9578414649
 31
0.0
  0
LINE
  5
1F1
330
1F
100
AcDbEntity
  8
0
  6
Continuous
 62
     7
370
    25
100
AcDbLine
 10
5691.5187553361
 20
4598.9578414649
 30
0.0
 11
5689.0187553361
 21
4598.9578414649
 31
0.0
  0
LINE
  5
1F2
330
1F
100
AcDbEntity
  8
0
  6
Continuous
 62
     7
370
    25
100
AcDbLine
 10
5691.5187553361
 20
4596.9578414649
 30
0.0
 11
5691.5187553361
 21
4598.9578414649
 31
0.0
  0
ARC
  5
1F3
330
1F
100
AcDbEntity
  8
0
  6
Continuous
 62
     7
370
    25
100
AcDbCircle
 10
5656.5187553361
 20
4596.9578414649
 30
0.0
 40
6.000000000000909
100
AcDbArc
 50
180.0
 51
270.0
  0
LINE
  5
1F4
330
1F
100
AcDbEntity
  8
0
  6
Continuous
 62
     7
370
    25
100
AcDbLine
 10
5650.5187553361
 20
4596.9578414649
 30
0.0
 11
5653.0187553361
 21
4596.9578414649
 31
0.0
  0
LINE
  5
1F5
330
1F
100
AcDbEntity
  8
0
  6
Continuous
 62
     7
370
    25
100
AcDbLine
 10
5650.5187553361
 20
4596.9578414649
 30
0.0
 11
5650.5187553361
 21
4598.9578414649
 31
0.0
  0
LINE
  5
1F6
330
1F
100
AcDbEntity
  8
0
  6
Continuous
 62
     7
370
    25
100
AcDbLine
 10
5653.0187553361
 20
4598.9578414649
 30
0.0
 11
5650.5187553361
 21
4598.9578414649
 31
0.0
  0
LINE
  5
1F7
330
1F
100
AcDbEntity
  8
0
  6
Continuous
 62
     7
370
    25
100
AcDbLine
 10
5662.3585012983
 20
4578.9578414649
 30
0.0
 11
5662.3585012983
 21
4586.9578414649
 31
0.0
  0
LINE
  5
1F8
330
1F
100
AcDbEntity
  8
0
  6
Continuous
 62
     7
370
    25
100
AcDbLine
 10
5662.3585012983
 20
4578.9578414649
 30
0.0
 11
5653.6982472604
 21
4578.9578414649
 31
0.0
  0
LINE
  5
1F9
330
1F
100
AcDbEntity
  8
0
  6
Continuous
 62
     7
370
    25
100
AcDbLine
 10
5653.6982472604
 20
4578.9578414649
 30
0.0
 11
5653.6982472604
 21
4586.9578414649
 31
0.0
  0
LINE
  5
1FA
330
1F
100
AcDbEntity
  8
0
  6
Continuous
 62
     7
370
    25
100
AcDbLine
 10
5662.3585012983
 20
4586.9578414649
 30
0.0
 11
5653.6982472604
 21
4586.9578414649
 31
0.0
  0
LINE
  5
1FB
330
1F
100
AcDbEntity
  8
0
  6
Continuous
 62
     7
370
    25
100
AcDbLine
 10
5679.679009374
 20
4578.9578414649
 30
0.0
 11
5679.679009374
 21
4586.9578414649
 31
0.0
  0
LINE
  5
1FC
330
1F
100
AcDbEntity
  8
0
  6
Continuous
 62
     7
370
    25
100
AcDbLine
 10
5679.679009374
 20
4586.9578414649
 30
0.0
 11
5662.3585012983
 21
4586.9578414649
 31
0.0
  0
LINE
  5
1FD
330
1F
100
AcDbEntity
  8
0
  6
Continuous
 62
     7
370
    25
100
AcDbLine
 10
5679.679009374
 20
4578.9578414649
 30
0.0
 11
5662.3585012983
 21
4578.9578414649
 31
0.0
  0
LINE
  5
1FE
330
1F
100
AcDbEntity
  8
0
  6
Continuous
 62
     7
370
    25
100
AcDbLine
 10
5688.3392634118
 20
4578.9578414649
 30
0.0
 11
5688.3392634118
 21
4586.9578414649
 31
0.0
  0
LINE
  5
1FF
330
1F
100
AcDbEntity
  8
0
  6
Continuous
 62
     7
370
    25
100
AcDbLine
 10
5688.3392634118
 20
4586.9578414649
 30
0.0
 11
5679.679009374
 21
4586.9578414649
 31
0.0
  0
LINE
  5
200
330
1F
100
AcDbEntity
  8
0
  6
Continuous
 62
     7
370
    25
100
AcDbLine
 10
5688.3392634118
 20
4578.9578414649
 30
0.0
 11
5679.679009374
 21
4578.9578414649
 31
0.0
  0
LINE
  5
201
330
1F
100
AcDbEntity
  8
0
  6
Continuous
 62
     7
370
    25
100
AcDbLine
 10
5691.0187553361
 20
4598.9578414649
 30
0.0
 11
5691.0187553361
 21
5178.9578414649
 31
0.0
  0
LINE
  5
202
330
1F
100
AcDbEntity
  8
0
  6
Continuous
 62
     7
370
    25
100
AcDbLine
 10
5651.0187553361
 20
4598.9578414649
 30
0.0
 11
5651.0187553361
 21
5178.9578414649
 31
0.0
  0
LINE
  5
203
330
1F
100
AcDbEntity
  8
0
  6
Continuous
 62
     7
370
    25
100
AcDbLine
 10
6852.3687553361
 20
5402.2978414649
 30
0.0
 11
5695.6687553361
 21
5402.2978414649
 31
0.0
  0
LINE
  5
204
330
1F
100
AcDbEntity
  8
0
  6
Continuous
 62
     7
370
    25
100
AcDbLine
 10
6852.3687553361
 20
5403.9478414649
 30
0.0
 11
5695.6687553361
 21
5403.9478414649
 31
0.0
  0
LINE
  5
205
330
1F
100
AcDbEntity
  8
0
  6
Continuous
 62
     7
370
    25
100
AcDbLine
 10
5695.6687553361
 20
5402.2978414649
 30
0.0
 11
5695.6687553361
 21
5403.9478414649
 31
0.0
  0
LINE
  5
206
330
1F
100
AcDbEntity
  8
0
  6
Continuous
 62
     7
370
    25
100
AcDbLine
 10
6852.3687553361
 20
5402.2978414649
 30
0.0
 11
6852.3687553361
 21
5403.9478414649
 31
0.0
  0
LINE
  5
207
330
1F
100
AcDbEntity
  8
0
  6
Continuous
 62
     7
370
    25
100
AcDbLine
 10
6852.3687553361
 20
5180.6078414649
 30
0.0
 11
5695.6687553361
 21
5180.6078414649
 31
0.0
  0
LINE
  5
208
330
1F
100
AcDbEntity
  8
0
  6
Continuous
 62
     7
370
    25
100
AcDbLine
 10
5695.6687553361
 20
5180.6078414649
 30
0.0
 11
5695.6687553361
 21
5402.2978414649
 31
0.0
  0
LINE
  5
209
330
1F
100
AcDbEntity
  8
0
  6
Continuous
 62
     7
370
    25
100
AcDbLine
 10
6852.3687553361
 20
5180.6078414649
 30
0.0
 11
6852.3687553361
 21
5402.2978414649
 31
0.0
  0
LINE
  5
20A
330
1F
100
AcDbEntity
  8
0
  6
Continuous
 62
     7
370
    25
100
AcDbLine
 10
6852.3687553361
 20
5402.2978414649
 30
0.0
 11
6854.0187553361
 21
5402.2978414649
 31
0.0
  0
LINE
  5
20B
330
1F
100
AcDbEntity
  8
0
  6
Continuous
 62
     7
370
    25
100
AcDbLine
 10
6854.0187553361
 20
5180.6078414649
 30
0.0
 11
6854.0187553361
 21
5402.2978414649
 31
0.0
  0
LINE
  5
20C
330
1F
100
AcDbEntity
  8
0
  6
Continuous
 62
     7
370
    25
100
AcDbLine
 10
6854.0187553361
 20
5180.6078414649
 30
0.0
 11
6852.3687553361
 21
5180.6078414649
 31
0.0
  0
LINE
  5
20D
330
1F
100
AcDbEntity
  8
0
  6
Continuous
 62
     7
370
    25
100
AcDbLine
 10
5694.0187553361
 20
5180.6078414649
 30
0.0
 11
5694.0187553361
 21
5402.2978414649
 31
0.0
  0
LINE
  5
20E
330
1F
100
AcDbEntity
  8
0
  6
Continuous
 62
     7
370
    25
100
AcDbLine
 10
5694.0187553361
 20
5402.2978414649
 30
0.0
 11
5695.6687553361
 21
5402.2978414649
 31
0.0
  0
LINE
  5
20F
330
1F
100
AcDbEntity
  8
0
  6
Continuous
 62
     7
370
    25
100
AcDbLine
 10
5695.6687553361
 20
5180.6078414649
 30
0.0
 11
5694.0187553361
 21
5180.6078414649
 31
0.0
  0
LINE
  5
210
330
1F
100
AcDbEntity
  8
0
  6
Continuous
 62
     7
370
    25
100
AcDbLine
 10
6852.3687553361
 20
5178.9578414649
 30
0.0
 11
5695.6687553361
 21
5178.9578414649
 31
0.0
  0
LINE
  5
211
330
1F
100
AcDbEntity
  8
0
  6
Continuous
 62
     7
370
    25
100
AcDbLine
 10
6852.3687553361
 20
5178.9578414649
 30
0.0
 11
6852.3687553361
 21
5180.6078414649
 31
0.0
  0
LINE
  5
212
330
1F
100
AcDbEntity
  8
0
  6
Continuous
 62
     7
370
    25
100
AcDbLine
 10
5695.6687553361
 20
5178.9578414649
 30
0.0
 11
5695.6687553361
 21
5180.6078414649
 31
0.0
  0
LINE
  5
213
330
1F
100
AcDbEntity
  8
0
  6
Continuous
 62
     7
370
    25
100
AcDbLine
 10
6899.0187553361
 20
5178.9578414649
 30
0.0
 11
6899.0187553361
 21
5403.9478414649
 31
0.0
  0
LINE
  5
214
330
1F
100
AcDbEntity
  8
0
  6
Continuous
 62
     7
370
    25
100
AcDbLine
 10
6895.9187553361
 20
5178.9578414649
 30
0.0
 11
6899.0187553361
 21
5178.9578414649
 31
0.0
  0
LINE
  5
215
330
1F
100
AcDbEntity
  8
0
  6
Continuous
 62
     7
370
    25
100
AcDbLine
 10
6895.9187553361
 20
5178.9578414649
 30
0.0
 11
6895.9187553361
 21
5403.9478414649
 31
0.0
  0
LINE
  5
216
330
1F
100
AcDbEntity
  8
0
  6
Continuous
 62
     7
370
    25
100
AcDbLine
 10
6899.0187553361
 20
5403.9478414649
 30
0.0
 11
6895.9187553361
 21
5403.9478414649
 31
0.0
  0
LINE
  5
217
330
1F
100
AcDbEntity
  8
0
  6
Continuous
 62
     7
370
    25
100
AcDbLine
 10
6857.1187553361
 20
5178.9578414649
 30
0.0
 11
6895.9187553361
 21
5178.9578414649
 31
0.0
  0
LINE
  5
218
330
1F
100
AcDbEntity
  8
0
  6
Continuous
 62
     7
370
    25
100
AcDbLine
 10
6857.1187553361
 20
5178.9578414649
 30
0.0
 11
6857.1187553361
 21
5403.9478414649
 31
0.0
  0
LINE
  5
219
330
1F
100
AcDbEntity
  8
0
  6
Continuous
 62
     7
370
    25
100
AcDbLine
 10
6895.9187553361
 20
5403.9478414649
 30
0.0
 11
6857.1187553361
 21
5403.9478414649
 31
0.0
  0
LINE
  5
21A
330
1F
100
AcDbEntity
  8
0
  6
Continuous
 62
     7
370
    25
100
AcDbLine
 10
6854.0187553361
 20
5403.9478414649
 30
0.0
 11
6857.1187553361
 21
5403.9478414649
 31
0.0
  0
LINE
  5
21B
330
1F
100
AcDbEntity
  8
0
  6
Continuous
 62
     7
370
    25
100
AcDbLine
 10
6857.1187553361
 20
5178.9578414649
 30
0.0
 11
6854.0187553361
 21
5178.9578414649
 31
0.0
  0
LINE
  5
21C
330
1F
100
AcDbEntity
  8
0
  6
Continuous
 62
     7
370
    25
100
AcDbLine
 10
6854.0187553361
 20
5178.9578414649
 30
0.0
 11
6854.0187553361
 21
5180.6078414649
 31
0.0
  0
LINE
  5
21D
330
1F
100
AcDbEntity
  8
0
  6
Continuous
 62
     7
370
    25
100
AcDbLine
 10
6854.0187553361
 20
5402.2978414649
 30
0.0
 11
6854.0187553361
 21
5403.9478414649
 31
0.0
  0
LINE
  5
21E
330
1F
100
AcDbEntity
  8
0
  6
Continuous
 62
     7
370
    25
100
AcDbLine
 10
6899.0187553361
 20
5428.9578414649
 30
0.0
 11
6897.0187553361
 21
5428.9578414649
 31
0.0
  0
LINE
  5
21F
330
1F
100
AcDbEntity
  8
0
  6
Continuous
 62
     7
370
    25
100
AcDbLine
 10
6899.0187553361
 20
5428.9578414649
 30
0.0
 11
6899.0187553361
 21
5426.7578414649
 31
0.0
  0
LINE
  5
220
330
1F
100
AcDbEntity
  8
0
  6
Continuous
 62
     7
370
    25
100
AcDbLine
 10
6899.0187553361
 20
5426.7578414649
 30
0.0
 11
6897.0187553361
 21
5426.7578414649
 31
0.0
  0
LINE
  5
221
330
1F
100
AcDbEntity
  8
0
  6
Continuous
 62
     7
370
    25
100
AcDbLine
 10
6897.0187553361
 20
5428.9578414649
 30
0.0
 11
6897.0187553361
 21
5426.7578414649
 31
0.0
  0
LINE
  5
222
330
1F
100
AcDbEntity
  8
0
  6
Continuous
 62
     7
370
    25
100
AcDbLine
 10
6899.0187553361
 20
5426.7578414649
 30
0.0
 11
6899.0187553361
 21
5403.9578414649
 31
0.0
  0
LINE
  5
223
330
1F
100
AcDbEntity
  8
0
  6
Continuous
 62
     7
370
    25
100
AcDbLine
 10
6899.0187553361
 20
5403.9578414649
 30
0.0
 11
6897.0187553361
 21
5403.9578414649
 31
0.0
  0
LINE
  5
224
330
1F
100
AcDbEntity
  8
0
  6
Continuous
 62
     7
370
    25
100
AcDbLine
 10
6897.0187553361
 20
5426.7578414649
 30
0.0
 11
6897.0187553361
 21
5403.9578414649
 31
0.0
  0
LINE
  5
225
330
1F
100
AcDbEntity
  8
0
  6
Continuous
 62
     7
370
    25
100
AcDbLine
 10
6899.0187553361
 20
5403.9578414649
 30
0.0
 11
6899.0187553361
 21
5403.9478414649
 31
0.0
  0
LINE
  5
226
330
1F
100
AcDbEntity
  8
0
  6
Continuous
 62
     7
370
    25
100
AcDbLine
 10
6897.0187553361
 20
5403.9578414649
 30
0.0
 11
6897.0187553361
 21
5403.9478414649
 31
0.0
  0
LINE
  5
227
330
1F
100
AcDbEntity
  8
0
  6
Continuous
 62
     7
370
    25
100
AcDbLine
 10
6899.0187553361
 20
5836.5484885084
 30
0.0
 11
6897.0187553361
 21
5836.5484885084
 31
0.0
  0
LINE
  5
228
330
1F
100
AcDbEntity
  8
0
  6
Continuous
 62
     7
370
    25
100
AcDbLine
 10
6899.0187553361
 20
5836.5484885084
 30
0.0
 11
6899.0187553361
 21
5428.9578414649
 31
0.0
  0
LINE
  5
229
330
1F
100
AcDbEntity
  8
0
  6
Continuous
 62
     7
370
    25
100
AcDbLine
 10
6897.0187553361
 20
5836.5484885084
 30
0.0
 11
6897.0187553361
 21
5428.9578414649
 31
0.0
  0
LINE
  5
22A
330
1F
100
AcDbEntity
  8
0
  6
Continuous
 62
     7
370
    25
100
AcDbLine
 10
6899.0187553361
 20
5838.70041323
 30
0.0
 11
6897.0187553361
 21
5838.70041323
 31
0.0
  0
LINE
  5
22B
330
1F
100
AcDbEntity
  8
0
  6
Continuous
 62
     7
370
    25
100
AcDbLine
 10
6899.0187553361
 20
5838.70041323
 30
0.0
 11
6899.0187553361
 21
5836.5484885084
 31
0.0
  0
LINE
  5
22C
330
1F
100
AcDbEntity
  8
0
  6
Continuous
 62
     7
370
    25
100
AcDbLine
 10
6897.0187553361
 20
5838.70041323
 30
0.0
 11
6897.0187553361
 21
5836.5484885084
 31
0.0
  0
LINE
  5
22D
330
1F
100
AcDbEntity
  8
0
  6
Continuous
 62
     7
370
    25
100
AcDbLine
 10
6899.0187553361
 20
5848.3929924421
 30
0.0
 11
6897.0187553361
 21
5848.3929924421
 31
0.0
  0
LINE
  5
22E
330
1F
100
AcDbEntity
  8
0
  6
Continuous
 62
     7
370
    25
100
AcDbLine
 10
6899.0187553361
 20
5848.3929924421
 30
0.0
 11
6899.0187553361
 21
5838.70041323
 31
0.0
  0
LINE
  5
22F
330
1F
100
AcDbEntity
  8
0
  6
Continuous
 62
     7
370
    25
100
AcDbLine
 10
6897.0187553361
 20
5848.3929924421
 30
0.0
 11
6897.0187553361
 21
5838.70041323
 31
0.0
  0
LINE
  5
230
330
1F
100
AcDbEntity
  8
0
  6
Continuous
 62
     7
370
    25
100
AcDbLine
 10
6899.0187553361
 20
5848.4410677205
 30
0.0
 11
6899.0187553361
 21
5848.3929924421
 31
0.0
  0
LINE
  5
231
330
1F
100
AcDbEntity
  8
0
  6
Continuous
 62
     7
370
    25
100
AcDbLine
 10
6897.0187553361
 20
5848.4410677205
 30
0.0
 11
6897.0187553361
 21
5848.3929924421
 31
0.0
  0
LINE
  5
232
330
1F
100
AcDbEntity
  8
0
  6
Continuous
 62
     7
370
    25
100
AcDbLine
 10
5652.1187553361
 20
5178.9578414649
 30
0.0
 11
5652.1187553361
 21
5403.9478414649
 31
0.0
  0
LINE
  5
233
330
1F
100
AcDbEntity
  8
0
  6
Continuous
 62
     7
370
    25
100
AcDbLine
 10
5652.1187553361
 20
5178.9578414649
 30
0.0
 11
5649.0187553361
 21
5178.9578414649
 31
0.0
  0
LINE
  5
234
330
1F
100
AcDbEntity
  8
0
  6
Continuous
 62
     7
370
    25
100
AcDbLine
 10
5649.0187553361
 20
5178.9578414649
 30
0.0
 11
5649.0187553361
 21
5403.9478414649
 31
0.0
  0
LINE
  5
235
330
1F
100
AcDbEntity
  8
0
  6
Continuous
 62
     7
370
    25
100
AcDbLine
 10
5649.0187553361
 20
5403.9478414649
 30
0.0
 11
5652.1187553361
 21
5403.9478414649
 31
0.0
  0
LINE
  5
236
330
1F
100
AcDbEntity
  8
0
  6
Continuous
 62
     7
370
    25
100
AcDbLine
 10
5690.9187553361
 20
5178.9578414649
 30
0.0
 11
5690.9187553361
 21
5403.9478414649
 31
0.0
  0
LINE
  5
237
330
1F
100
AcDbEntity
  8
0
  6
Continuous
 62
     7
370
    25
100
AcDbLine
 10
5690.9187553361
 20
5178.9578414649
 30
0.0
 11
5652.1187553361
 21
5178.9578414649
 31
0.0
  0
LINE
  5
238
330
1F
100
AcDbEntity
  8
0
  6
Continuous
 62
     7
370
    25
100
AcDbLine
 10
5652.1187553361
 20
5403.9478414649
 30
0.0
 11
5690.9187553361
 21
5403.9478414649
 31
0.0
  0
LINE
  5
239
330
1F
100
AcDbEntity
  8
0
  6
Continuous
 62
     7
370
    25
100
AcDbLine
 10
5690.9187553361
 20
5178.9578414649
 30
0.0
 11
5694.0187553361
 21
5178.9578414649
 31
0.0
  0
LINE
  5
23A
330
1F
100
AcDbEntity
  8
0
  6
Continuous
 62
     7
370
    25
100
AcDbLine
 10
5694.0187553361
 20
5403.9478414649
 30
0.0
 11
5690.9187553361
 21
5403.9478414649
 31
0.0
  0
LINE
  5
23B
330
1F
100
AcDbEntity
  8
0
  6
Continuous
 62
     7
370
    25
100
AcDbLine
 10
5694.0187553361
 20
5178.9578414649
 30
0.0
 11
5694.0187553361
 21
5180.6078414649
 31
0.0
  0
LINE
  5
23C
330
1F
100
AcDbEntity
  8
0
  6
Continuous
 62
     7
370
    25
100
AcDbLine
 10
5694.0187553361
 20
5402.2978414649
 30
0.0
 11
5694.0187553361
 21
5403.9478414649
 31
0.0
  0
LINE
  5
23D
330
1F
100
AcDbEntity
  8
0
  6
Continuous
 62
     7
370
    25
100
AcDbLine
 10
5649.0187553361
 20
5426.7578414649
 30
0.0
 11
5651.0187553361
 21
5426.7578414649
 31
0.0
  0
LINE
  5
23E
330
1F
100
AcDbEntity
  8
0
  6
Continuous
 62
     7
370
    25
100
AcDbLine
 10
5649.0187553361
 20
5428.9578414649
 30
0.0
 11
5649.0187553361
 21
5426.7578414649
 31
0.0
  0
LINE
  5
23F
330
1F
100
AcDbEntity
  8
0
  6
Continuous
 62
     7
370
    25
100
AcDbLine
 10
5649.0187553361
 20
5428.9578414649
 30
0.0
 11
5651.0187553361
 21
5428.9578414649
 31
0.0
  0
LINE
  5
240
330
1F
100
AcDbEntity
  8
0
  6
Continuous
 62
     7
370
    25
100
AcDbLine
 10
5651.0187553361
 20
5428.9578414649
 30
0.0
 11
5651.0187553361
 21
5426.7578414649
 31
0.0
  0
LINE
  5
241
330
1F
100
AcDbEntity
  8
0
  6
Continuous
 62
     7
370
    25
100
AcDbLine
 10
5649.0187553361
 20
5403.9578414649
 30
0.0
 11
5651.0187553361
 21
5403.9578414649
 31
0.0
  0
LINE
  5
242
330
1F
100
AcDbEntity
  8
0
  6
Continuous
 62
     7
370
    25
100
AcDbLine
 10
5649.0187553361
 20
5426.7578414649
 30
0.0
 11
5649.0187553361
 21
5403.9578414649
 31
0.0
  0
LINE
  5
243
330
1F
100
AcDbEntity
  8
0
  6
Continuous
 62
     7
370
    25
100
AcDbLine
 10
5651.0187553361
 20
5426.7578414649
 30
0.0
 11
5651.0187553361
 21
5403.9578414649
 31
0.0
  0
LINE
  5
244
330
1F
100
AcDbEntity
  8
0
  6
Continuous
 62
     7
370
    25
100
AcDbLine
 10
5649.0187553361
 20
5403.9578414649
 30
0.0
 11
5649.0187553361
 21
5403.9478414649
 31
0.0
  0
LINE
  5
245
330
1F
100
AcDbEntity
  8
0
  6
Continuous
 62
     7
370
    25
100
AcDbLine
 10
5651.0187553361
 20
5403.9578414649
 30
0.0
 11
5651.0187553361
 21
5403.9478414649
 31
0.0
  0
LINE
  5
246
330
1F
100
AcDbEntity
  8
0
  6
Continuous
 62
     7
370
    25
100
AcDbLine
 10
5649.0187553361
 20
5836.5484885084
 30
0.0
 11
5651.0187553361
 21
5836.5484885084
 31
0.0
  0
LINE
  5
247
330
1F
100
AcDbEntity
  8
0
  6
Continuous
 62
     7
370
    25
100
AcDbLine
 10
5649.0187553361
 20
5838.70041323
 30
0.0
 11
5651.0187553361
 21
5838.70041323
 31
0.0
  0
LINE
  5
248
330
1F
100
AcDbEntity
  8
0
  6
Continuous
 62
     7
370
    25
100
AcDbLine
 10
5649.0187553361
 20
5838.70041323
 30
0.0
 11
5649.0187553361
 21
5836.5484885084
 31
0.0
  0
LINE
  5
249
330
1F
100
AcDbEntity
  8
0
  6
Continuous
 62
     7
370
    25
100
AcDbLine
 10
5651.0187553361
 20
5838.70041323
 30
0.0
 11
5651.0187553361
 21
5836.5484885084
 31
0.0
  0
LINE
  5
24A
330
1F
100
AcDbEntity
  8
0
  6
Continuous
 62
     7
370
    25
100
AcDbLine
 10
5649.0187553361
 20
5836.5484885084
 30
0.0
 11
5649.0187553361
 21
5428.9578414649
 31
0.0
  0
LINE
  5
24B
330
1F
100
AcDbEntity
  8
0
  6
Continuous
 62
     7
370
    25
100
AcDbLine
 10
5651.0187553361
 20
5836.5484885084
 30
0.0
 11
5651.0187553361
 21
5428.9578414649
 31
0.0
  0
LINE
  5
24C
330
1F
100
AcDbEntity
  8
0
  6
Continuous
 62
     7
370
    25
100
AcDbLine
 10
5649.0187553361
 20
5848.3929924421
 30
0.0
 11
5651.0187553361
 21
5848.3929924421
 31
0.0
  0
LINE
  5
24D
330
1F
100
AcDbEntity
  8
0
  6
Continuous
 62
     7
370
    25
100
AcDbLine
 10
5649.0187553361
 20
5848.3929924421
 30
0.0
 11
5649.0187553361
 21
5838.70041323
 31
0.0
  0
LINE
  5
24E
330
1F
100
AcDbEntity
  8
0
  6
Continuous
 62
     7
370
    25
100
AcDbLine
 10
5651.0187553361
 20
5848.3929924421
 30
0.0
 11
5651.0187553361
 21
5838.70041323
 31
0.0
  0
LINE
  5
24F
330
1F
100
AcDbEntity
  8
0
  6
Continuous
 62
     7
370
    25
100
AcDbLine
 10
5649.0187553361
 20
5848.4410677205
 30
0.0
 11
5649.0187553361
 21
5848.3929924421
 31
0.0
  0
LINE
  5
250
330
1F
100
AcDbEntity
  8
0
  6
Continuous
 62
     7
370
    25
100
AcDbLine
 10
5651.0187553361
 20
5848.4410677205
 30
0.0
 11
5651.0187553361
 21
5848.3929924421
 31
0.0
  0
LINE
  5
251
330
1F
100
AcDbEntity
  8
0
  6
Continuous
 62
     7
370
    25
100
AcDbLine
 10
5651.0187553361
 20
5426.7578414649
 30
0.0
 11
6897.0187553361
 21
5426.7578414649
 31
0.0
  0
LINE
  5
252
330
1F
100
AcDbEntity
  8
0
  6
Continuous
 62
     7
370
    25
100
AcDbLine
 10
5651.0187553361
 20
5403.9578414649
 30
0.0
 11
6897.0187553361
 21
5403.9578414649
 31
0.0
  0
LINE
  5
253
330
1F
100
AcDbEntity
  8
0
  6
Continuous
 62
     7
370
    25
100
AcDbLine
 10
6897.0187553361
 20
5428.9578414649
 30
0.0
 11
5651.0187553361
 21
5428.9578414649
 31
0.0
  0
LINE
  5
254
330
1F
100
AcDbEntity
  8
0
  6
Continuous
 62
     7
370
    25
100
AcDbLine
 10
5651.0187553361
 20
5836.5484885084
 30
0.0
 11
6897.0187553361
 21
5836.5484885084
 31
0.0
  0
LINE
  5
255
330
1F
100
AcDbEntity
  8
0
  6
Continuous
 62
     7
370
    25
100
AcDbLine
 10
6897.0187553361
 20
5838.70041323
 30
0.0
 11
5651.0187553361
 21
5838.70041323
 31
0.0
  0
LINE
  5
256
330
1F
100
AcDbEntity
  8
0
  6
Continuous
 62
     7
370
    25
100
AcDbLine
 10
5651.0187553361
 20
5848.3929924421
 30
0.0
 11
6897.0187553361
 21
5848.3929924421
 31
0.0
  0
LINE
  5
257
330
1F
100
AcDbEntity
  8
0
  6
Continuous
 62
     8
370
    25
100
AcDbLine
 10
5828.8281970913
 20
5125.007055025
 30
0.0
 11
5774.2093135809
 21
5125.007055025
 31
0.0
  0
LINE
  5
258
330
1F
100
AcDbEntity
  8
0
  6
Continuous
 62
     8
370
    25
100
AcDbLine
 10
5774.412541056
 20
5000.353737065
 30
0.0
 11
5828.6249696162
 21
5000.353737065
 31
0.0
  0
LINE
  5
259
330
1F
100
AcDbEntity
  8
0
  6
Continuous
 62
     8
370
    25
100
AcDbLine
 10
5778.5187553361
 20
5141.1594129263
 30
0.0
 11
5824.5187553361
 21
5141.1594129263
 31
0.0
  0
LINE
  5
25A
330
1F
100
AcDbEntity
  8
0
  6
Continuous
 62
     8
370
    25
100
AcDbLine
 10
6859.0187553361
 20
4598.9578414649
 30
0.0
 11
6859.0187553361
 21
5178.9578414649
 31
0.0
  0
LINE
  5
25B
330
1F
100
AcDbEntity
  8
0
  6
Continuous
 62
     8
370
    25
100
AcDbLine
 10
6895.0187553361
 20
4598.9578414649
 30
0.0
 11
6895.0187553361
 21
5178.9578414649
 31
0.0
  0
LINE
  5
25C
330
1F
100
AcDbEntity
  8
0
  6
Continuous
 62
     8
370
    25
100
AcDbLine
 10
5689.0187553361
 20
4598.9578414649
 30
0.0
 11
5689.0187553361
 21
5178.9578414649
 31
0.0
  0
LINE
  5
25D
330
1F
100
AcDbEntity
  8
0
  6
Continuous
 62
     8
370
    25
100
AcDbLine
 10
5653.0187553361
 20
4598.9578414649
 30
0.0
 11
5653.0187553361
 21
5178.9578414649
 31
0.0
  0
LINE
  5
25E
330
1F
100
AcDbEntity
  8
0
  6
Continuous
 62
     7
370
    25
100
AcDbLine
 10
7117.1074129975
 20
5145.6594129263
 30
0.0
 11
7111.0995013067
 21
5145.6594129263
 31
0.0
  0
LINE
  5
25F
330
1F
100
AcDbEntity
  8
0
  6
Continuous
 62
     7
370
    25
100
AcDbLine
 10
7111.0995013067
 20
5065.6594129263
 30
0.0
 11
7117.1074129975
 21
5065.6594129263
 31
0.0
  0
LINE
  5
260
330
1F
100
AcDbEntity
  8
0
  6
Continuous
 62
     7
370
    25
100
AcDbLine
 10
7111.0995013067
 20
5125.6594129263
 30
0.0
 11
7101.0995013067
 21
5125.6594129263
 31
0.0
  0
LINE
  5
261
330
1F
100
AcDbEntity
  8
0
  6
Continuous
 62
     7
370
    25
100
AcDbLine
 10
7101.0995013067
 20
5085.6594129263
 30
0.0
 11
7111.0995013067
 21
5085.6594129263
 31
0.0
  0
LINE
  5
262
330
1F
100
AcDbEntity
  8
0
  6
Continuous
 62
     7
370
    25
100
AcDbLine
 10
7293.5995013067
 20
5125.6594129263
 30
0.0
 11
7157.1074129975
 21
5125.6594129263
 31
0.0
  0
LINE
  5
263
330
1F
100
AcDbEntity
  8
0
  6
Continuous
 62
     7
370
    25
100
AcDbLine
 10
7157.1074129975
 20
5085.6594129263
 30
0.0
 11
7293.5995013067
 21
5085.6594129263
 31
0.0
  0
LINE
  5
264
330
1F
100
AcDbEntity
  8
0
  6
Continuous
 62
     7
370
    25
100
AcDbLine
 10
7337.5995013067
 20
5178.9578414649
 30
0.0
 11
7337.5995013067
 21
5144.1594129263
 31
0.0
  0
LINE
  5
265
330
1F
100
AcDbEntity
  8
0
  6
Continuous
 62
     7
370
    25
100
AcDbLine
 10
7337.5995013067
 20
5130.1594129263
 30
0.0
 11
7337.5995013067
 21
5127.6594129263
 31
0.0
  0
LINE
  5
266
330
1F
100
AcDbEntity
  8
0
  6
Continuous
 62
     7
370
    25
100
AcDbLine
 10
7369.5995013067
 20
5127.6594129263
 30
0.0
 11
7369.5995013067
 21
5130.1594129263
 31
0.0
  0
LINE
  5
267
330
1F
100
AcDbEntity
  8
0
  6
Continuous
 62
     7
370
    25
100
AcDbLine
 10
7369.5995013067
 20
5144.1594129263
 30
0.0
 11
7369.5995013067
 21
5178.9578414649
 31
0.0
  0
LINE
  5
268
330
1F
100
AcDbEntity
  8
0
  6
Continuous
 62
     7
370
    25
100
AcDbLine
 10
7319.5995013067
 20
5067.6594129263
 30
0.0
 11
7326.4932870266
 21
5000.353737065
 31
0.0
  0
LINE
  5
269
330
1F
100
AcDbEntity
  8
0
  6
Continuous
 62
     7
370
    25
100
AcDbLine
 10
7380.7057155869
 20
5000.353737065
 30
0.0
 11
7387.5995013067
 21
5067.6594129263
 31
0.0
  0
LINE
  5
26A
330
1F
100
AcDbEntity
  8
0
  6
Continuous
 62
     7
370
    25
100
AcDbLine
 10
7387.5995013067
 20
5067.6594129263
 30
0.0
 11
7380.9089430619
 21
5125.007055025
 31
0.0
  0
LINE
  5
26B
330
1F
100
AcDbEntity
  8
0
  6
Continuous
 62
     7
370
    25
100
AcDbLine
 10
7321.4706029418
 20
5083.6974269413
 30
0.0
 11
7319.5995013067
 21
5067.6594129263
 31
0.0
  0
LINE
  5
26C
330
1F
100
AcDbEntity
  8
0
  6
Continuous
 62
     7
370
    25
100
AcDbLine
 10
7309.5995013067
 20
5133.1594129263
 30
0.0
 11
7305.5995013067
 21
5131.6594129263
 31
0.0
  0
LINE
  5
26D
330
1F
100
AcDbEntity
  8
0
  6
Continuous
 62
     7
370
    25
100
AcDbLine
 10
7305.5995013067
 20
5079.6594129263
 30
0.0
 11
7309.5995013067
 21
5078.1594129263
 31
0.0
  0
ARC
  5
26E
330
1F
100
AcDbEntity
  8
0
  6
Continuous
 62
     7
370
    25
100
AcDbCircle
 10
7377.9291536446
 20
5124.6594129263
 30
0.0
 40
3.000000000000807
100
AcDbArc
 50
6.654425046
 51
90.0
  0
ARC
  5
26F
330
1F
100
AcDbEntity
  8
0
  6
Continuous
 62
     7
370
    25
100
AcDbCircle
 10
7329.4776734405
 20
5000.6594129263
 30
0.0
 40
3.0
100
AcDbArc
 50
185.8481280261
 51
270.0
  0
ARC
  5
270
330
1F
100
AcDbEntity
  8
0
  6
Continuous
 62
     7
370
    25
100
AcDbCircle
 10
7377.7213291729
 20
5000.6594129263
 30
0.0
 40
3.000000000000332
100
AcDbArc
 50
270.0
 51
354.1518719739
  0
LINE
  5
271
330
1F
100
AcDbEntity
  8
0
  6
Continuous
 62
     7
370
    25
100
AcDbLine
 10
7305.5995013067
 20
5131.6594129263
 30
0.0
 11
7296.5995013067
 21
5131.6594129263
 31
0.0
  0
LINE
  5
272
330
1F
100
AcDbEntity
  8
0
  6
Continuous
 62
     7
370
    25
100
AcDbLine
 10
7296.5995013067
 20
5079.6594129263
 30
0.0
 11
7305.5995013067
 21
5079.6594129263
 31
0.0
  0
ARC
  5
273
330
1F
100
AcDbEntity
  8
0
  6
Continuous
 62
     7
370
    25
100
AcDbCircle
 10
7296.5995013067
 20
5128.6594129263
 30
0.0
 40
3.000000000000909
100
AcDbArc
 50
90.0
 51
180.0
  0
ARC
  5
274
330
1F
100
AcDbEntity
  8
0
  6
Continuous
 62
     7
370
    25
100
AcDbCircle
 10
7296.5995013067
 20
5082.6594129263
 30
0.0
 40
3.0
100
AcDbArc
 50
180.0
 51
270.0
  0
LINE
  5
275
330
1F
100
AcDbEntity
  8
0
  6
Continuous
 62
     7
370
    25
100
AcDbLine
 10
7378.5995013067
 20
5130.1594129263
 30
0.0
 11
7376.5995013067
 21
5134.1594129263
 31
0.0
  0
LINE
  5
276
330
1F
100
AcDbEntity
  8
0
  6
Continuous
 62
     7
370
    25
100
AcDbLine
 10
7330.5995013067
 20
5134.1594129263
 30
0.0
 11
7328.5995013067
 21
5130.1594129263
 31
0.0
  0
ARC
  5
277
330
1F
100
AcDbEntity
  8
0
  6
Continuous
 62
     7
370
    25
100
AcDbCircle
 10
7333.5995013067
 20
5141.1594129263
 30
0.0
 40
3.0
100
AcDbArc
 50
90.0
 51
180.0
  0
ARC
  5
278
330
1F
100
AcDbEntity
  8
0
  6
Continuous
 62
     7
370
    25
100
AcDbCircle
 10
7373.5995013067
 20
5141.1594129263
 30
0.0
 40
3.0
100
AcDbArc
 50
0.0
 51
90.0
  0
LINE
  5
279
330
1F
100
AcDbEntity
  8
0
  6
Continuous
 62
     7
370
    25
100
AcDbLine
 10
7330.5995013067
 20
5141.1594129263
 30
0.0
 11
7330.5995013067
 21
5134.1594129263
 31
0.0
  0
LINE
  5
27A
330
1F
100
AcDbEntity
  8
0
  6
Continuous
 62
     7
370
    25
100
AcDbLine
 10
7376.5995013067
 20
5134.1594129263
 30
0.0
 11
7376.5995013067
 21
5141.1594129263
 31
0.0
  0
LINE
  5
27B
330
1F
100
AcDbEntity
  8
0
  6
Continuous
 62
     7
370
    25
100
AcDbLine
 10
7309.5995013067
 20
5083.6594129263
 30
0.0
 11
7321.4943464686
 21
5083.6594129263
 31
0.0
  0
LINE
  5
27C
330
1F
100
AcDbEntity
  8
0
  6
Continuous
 62
     7
370
    25
100
AcDbLine
 10
7326.5995013067
 20
5127.6594129263
 30
0.0
 11
7309.5995013067
 21
5127.6594129263
 31
0.0
  0
ARC
  5
27D
330
1F
100
AcDbEntity
  8
0
  6
Continuous
 62
     7
370
    25
100
AcDbCircle
 10
7128.7530602322
 20
5809.4235408582
 30
0.0
 40
37.00000000000001
100
AcDbArc
 50
59.0753555839
 51
96.9246444161
  0
LINE
  5
27E
330
1F
100
AcDbEntity
  8
0
  6
Continuous
 62
     7
370
    25
100
AcDbLine
 10
7163.5995013066
 20
5768.957841465
 30
0.0
 11
7161.0995013066
 21
5768.957841465
 31
0.0
  0
LINE
  5
27F
330
1F
100
AcDbEntity
  8
0
  6
Continuous
 62
     7
370
    25
100
AcDbLine
 10
7161.0995013066
 20
5708.957841465
 30
0.0
 11
7163.5995013066
 21
5708.957841465
 31
0.0
  0
LINE
  5
280
330
1F
100
AcDbEntity
  8
0
  6
Continuous
 62
     7
370
    25
100
AcDbLine
 10
7163.5995013066
 20
5708.957841465
 30
0.0
 11
7164.0995013066
 21
5709.457841465
 31
0.0
  0
LINE
  5
281
330
1F
100
AcDbEntity
  8
0
  6
Continuous
 62
     7
370
    25
100
AcDbLine
 10
7164.0995013066
 20
5768.457841465
 30
0.0
 11
7163.5995013066
 21
5768.957841465
 31
0.0
  0
LINE
  5
282
330
1F
100
AcDbEntity
  8
0
  6
Continuous
 62
     7
370
    25
100
AcDbLine
 10
7172.7495013067
 20
5724.9578414646
 30
0.0
 11
7295.0995013067
 21
5724.9578414646
 31
0.0
  0
LINE
  5
283
330
1F
100
AcDbEntity
  8
0
  6
Continuous
 62
     7
370
    25
100
AcDbLine
 10
7164.0995013067
 20
5724.9578414646
 30
0.0
 11
7169.4701907414
 21
5724.9578414646
 31
0.0
  0
LINE
  5
284
330
1F
100
AcDbEntity
  8
0
  6
Continuous
 62
     7
370
    25
100
AcDbLine
 10
7329.0995013067
 20
5752.9578414646
 30
0.0
 11
7164.0995013067
 21
5752.9578414646
 31
0.0
  0
LINE
  5
285
330
1F
100
AcDbEntity
  8
0
  6
Continuous
 62
     7
370
    25
100
AcDbLine
 10
7330.0995013067
 20
5751.9578414646
 30
0.0
 11
7329.0995013067
 21
5752.9578414646
 31
0.0
  0
LINE
  5
286
330
1F
100
AcDbEntity
  8
0
  6
Continuous
 62
     7
370
    25
100
AcDbLine
 10
7132.1074129975
 20
4590.9578414649
 30
0.0
 11
7132.1074129975
 21
4586.9578414649
 31
0.0
  0
LINE
  5
287
330
1F
100
AcDbEntity
  8
0
  6
Continuous
 62
     7
370
    25
100
AcDbLine
 10
7142.1074129975
 20
4586.9578414649
 30
0.0
 11
7142.1074129975
 21
4590.9578414649
 31
0.0
  0
LINE
  5
288
330
1F
100
AcDbEntity
  8
0
  6
Continuous
 62
     7
370
    25
100
AcDbLine
 10
7564.1995013067
 20
4590.9578414649
 30
0.0
 11
7564.1995013067
 21
4586.9578414649
 31
0.0
  0
LINE
  5
289
330
1F
100
AcDbEntity
  8
0
  6
Continuous
 62
     7
370
    25
100
AcDbLine
 10
7574.1995013067
 20
4586.9578414649
 30
0.0
 11
7574.1995013067
 21
4590.9578414649
 31
0.0
  0
LINE
  5
28A
330
1F
100
AcDbEntity
  8
0
  6
Continuous
 62
     7
370
    25
100
AcDbLine
 10
7111.0995013067
 20
5145.6594129263
 30
0.0
 11
7111.0995013067
 21
5065.6594129263
 31
0.0
  0
LINE
  5
28B
330
1F
100
AcDbEntity
  8
0
  6
Continuous
 62
     7
370
    25
100
AcDbLine
 10
7101.0995013067
 20
5125.6594129263
 30
0.0
 11
7101.0995013067
 21
5085.6594129263
 31
0.0
  0
LINE
  5
28C
330
1F
100
AcDbEntity
  8
0
  6
Continuous
 62
     7
370
    25
100
AcDbLine
 10
7319.5995013067
 20
5067.6594129263
 30
0.0
 11
7387.5995013067
 21
5067.6594129263
 31
0.0
  0
LWPOLYLINE
  5
28D
330
1F
100
AcDbEntity
  8
0
  6
Continuous
 62
     7
370
    25
100
AcDbPolyline
 90
       20
 70
   128
 43
0.0
 10
7328.3777475264
 20
5125.007055025
 10
7329.3831455541
 20
5123.3869962279
 10
7330.6574941063
 20
5121.1414828227
 10
7331.9680861536
 20
5118.4576319854
 10
7332.9807379667
 20
5115.8491132488
 10
7333.7648737189
 20
5112.9047533185
 10
7334.0922874436
 20
5110.4959030554
 10
7334.1125301031
 20
5107.9330276002
 10
7333.8042513789
 20
5105.4261859862
 10
7333.1827171495
 20
5102.9078162544
 10
7331.9845925343
 20
5099.7049971223
 10
7330.4797131097
 20
5096.6536741515
 10
7328.3640959588
 20
5093.0967228897
 10
7326.1932471871
 20
5089.8883420901
 10
7324.5823892716
 20
5087.6775124673
 10
7323.1740252335
 20
5085.8265326098
 10
7322.307265044
 20
5084.7173523766
 10
7321.7144590919
 20
5083.9699690826
 10
7321.4724502118
 20
5083.6672532911
 10
7321.4943795538
 20
5083.6946530033
  0
LINE
  5
28E
330
1F
100
AcDbEntity
  8
0
  6
Continuous
 62
     7
370
    25
100
AcDbLine
 10
7309.5995013067
 20
5133.1594129263
 30
0.0
 11
7309.5995013067
 21
5078.1594129263
 31
0.0
  0
LINE
  5
28F
330
1F
100
AcDbEntity
  8
0
  6
Continuous
 62
     7
370
    25
100
AcDbLine
 10
7305.5995013067
 20
5131.6594129263
 30
0.0
 11
7305.5995013067
 21
5079.6594129263
 31
0.0
  0
ARC
  5
290
330
1F
100
AcDbEntity
  8
0
  6
Continuous
 62
     7
370
    25
100
AcDbCircle
 10
7331.2307561904
 20
5124.8007380831
 30
0.0
 40
2.86045889983489
100
AcDbArc
 50
92.0237024967
 51
175.863823239
  0
LINE
  5
291
330
1F
100
AcDbEntity
  8
0
  6
Continuous
 62
     7
370
    25
100
AcDbLine
 10
7331.1297450104
 20
5127.6594129263
 30
0.0
 11
7377.9291536446
 21
5127.6594129263
 31
0.0
  0
LINE
  5
292
330
1F
100
AcDbEntity
  8
0
  6
Continuous
 62
     7
370
    25
100
AcDbLine
 10
7329.4776734405
 20
4997.6594129263
 30
0.0
 11
7377.7213291587
 21
4997.6594129263
 31
0.0
  0
LINE
  5
293
330
1F
100
AcDbEntity
  8
0
  6
Continuous
 62
     7
370
    25
100
AcDbLine
 10
7293.5995013067
 20
5128.6594129263
 30
0.0
 11
7293.5995013067
 21
5082.6594129263
 31
0.0
  0
LINE
  5
294
330
1F
100
AcDbEntity
  8
0
  6
Continuous
 62
     7
370
    25
100
AcDbLine
 10
7330.5995013067
 20
5134.1594129263
 30
0.0
 11
7376.5995013067
 21
5134.1594129263
 31
0.0
  0
LINE
  5
295
330
1F
100
AcDbEntity
  8
0
  6
Continuous
 62
     7
370
    25
100
AcDbLine
 10
7328.5995013067
 20
5130.1594129263
 30
0.0
 11
7378.5995013067
 21
5130.1594129263
 31
0.0
  0
LINE
  5
296
330
1F
100
AcDbEntity
  8
0
  6
Continuous
 62
     7
370
    25
100
AcDbLine
 10
7333.5995013067
 20
5144.1594129263
 30
0.0
 11
7373.5995011328
 21
5144.1594129263
 31
0.0
  0
ARC
  5
297
330
1F
100
AcDbEntity
  8
0
  6
Continuous
 62
     7
370
    25
100
AcDbCircle
 10
7258.8101513673
 20
5080.2884543439
 30
0.0
 40
82.70068731408031
100
AcDbArc
 50
32.7332300189
 51
34.9457141136
  0
LINE
  5
298
330
1F
100
AcDbEntity
  8
0
  6
Continuous
 62
     7
370
    25
100
AcDbLine
 10
7326.5995013067
 20
5127.6594129263
 30
0.0
 11
7331.1297450104
 21
5127.6594129263
 31
0.0
  0
LINE
  5
299
330
1F
100
AcDbEntity
  8
0
  6
Continuous
 62
     7
370
    25
100
AcDbLine
 10
7170.0453332358
 20
5724.9578414622
 30
0.0
 11
7169.5995013067
 21
5724.9578414622
 31
0.0
  0
LINE
  5
29A
330
1F
100
AcDbEntity
  8
0
  6
Continuous
 62
     7
370
    25
100
AcDbLine
 10
7172.5995013067
 20
5724.9578414622
 30
0.0
 11
7170.0453332358
 21
5724.9578414622
 31
0.0
  0
LINE
  5
29B
330
1F
100
AcDbEntity
  8
0
  6
Continuous
 62
     7
370
    25
100
AcDbLine
 10
7163.5995013066
 20
5708.957841465
 30
0.0
 11
7163.5995013066
 21
5768.957841465
 31
0.0
  0
LINE
  5
29C
330
1F
100
AcDbEntity
  8
0
  6
Continuous
 62
     7
370
    25
100
AcDbLine
 10
7164.0995013066
 20
5768.457841465
 30
0.0
 11
7164.0995013066
 21
5709.457841465
 31
0.0
  0
LINE
  5
29D
330
1F
100
AcDbEntity
  8
0
  6
Continuous
 62
     7
370
    25
100
AcDbLine
 10
7163.5995013067
 20
5750.5297978213
 30
0.0
 11
7163.5995013067
 21
5768.9578414646
 31
0.0
  0
LINE
  5
29E
330
1F
100
AcDbEntity
  8
0
  6
Continuous
 62
     7
370
    25
100
AcDbLine
 10
7163.5995013067
 20
5708.9578414646
 30
0.0
 11
7163.5995013067
 21
5750.5297978213
 31
0.0
  0
LINE
  5
29F
330
1F
100
AcDbEntity
  8
0
  6
Continuous
 62
     7
370
    25
100
AcDbLine
 10
7164.0995013067
 20
5750.3369318821
 30
0.0
 11
7164.0995013067
 21
5709.4578414646
 31
0.0
  0
LINE
  5
2A0
330
1F
100
AcDbEntity
  8
0
  6
Continuous
 62
     7
370
    25
100
AcDbLine
 10
7164.0995013067
 20
5768.4578414646
 30
0.0
 11
7164.0995013067
 21
5750.3369318821
 31
0.0
  0
LINE
  5
2A1
330
1F
100
AcDbEntity
  8
0
  6
Continuous
 62
     7
370
    25
100
AcDbLine
 10
7329.0995013067
 20
5734.0681140073
 30
0.0
 11
7329.0995013067
 21
5752.9578414646
 31
0.0
  0
LINE
  5
2A2
330
1F
100
AcDbEntity
  8
0
  6
Continuous
 62
     7
370
    25
100
AcDbLine
 10
7295.0995013067
 20
5724.9578414646
 30
0.0
 11
7329.0995013067
 21
5734.0681140073
 31
0.0
  0
ARC
  5
2A3
330
1F
100
AcDbEntity
  8
0
  6
Continuous
 62
     7
370
    25
100
AcDbCircle
 10
7171.0995698561
 20
5711.0098802383
 30
0.0
 40
14.04520901102251
100
AcDbArc
 50
83.253721142
 51
96.661860791
  0
LINE
  5
2A4
330
1F
100
AcDbEntity
  8
0
  6
Continuous
 62
     7
370
    25
100
AcDbLine
 10
7330.0995013067
 20
5751.9578414646
 30
0.0
 11
7330.0995013067
 21
5734.3360631997
 31
0.0
  0
LINE
  5
2A5
330
1F
100
AcDbEntity
  8
0
  6
Continuous
 62
     7
370
    25
100
AcDbLine
 10
7330.0995013067
 20
5734.3360631997
 30
0.0
 11
7329.0995013067
 21
5734.0681140073
 31
0.0
  0
ARC
  5
2A6
330
1F
100
AcDbEntity
  8
0
  6
Continuous
 62
     7
370
    25
100
AcDbCircle
 10
7122.6074129975
 20
4596.9578414649
 30
0.0
 40
6.0
100
AcDbArc
 50
180.0
 51
270.0
  0
LINE
  5
2A7
330
1F
100
AcDbEntity
  8
0
  6
Continuous
 62
     7
370
    25
100
AcDbLine
 10
7116.6074129975
 20
4596.9578414649
 30
0.0
 11
7119.1074129975
 21
4596.9578414649
 31
0.0
  0
ELLIPSE
  5
2A8
330
1F
100
AcDbEntity
  8
0
  6
Continuous
 62
     7
370
    25
100
AcDbEllipse
 10
7122.6074129975
 20
4596.9578414649
 30
0.0
 11
0.0
 21
6.0
 31
0.0
210
0.0
220
0.0
230
1.0
 40
0.5833333333
 41
1.570796326794897
 42
3.141592653589793
  0
LINE
  5
2A9
330
1F
100
AcDbEntity
  8
0
  6
Continuous
 62
     7
370
    25
100
AcDbLine
 10
7155.1074129975
 20
4596.9578414649
 30
0.0
 11
7155.1074129975
 21
4598.9578414649
 31
0.0
  0
LINE
  5
2AA
330
1F
100
AcDbEntity
  8
0
  6
Continuous
 62
     7
370
    25
100
AcDbLine
 10
7119.1074129975
 20
4596.9578414649
 30
0.0
 11
7155.1074129975
 21
4596.9578414649
 31
0.0
  0
LINE
  5
2AB
330
1F
100
AcDbEntity
  8
0
  6
Continuous
 62
     7
370
    25
100
AcDbLine
 10
7119.1074129975
 20
4596.9578414649
 30
0.0
 11
7119.1074129975
 21
4598.9578414649
 31
0.0
  0
LINE
  5
2AC
330
1F
100
AcDbEntity
  8
0
  6
Continuous
 62
     7
370
    25
100
AcDbLine
 10
7155.1074129975
 20
4598.9578414649
 30
0.0
 11
7119.1074129975
 21
4598.9578414649
 31
0.0
  0
LINE
  5
2AD
330
1F
100
AcDbEntity
  8
0
  6
Continuous
 62
     7
370
    25
100
AcDbLine
 10
7116.6074129975
 20
4596.9578414649
 30
0.0
 11
7116.6074129975
 21
4598.9578414649
 31
0.0
  0
LINE
  5
2AE
330
1F
100
AcDbEntity
  8
0
  6
Continuous
 62
     7
370
    25
100
AcDbLine
 10
7119.1074129975
 20
4598.9578414649
 30
0.0
 11
7116.6074129975
 21
4598.9578414649
 31
0.0
  0
ELLIPSE
  5
2AF
330
1F
100
AcDbEntity
  8
0
  6
Continuous
 62
     7
370
    25
100
AcDbEllipse
 10
7151.6074129975
 20
4596.9578414649
 30
0.0
 11
0.0
 21
6.0
 31
0.0
210
0.0
220
0.0
230
1.0
 40
0.5833333333
 41
3.141592653589793
 42
4.712388980384698
  0
LINE
  5
2B0
330
1F
100
AcDbEntity
  8
0
  6
Continuous
 62
     7
370
    25
100
AcDbLine
 10
7151.6074129975
 20
4590.9578414649
 30
0.0
 11
7122.6074129975
 21
4590.9578414649
 31
0.0
  0
ARC
  5
2B1
330
1F
100
AcDbEntity
  8
0
  6
Continuous
 62
     7
370
    25
100
AcDbCircle
 10
7151.6074129975
 20
4596.9578414649
 30
0.0
 40
6.000000000000909
100
AcDbArc
 50
270.0
 51
0.0
  0
LINE
  5
2B2
330
1F
100
AcDbEntity
  8
0
  6
Continuous
 62
     7
370
    25
100
AcDbLine
 10
7155.1074129975
 20
4596.9578414649
 30
0.0
 11
7157.6074129975
 21
4596.9578414649
 31
0.0
  0
LINE
  5
2B3
330
1F
100
AcDbEntity
  8
0
  6
Continuous
 62
     7
370
    25
100
AcDbLine
 10
7157.6074129975
 20
4596.9578414649
 30
0.0
 11
7157.6074129975
 21
4598.9578414649
 31
0.0
  0
LINE
  5
2B4
330
1F
100
AcDbEntity
  8
0
  6
Continuous
 62
     7
370
    25
100
AcDbLine
 10
7157.6074129975
 20
4598.9578414649
 30
0.0
 11
7155.1074129975
 21
4598.9578414649
 31
0.0
  0
LINE
  5
2B5
330
1F
100
AcDbEntity
  8
0
  6
Continuous
 62
     7
370
    25
100
AcDbLine
 10
7137.1074129975
 20
4578.9578414649
 30
0.0
 11
7137.1074129975
 21
4586.9578414649
 31
0.0
  0
LINE
  5
2B6
330
1F
100
AcDbEntity
  8
0
  6
Continuous
 62
     7
370
    25
100
AcDbLine
 10
7137.1074129975
 20
4578.9578414649
 30
0.0
 11
7122.1074129975
 21
4578.9578414649
 31
0.0
  0
LINE
  5
2B7
330
1F
100
AcDbEntity
  8
0
  6
Continuous
 62
     7
370
    25
100
AcDbLine
 10
7122.1074129975
 20
4578.9578414649
 30
0.0
 11
7122.1074129975
 21
4586.9578414649
 31
0.0
  0
LINE
  5
2B8
330
1F
100
AcDbEntity
  8
0
  6
Continuous
 62
     7
370
    25
100
AcDbLine
 10
7137.1074129975
 20
4586.9578414649
 30
0.0
 11
7122.1074129975
 21
4586.9578414649
 31
0.0
  0
LINE
  5
2B9
330
1F
100
AcDbEntity
  8
0
  6
Continuous
 62
     7
370
    25
100
AcDbLine
 10
7152.1074129975
 20
4578.9578414649
 30
0.0
 11
7152.1074129975
 21
4586.9578414649
 31
0.0
  0
LINE
  5
2BA
330
1F
100
AcDbEntity
  8
0
  6
Continuous
 62
     7
370
    25
100
AcDbLine
 10
7152.1074129975
 20
4578.9578414649
 30
0.0
 11
7137.1074129975
 21
4578.9578414649
 31
0.0
  0
LINE
  5
2BB
330
1F
100
AcDbEntity
  8
0
  6
Continuous
 62
     7
370
    25
100
AcDbLine
 10
7152.1074129975
 20
4586.9578414649
 30
0.0
 11
7137.1074129975
 21
4586.9578414649
 31
0.0
  0
LINE
  5
2BC
330
1F
100
AcDbEntity
  8
0
  6
Continuous
 62
     7
370
    25
100
AcDbLine
 10
7587.1995013067
 20
4598.9578414649
 30
0.0
 11
7551.1995013067
 21
4598.9578414649
 31
0.0
  0
LINE
  5
2BD
330
1F
100
AcDbEntity
  8
0
  6
Continuous
 62
     7
370
    25
100
AcDbLine
 10
7587.1995013067
 20
4596.9578414649
 30
0.0
 11
7587.1995013067
 21
4598.9578414649
 31
0.0
  0
LINE
  5
2BE
330
1F
100
AcDbEntity
  8
0
  6
Continuous
 62
     7
370
    25
100
AcDbLine
 10
7551.1995013067
 20
4596.9578414649
 30
0.0
 11
7587.1995013067
 21
4596.9578414649
 31
0.0
  0
LINE
  5
2BF
330
1F
100
AcDbEntity
  8
0
  6
Continuous
 62
     7
370
    25
100
AcDbLine
 10
7551.1995013067
 20
4596.9578414649
 30
0.0
 11
7551.1995013067
 21
4598.9578414649
 31
0.0
  0
LINE
  5
2C0
330
1F
100
AcDbEntity
  8
0
  6
Continuous
 62
     7
370
    25
100
AcDbLine
 10
7548.6995013067
 20
4596.9578414649
 30
0.0
 11
7551.1995013067
 21
4596.9578414649
 31
0.0
  0
LINE
  5
2C1
330
1F
100
AcDbEntity
  8
0
  6
Continuous
 62
     7
370
    25
100
AcDbLine
 10
7548.6995013067
 20
4596.9578414649
 30
0.0
 11
7548.6995013067
 21
4598.9578414649
 31
0.0
  0
LINE
  5
2C2
330
1F
100
AcDbEntity
  8
0
  6
Continuous
 62
     7
370
    25
100
AcDbLine
 10
7551.1995013067
 20
4598.9578414649
 30
0.0
 11
7548.6995013067
 21
4598.9578414649
 31
0.0
  0
ARC
  5
2C3
330
1F
100
AcDbEntity
  8
0
  6
Continuous
 62
     7
370
    25
100
AcDbCircle
 10
7554.6995013067
 20
4596.9578414649
 30
0.0
 40
6.000000000000909
100
AcDbArc
 50
180.0
 51
270.0
  0
ELLIPSE
  5
2C4
330
1F
100
AcDbEntity
  8
0
  6
Continuous
 62
     7
370
    25
100
AcDbEllipse
 10
7554.6995013067
 20
4596.9578414649
 30
0.0
 11
0.0
 21
5.999999999999091
 31
0.0
210
0.0
220
0.0
230
1.0
 40
0.5833333333
 41
1.570796326794897
 42
3.141592653589793
  0
ELLIPSE
  5
2C5
330
1F
100
AcDbEntity
  8
0
  6
Continuous
 62
     7
370
    25
100
AcDbEllipse
 10
7583.6995013067
 20
4596.9578414649
 30
0.0
 11
0.0
 21
5.999999999999091
 31
0.0
210
0.0
220
0.0
230
1.0
 40
0.5833333333
 41
3.141592653589793
 42
4.712388980384698
  0
LINE
  5
2C6
330
1F
100
AcDbEntity
  8
0
  6
Continuous
 62
     7
370
    25
100
AcDbLine
 10
7583.6995013067
 20
4590.9578414649
 30
0.0
 11
7554.6995013067
 21
4590.9578414649
 31
0.0
  0
LINE
  5
2C7
330
1F
100
AcDbEntity
  8
0
  6
Continuous
 62
     7
370
    25
100
AcDbLine
 10
7589.6995013067
 20
4596.9578414649
 30
0.0
 11
7589.6995013067
 21
4598.9578414649
 31
0.0
  0
LINE
  5
2C8
330
1F
100
AcDbEntity
  8
0
  6
Continuous
 62
     7
370
    25
100
AcDbLine
 10
7587.1995013067
 20
4596.9578414649
 30
0.0
 11
7589.6995013067
 21
4596.9578414649
 31
0.0
  0
LINE
  5
2C9
330
1F
100
AcDbEntity
  8
0
  6
Continuous
 62
     7
370
    25
100
AcDbLine
 10
7589.6995013067
 20
4598.9578414649
 30
0.0
 11
7587.1995013067
 21
4598.9578414649
 31
0.0
  0
ARC
  5
2CA
330
1F
100
AcDbEntity
  8
0
  6
Continuous
 62
     7
370
    25
100
AcDbCircle
 10
7583.6995013067
 20
4596.9578414649
 30
0.0
 40
6.000000000000909
100
AcDbArc
 50
270.0
 51
0.0
  0
LINE
  5
2CB
330
1F
100
AcDbEntity
  8
0
  6
Continuous
 62
     7
370
    25
100
AcDbLine
 10
7569.1995013067
 20
4578.9578414649
 30
0.0
 11
7569.1995013067
 21
4586.9578414649
 31
0.0
  0
LINE
  5
2CC
330
1F
100
AcDbEntity
  8
0
  6
Continuous
 62
     7
370
    25
100
AcDbLine
 10
7569.1995013067
 20
4578.9578414649
 30
0.0
 11
7554.1995013067
 21
4578.9578414649
 31
0.0
  0
LINE
  5
2CD
330
1F
100
AcDbEntity
  8
0
  6
Continuous
 62
     7
370
    25
100
AcDbLine
 10
7554.1995013067
 20
4578.9578414649
 30
0.0
 11
7554.1995013067
 21
4586.9578414649
 31
0.0
  0
LINE
  5
2CE
330
1F
100
AcDbEntity
  8
0
  6
Continuous
 62
     7
370
    25
100
AcDbLine
 10
7569.1995013067
 20
4586.9578414649
 30
0.0
 11
7554.1995013067
 21
4586.9578414649
 31
0.0
  0
LINE
  5
2CF
330
1F
100
AcDbEntity
  8
0
  6
Continuous
 62
     7
370
    25
100
AcDbLine
 10
7584.1995013067
 20
4578.9578414649
 30
0.0
 11
7584.1995013067
 21
4586.9578414649
 31
0.0
  0
LINE
  5
2D0
330
1F
100
AcDbEntity
  8
0
  6
Continuous
 62
     7
370
    25
100
AcDbLine
 10
7584.1995013067
 20
4586.9578414649
 30
0.0
 11
7569.1995013067
 21
4586.9578414649
 31
0.0
  0
LINE
  5
2D1
330
1F
100
AcDbEntity
  8
0
  6
Continuous
 62
     7
370
    25
100
AcDbLine
 10
7584.1995013067
 20
4578.9578414649
 30
0.0
 11
7569.1995013067
 21
4578.9578414649
 31
0.0
  0
LINE
  5
2D2
330
1F
100
AcDbEntity
  8
0
  6
Continuous
 62
     7
370
    25
100
AcDbLine
 10
7549.1995013067
 20
4598.9578414649
 30
0.0
 11
7549.1995013067
 21
5178.9578414649
 31
0.0
  0
LINE
  5
2D3
330
1F
100
AcDbEntity
  8
0
  6
Continuous
 62
     7
370
    25
100
AcDbLine
 10
7589.1995013067
 20
4598.9578414649
 30
0.0
 11
7589.1995013067
 21
5178.9578414649
 31
0.0
  0
LINE
  5
2D4
330
1F
100
AcDbEntity
  8
0
  6
Continuous
 62
     7
370
    25
100
AcDbLine
 10
7117.1074129975
 20
4598.9578414649
 30
0.0
 11
7117.1074129975
 21
5178.9578414649
 31
0.0
  0
LINE
  5
2D5
330
1F
100
AcDbEntity
  8
0
  6
Continuous
 62
     7
370
    25
100
AcDbLine
 10
7157.1074129975
 20
4598.9578414649
 30
0.0
 11
7157.1074129975
 21
5178.9578414649
 31
0.0
  0
LINE
  5
2D6
330
1F
100
AcDbEntity
  8
0
  6
Continuous
 62
     7
370
    25
100
AcDbLine
 10
7549.1995013067
 20
4735.9578414649
 30
0.0
 11
7157.1074129975
 21
4735.9578414649
 31
0.0
  0
LINE
  5
2D7
330
1F
100
AcDbEntity
  8
0
  6
Continuous
 62
     7
370
    25
100
AcDbLine
 10
7549.1995013068
 20
4771.9578414649
 30
0.0
 11
7157.1074129975
 21
4771.9578414649
 31
0.0
  0
LINE
  5
2D8
330
1F
100
AcDbEntity
  8
0
  6
Continuous
 62
     7
370
    25
100
AcDbLine
 10
7549.1995013067
 20
4733.9578414649
 30
0.0
 11
7157.1074129975
 21
4733.9578414649
 31
0.0
  0
LINE
  5
2D9
330
1F
100
AcDbEntity
  8
0
  6
Continuous
 62
     7
370
    25
100
AcDbLine
 10
7549.1995013067
 20
4773.9578414649
 30
0.0
 11
7157.1074129975
 21
4773.9578414649
 31
0.0
  0
LINE
  5
2DA
330
1F
100
AcDbEntity
  8
0
  6
Continuous
 62
     7
370
    25
100
AcDbLine
 10
7111.0995013067
 20
5825.5578414649
 30
0.0
 11
7111.0995013067
 21
5846.2410677205
 31
0.0
  0
ARC
  5
2DB
330
1F
100
AcDbEntity
  8
0
  6
Continuous
 62
     7
370
    25
100
AcDbCircle
 10
7113.2995013067
 20
5846.2410677205
 30
0.0
 40
2.199999999999374
100
AcDbArc
 50
78.0
 51
180.0
  0
LINE
  5
2DC
330
1F
100
AcDbEntity
  8
0
  6
Continuous
 62
     7
370
    25
100
AcDbLine
 10
7113.7569070265
 20
5848.3929924421
 30
0.0
 11
7159.3569070265
 21
5838.70041323
 31
0.0
  0
ARC
  5
2DD
330
1F
100
AcDbEntity
  8
0
  6
Continuous
 62
     7
370
    25
100
AcDbCircle
 10
7158.8995013067
 20
5836.5484885084
 30
0.0
 40
2.200000000000728
100
AcDbArc
 50
0.0
 51
78.0
  0
LINE
  5
2DE
330
1F
100
AcDbEntity
  8
0
  6
Continuous
 62
     7
370
    25
100
AcDbLine
 10
7161.0995013067
 20
5836.5484885084
 30
0.0
 11
7161.0995013067
 21
5428.9578414649
 31
0.0
  0
LINE
  5
2DF
330
1F
100
AcDbEntity
  8
0
  6
Continuous
 62
     7
370
    25
100
AcDbLine
 10
7161.0995013067
 20
5428.9578414649
 30
0.0
 11
7588.8995013067
 21
5428.9578414649
 31
0.0
  0
ARC
  5
2E0
330
1F
100
AcDbEntity
  8
0
  6
Continuous
 62
     7
370
    25
100
AcDbCircle
 10
7588.8995013067
 20
5426.7578414649
 30
0.0
 40
2.199999999999818
100
AcDbArc
 50
0.0
 51
90.0
  0
LINE
  5
2E1
330
1F
100
AcDbEntity
  8
0
  6
Continuous
 62
     7
370
    25
100
AcDbLine
 10
7591.0995013067
 20
5426.7578414649
 30
0.0
 11
7591.0995013067
 21
5403.9578414649
 31
0.0
  0
LINE
  5
2E2
330
1F
100
AcDbEntity
  8
0
  6
Continuous
 62
     7
370
    25
100
AcDbLine
 10
7591.0995013067
 20
5403.9578414649
 30
0.0
 11
7588.0995013067
 21
5403.9578414649
 31
0.0
  0
LINE
  5
2E3
330
1F
100
AcDbEntity
  8
0
  6
Continuous
 62
     7
370
    25
100
AcDbLine
 10
7588.0995013067
 20
5403.9578414649
 30
0.0
 11
7588.0995013067
 21
5403.9478414649
 31
0.0
  0
LINE
  5
2E4
330
1F
100
AcDbEntity
  8
0
  6
Continuous
 62
     7
370
    25
100
AcDbLine
 10
7588.0995013067
 20
5178.9578414649
 30
0.0
 11
7588.0995013067
 21
5403.9478414649
 31
0.0
  0
LINE
  5
2E5
330
1F
100
AcDbEntity
  8
0
  6
Continuous
 62
     7
370
    25
100
AcDbLine
 10
7114.1995013067
 20
5823.5578414649
 30
0.0
 11
7114.1995013067
 21
5178.9578414649
 31
0.0
  0
LINE
  5
2E6
330
1F
100
AcDbEntity
  8
0
  6
Continuous
 62
     7
370
    25
100
AcDbLine
 10
7114.1995013067
 20
5823.5578414649
 30
0.0
 11
7115.1995013067
 21
5823.5578414649
 31
0.0
  0
LINE
  5
2E7
330
1F
100
AcDbEntity
  8
0
  6
Continuous
 62
     7
370
    25
100
AcDbLine
 10
7115.1995013067
 20
5823.5578414649
 30
0.0
 11
7115.1995013067
 21
5825.5578414649
 31
0.0
  0
LINE
  5
2E8
330
1F
100
AcDbEntity
  8
0
  6
Continuous
 62
     7
370
    25
100
AcDbLine
 10
7115.1995013067
 20
5825.5578414649
 30
0.0
 11
7111.0995013067
 21
5825.5578414649
 31
0.0
  0
LINE
  5
2E9
330
1F
100
AcDbEntity
  8
0
  6
Continuous
 62
     7
370
    25
100
AcDbLine
 10
7588.0995013067
 20
5178.9578414649
 30
0.0
 11
7114.1995013067
 21
5178.9578414649
 31
0.0
  0
LINE
  5
2EA
330
1F
100
AcDbEntity
  8
0
  6
Continuous
 62
     7
370
    25
100
AcDbLine
 10
7111.0995013067
 20
5178.9578414649
 30
0.0
 11
7111.0995013067
 21
5823.5578414649
 31
0.0
  0
LINE
  5
2EB
330
1F
100
AcDbEntity
  8
0
  6
Continuous
 62
     7
370
    25
100
AcDbLine
 10
7114.1995013067
 20
5178.9578414649
 30
0.0
 11
7111.0995013067
 21
5178.9578414649
 31
0.0
  0
LINE
  5
2EC
330
1F
100
AcDbEntity
  8
0
  6
Continuous
 62
     7
370
    25
100
AcDbLine
 10
7111.0995013067
 20
5823.5578414649
 30
0.0
 11
7114.1995013067
 21
5823.5578414649
 31
0.0
  0
LINE
  5
2ED
330
1F
100
AcDbEntity
  8
0
  6
Continuous
 62
     7
370
    25
100
AcDbLine
 10
7591.1995013067
 20
5178.9578414649
 30
0.0
 11
7591.1995013067
 21
5403.9478414649
 31
0.0
  0
LINE
  5
2EE
330
1F
100
AcDbEntity
  8
0
  6
Continuous
 62
     7
370
    25
100
AcDbLine
 10
7591.1995013067
 20
5178.9578414649
 30
0.0
 11
7588.0995013067
 21
5178.9578414649
 31
0.0
  0
LINE
  5
2EF
330
1F
100
AcDbEntity
  8
0
  6
Continuous
 62
     7
370
    25
100
AcDbLine
 10
7588.0995013067
 20
5403.9478414649
 30
0.0
 11
7591.1995013067
 21
5403.9478414649
 31
0.0
  0
LINE
  5
2F0
330
1F
100
AcDbEntity
  8
0
  6
Continuous
 62
     7
370
    25
100
AcDbLine
 10
7112.2995013067
 20
5825.5578414649
 30
0.0
 11
7112.2995013067
 21
5823.9578414649
 31
0.0
  0
LINE
  5
2F1
330
1F
100
AcDbEntity
  8
0
  6
Continuous
 62
     7
370
    25
100
AcDbLine
 10
7111.0995013067
 20
5823.9578414649
 30
0.0
 11
7112.2995013067
 21
5823.9578414649
 31
0.0
  0
LINE
  5
2F2
330
1F
100
AcDbEntity
  8
0
  6
Continuous
 62
     7
370
    25
100
AcDbLine
 10
7111.0995013067
 20
5825.5578414649
 30
0.0
 11
7111.0995013067
 21
5823.9578414649
 31
0.0
  0
LINE
  5
2F3
330
1F
100
AcDbEntity
  8
0
  6
Continuous
 62
     8
370
    25
100
AcDbLine
 10
7326.4932870266
 20
5000.353737065
 30
0.0
 11
7380.7057155869
 21
5000.353737065
 31
0.0
  0
LINE
  5
2F4
330
1F
100
AcDbEntity
  8
0
  6
Continuous
 62
     8
370
    25
100
AcDbLine
 10
7380.9089430619
 20
5125.007055025
 30
0.0
 11
7328.3777475264
 21
5125.007055025
 31
0.0
  0
LINE
  5
2F5
330
1F
100
AcDbEntity
  8
0
  6
Continuous
 62
     8
370
    25
100
AcDbLine
 10
7296.5995013067
 20
5131.6594129263
 30
0.0
 11
7296.5995013067
 21
5079.6594129263
 31
0.0
  0
LINE
  5
2F6
330
1F
100
AcDbEntity
  8
0
  6
Continuous
 62
     8
370
    25
100
AcDbLine
 10
7330.5995013067
 20
5141.1594129263
 30
0.0
 11
7376.5995013067
 21
5141.1594129263
 31
0.0
  0
LINE
  5
2F7
330
1F
100
AcDbEntity
  8
0
  6
Continuous
 62
     8
370
    25
100
AcDbLine
 10
7551.1995013067
 20
4598.9578414649
 30
0.0
 11
7551.1995013067
 21
5178.9578414649
 31
0.0
  0
LINE
  5
2F8
330
1F
100
AcDbEntity
  8
0
  6
Continuous
 62
     8
370
    25
100
AcDbLine
 10
7587.1995013067
 20
4598.9578414649
 30
0.0
 11
7587.1995013067
 21
5178.9578414649
 31
0.0
  0
LINE
  5
2F9
330
1F
100
AcDbEntity
  8
0
  6
Continuous
 62
     8
370
    25
100
AcDbLine
 10
7119.1074129975
 20
4598.9578414649
 30
0.0
 11
7119.1074129975
 21
5178.9578414649
 31
0.0
  0
LINE
  5
2FA
330
1F
100
AcDbEntity
  8
0
  6
Continuous
 62
     8
370
    25
100
AcDbLine
 10
7155.1074129975
 20
4598.9578414649
 30
0.0
 11
7155.1074129975
 21
5178.9578414649
 31
0.0
  0
LINE
  5
2FB
330
1F
100
AcDbEntity
  8
0
  6
Continuous
 62
     7
370
    25
100
AcDbLine
 10
5821.5187553361
 20
4374.0177961849
 30
0.0
 11
5821.5187553361
 21
4384.0177961849
 31
0.0
  0
LINE
  5
2FC
330
1F
100
AcDbEntity
  8
0
  6
Continuous
 62
     7
370
    25
100
AcDbLine
 10
5781.5187553361
 20
4384.0177961849
 30
0.0
 11
5781.5187553361
 21
4374.0177961849
 31
0.0
  0
LINE
  5
2FD
330
1F
100
AcDbEntity
  8
0
  6
Continuous
 62
     7
370
    25
100
AcDbLine
 10
6680.0187553361
 20
4324.0177961849
 30
0.0
 11
6680.0187553361
 21
4323.5177961849
 31
0.0
  0
LINE
  5
2FE
330
1F
100
AcDbEntity
  8
0
  6
Continuous
 62
     7
370
    25
100
AcDbLine
 10
6708.0187553361
 20
4323.5177961849
 30
0.0
 11
6708.0187553361
 21
4324.0177961849
 31
0.0
  0
LINE
  5
2FF
330
1F
100
AcDbEntity
  8
0
  6
Continuous
 62
     7
370
    25
100
AcDbLine
 10
6680.0187553361
 20
4323.5177961849
 30
0.0
 11
6681.5187553361
 21
4322.0177961849
 31
0.0
  0
LINE
  5
300
330
1F
100
AcDbEntity
  8
0
  6
Continuous
 62
     7
370
    25
100
AcDbLine
 10
6706.5187553361
 20
4322.0177961849
 30
0.0
 11
6708.0187553361
 21
4323.5177961849
 31
0.0
  0
LINE
  5
301
330
1F
100
AcDbEntity
  8
0
  6
Continuous
 62
     7
370
    25
100
AcDbLine
 10
6080.0187553361
 20
4323.5177961849
 30
0.0
 11
6081.5187553361
 21
4322.0177961849
 31
0.0
  0
LINE
  5
302
330
1F
100
AcDbEntity
  8
0
  6
Continuous
 62
     7
370
    25
100
AcDbLine
 10
6106.5187553361
 20
4322.0177961849
 30
0.0
 11
6108.0187553361
 21
4323.5177961849
 31
0.0
  0
LINE
  5
303
330
1F
100
AcDbEntity
  8
0
  6
Continuous
 62
     7
370
    25
100
AcDbLine
 10
6080.0187553361
 20
4324.0177961849
 30
0.0
 11
6080.0187553361
 21
4323.5177961849
 31
0.0
  0
LINE
  5
304
330
1F
100
AcDbEntity
  8
0
  6
Continuous
 62
     7
370
    25
100
AcDbLine
 10
6108.0187553361
 20
4323.5177961849
 30
0.0
 11
6108.0187553361
 21
4324.0177961849
 31
0.0
  0
LINE
  5
305
330
1F
100
AcDbEntity
  8
0
  6
Continuous
 62
     7
370
    25
100
AcDbLine
 10
6004.0187553363
 20
4321.517796185
 30
0.0
 11
6004.0187553363
 21
4324.017796185
 31
0.0
  0
LINE
  5
306
330
1F
100
AcDbEntity
  8
0
  6
Continuous
 62
     7
370
    25
100
AcDbLine
 10
5944.0187553363
 20
4324.017796185
 30
0.0
 11
5944.0187553363
 21
4321.517796185
 31
0.0
  0
LINE
  5
307
330
1F
100
AcDbEntity
  8
0
  6
Continuous
 62
     7
370
    25
100
AcDbLine
 10
5944.0187553363
 20
4321.517796185
 30
0.0
 11
5944.5187553363
 21
4321.017796185
 31
0.0
  0
LINE
  5
308
330
1F
100
AcDbEntity
  8
0
  6
Continuous
 62
     7
370
    25
100
AcDbLine
 10
6003.5187553363
 20
4321.017796185
 30
0.0
 11
6004.0187553363
 21
4321.517796185
 31
0.0
  0
LINE
  5
309
330
1F
100
AcDbEntity
  8
0
  6
Continuous
 62
     7
370
    25
100
AcDbLine
 10
6604.0187553364
 20
4321.517796185
 30
0.0
 11
6604.0187553364
 21
4324.017796185
 31
0.0
  0
LINE
  5
30A
330
1F
100
AcDbEntity
  8
0
  6
Continuous
 62
     7
370
    25
100
AcDbLine
 10
6544.0187553364
 20
4324.017796185
 30
0.0
 11
6544.0187553364
 21
4321.517796185
 31
0.0
  0
LINE
  5
30B
330
1F
100
AcDbEntity
  8
0
  6
Continuous
 62
     7
370
    25
100
AcDbLine
 10
6544.0187553364
 20
4321.517796185
 30
0.0
 11
6544.5187553364
 21
4321.017796185
 31
0.0
  0
LINE
  5
30C
330
1F
100
AcDbEntity
  8
0
  6
Continuous
 62
     7
370
    25
100
AcDbLine
 10
6603.5187553364
 20
4321.017796185
 30
0.0
 11
6604.0187553364
 21
4321.517796185
 31
0.0
  0
LINE
  5
30D
330
1F
100
AcDbEntity
  8
0
  6
Continuous
 62
     7
370
    25
100
AcDbLine
 10
6560.0187553358
 20
4321.0177961849
 30
0.0
 11
6560.0187553358
 21
4156.0177961849
 31
0.0
  0
LINE
  5
30E
330
1F
100
AcDbEntity
  8
0
  6
Continuous
 62
     7
370
    25
100
AcDbLine
 10
6588.0187553358
 20
4156.0177961849
 30
0.0
 11
6588.0187553358
 21
4321.0177961849
 31
0.0
  0
LINE
  5
30F
330
1F
100
AcDbEntity
  8
0
  6
Continuous
 62
     7
370
    25
100
AcDbLine
 10
6560.0187553358
 20
4156.0177961849
 30
0.0
 11
6561.0187553358
 21
4155.0177961849
 31
0.0
  0
LINE
  5
310
330
1F
100
AcDbEntity
  8
0
  6
Continuous
 62
     7
370
    25
100
AcDbLine
 10
6587.0187553358
 20
4155.0177961849
 30
0.0
 11
6588.0187553358
 21
4156.0177961849
 31
0.0
  0
LINE
  5
311
330
1F
100
AcDbEntity
  8
0
  6
Continuous
 62
     7
370
    25
100
AcDbLine
 10
5960.0187553358
 20
4321.0177961849
 30
0.0
 11
5960.0187553358
 21
4156.0177961849
 31
0.0
  0
LINE
  5
312
330
1F
100
AcDbEntity
  8
0
  6
Continuous
 62
     7
370
    25
100
AcDbLine
 10
5988.0187553358
 20
4156.0177961849
 30
0.0
 11
5988.0187553358
 21
4321.0177961849
 31
0.0
  0
LINE
  5
313
330
1F
100
AcDbEntity
  8
0
  6
Continuous
 62
     7
370
    25
100
AcDbLine
 10
5960.0187553358
 20
4156.0177961849
 30
0.0
 11
5961.0187553358
 21
4155.0177961849
 31
0.0
  0
LINE
  5
314
330
1F
100
AcDbEntity
  8
0
  6
Continuous
 62
     7
370
    25
100
AcDbLine
 10
5987.0187553358
 20
4155.0177961849
 30
0.0
 11
5988.0187553358
 21
4156.0177961849
 31
0.0
  0
ARC
  5
315
330
1F
100
AcDbEntity
  8
0
  6
Continuous
 62
     7
370
    25
100
AcDbCircle
 10
5801.5187553361
 20
4131.5177961849
 30
0.0
 40
5.249999999999697
100
AcDbArc
 50
63.3084380696
 51
226.8820166661
  0
LINE
  5
316
330
1F
100
AcDbEntity
  8
0
  6
Continuous
 62
     7
370
    25
100
AcDbLine
 10
5803.8769893177
 20
4136.2083433265
 30
0.0
 11
5797.930365033
 21
4127.6855703261
 31
0.0
  0
ARC
  5
317
330
1F
100
AcDbEntity
  8
0
  6
Continuous
 62
     7
370
    25
100
AcDbCircle
 10
5801.5187553361
 20
4131.5177961849
 30
0.0
 40
5.250000000000711
100
AcDbArc
 50
243.3084380696
 51
46.8820166661
  0
LINE
  5
318
330
1F
100
AcDbEntity
  8
0
  6
Continuous
 62
     7
370
    25
100
AcDbLine
 10
5799.1605213545
 20
4126.8272490432
 30
0.0
 11
5805.1071456392
 21
4135.3500220436
 31
0.0
  0
ARC
  5
319
330
1F
100
AcDbEntity
  8
0
  6
Continuous
 62
     7
370
    25
100
AcDbCircle
 10
5801.5187553361
 20
4131.5177961849
 30
0.0
 40
5.250000000000711
100
AcDbArc
 50
46.8820166661
 51
63.3084380696
  0
ARC
  5
31A
330
1F
100
AcDbEntity
  8
0
  6
Continuous
 62
     7
370
    25
100
AcDbCircle
 10
5801.5187553361
 20
4131.5177961849
 30
0.0
 40
5.249999999999697
100
AcDbArc
 50
226.8820166661
 51
243.3084380696
  0
CIRCLE
  5
31B
330
1F
100
AcDbEntity
  8
0
  6
Continuous
 62
     7
370
    25
100
AcDbCircle
 10
5801.5187553361
 20
4131.5177961849
 30
0.0
 40
34.99999999999909
  0
CIRCLE
  5
31C
330
1F
100
AcDbEntity
  8
0
  6
Continuous
 62
     7
370
    25
100
AcDbCircle
 10
5801.5187553361
 20
4131.5177961849
 30
0.0
 40
35.16921944985825
  0
CIRCLE
  5
31D
330
1F
100
AcDbEntity
  8
0
  6
Continuous
 62
     7
370
    25
100
AcDbCircle
 10
5801.5187553361
 20
4131.5177961849
 30
0.0
 40
24.96512544439429
  0
CIRCLE
  5
31E
330
1F
100
AcDbEntity
  8
0
  6
Continuous
 62
     7
370
    25
100
AcDbCircle
 10
5801.5187553361
 20
4131.5177961849
 30
0.0
 40
21.99999999999909
  0
CIRCLE
  5
31F
330
1F
100
AcDbEntity
  8
0
  6
Continuous
 62
     7
370
    25
100
AcDbCircle
 10
5801.5187553361
 20
4131.5177961849
 30
0.0
 40
20.49999999999909
  0
CIRCLE
  5
320
330
1F
100
AcDbEntity
  8
0
  6
Continuous
 62
     7
370
    25
100
AcDbCircle
 10
5801.5187553361
 20
4131.5177961849
 30
0.0
 40
19.48700763430315
  0
CIRCLE
  5
321
330
1F
100
AcDbEntity
  8
0
  6
Continuous
 62
     7
370
    25
100
AcDbCircle
 10
5801.5187553361
 20
4131.5177961849
 30
0.0
 40
5.699999999999818
  0
CIRCLE
  5
322
330
1F
100
AcDbEntity
  8
0
  6
Continuous
 62
     7
370
    25
100
AcDbCircle
 10
5801.5187553361
 20
4145.5177961849
 30
0.0
 40
4.999999999999091
  0
CIRCLE
  5
323
330
1F
100
AcDbEntity
  8
0
  6
Continuous
 62
     7
370
    25
100
AcDbCircle
 10
5813.6431109891
 20
4138.5177961849
 30
0.0
 40
5.0
  0
CIRCLE
  5
324
330
1F
100
AcDbEntity
  8
0
  6
Continuous
 62
     7
370
    25
100
AcDbCircle
 10
5813.6431109891
 20
4124.5177961849
 30
0.0
 40
4.999999999999091
  0
CIRCLE
  5
325
330
1F
100
AcDbEntity
  8
0
  6
Continuous
 62
     7
370
    25
100
AcDbCircle
 10
5801.5187553361
 20
4117.5177961849
 30
0.0
 40
5.000000000000909
  0
CIRCLE
  5
326
330
1F
100
AcDbEntity
  8
0
  6
Continuous
 62
     7
370
    25
100
AcDbCircle
 10
5789.3943996831
 20
4124.5177961849
 30
0.0
 40
5.0
  0
CIRCLE
  5
327
330
1F
100
AcDbEntity
  8
0
  6
Continuous
 62
     7
370
    25
100
AcDbCircle
 10
5789.3943996831
 20
4138.5177961849
 30
0.0
 40
5.0
  0
LINE
  5
328
330
1F
100
AcDbEntity
  8
0
  6
Continuous
 62
     7
370
    25
100
AcDbLine
 10
5819.2420144869
 20
4384.0177961849
 30
0.0
 11
5781.5187553361
 21
4384.0177961849
 31
0.0
  0
LINE
  5
329
330
1F
100
AcDbEntity
  8
0
  6
Continuous
 62
     7
370
    25
100
AcDbLine
 10
5821.5187553361
 20
4384.0177961849
 30
0.0
 11
5819.2420144869
 21
4384.0177961849
 31
0.0
  0
LINE
  5
32A
330
1F
100
AcDbEntity
  8
0
  6
Continuous
 62
     7
370
    25
100
AcDbLine
 10
5814.26744044
 20
4120.3314506978
 30
0.0
 11
5808.7896737616
 21
4125.7195228923
 31
0.0
  0
LINE
  5
32B
330
1F
100
AcDbEntity
  8
0
  6
Continuous
 62
     7
370
    25
100
AcDbLine
 10
5813.4700555954
 20
4119.5207918992
 30
0.0
 11
5814.26744044
 21
4120.3314506978
 31
0.0
  0
LINE
  5
32C
330
1F
100
AcDbEntity
  8
0
  6
Continuous
 62
     7
370
    25
100
AcDbLine
 10
5808.9162449468
 20
4122.8878460572
 30
0.0
 11
5812.0914155944
 21
4119.764666542
 31
0.0
  0
LINE
  5
32D
330
1F
100
AcDbEntity
  8
0
  6
Continuous
 62
     7
370
    25
100
AcDbLine
 10
5785.4567534168
 20
4126.0702837636
 30
0.0
 11
5792.8618441539
 21
4128.1201327658
 31
0.0
  0
LINE
  5
32E
330
1F
100
AcDbEntity
  8
0
  6
Continuous
 62
     7
370
    25
100
AcDbLine
 10
5785.1533947258
 20
4127.1661686949
 30
0.0
 11
5785.4567534168
 21
4126.0702837636
 31
0.0
  0
LINE
  5
32F
330
1F
100
AcDbEntity
  8
0
  6
Continuous
 62
     7
370
    25
100
AcDbLine
 10
5790.3462544868
 20
4129.4263573216
 30
0.0
 11
5786.0539163622
 21
4128.2381686371
 31
0.0
  0
LINE
  5
330
330
1F
100
AcDbEntity
  8
0
  6
Continuous
 62
     7
370
    25
100
AcDbLine
 10
5804.8320721515
 20
4148.1516540932
 30
0.0
 11
5802.9047480928
 21
4140.7137328965
 31
0.0
  0
LINE
  5
331
330
1F
100
AcDbEntity
  8
0
  6
Continuous
 62
     7
370
    25
100
AcDbLine
 10
5805.9328156871
 20
4147.8664279605
 30
0.0
 11
5804.8320721515
 21
4148.1516540932
 31
0.0
  0
LINE
  5
332
330
1F
100
AcDbEntity
  8
0
  6
Continuous
 62
     7
370
    25
100
AcDbLine
 10
5805.2937665747
 20
4142.2391851758
 30
0.0
 11
5806.4109340517
 21
4146.5505533756
 31
0.0
  0
ARC
  5
333
330
1F
100
AcDbEntity
  8
0
  6
Continuous
 62
     7
370
    25
100
AcDbCircle
 10
5801.5187553361
 20
4131.5177961849
 30
0.0
 40
14.50000000000011
100
AcDbArc
 50
319.2889033627
 51
350.109141606
  0
ARC
  5
334
330
1F
100
AcDbEntity
  8
0
  6
Continuous
 62
     7
370
    25
100
AcDbCircle
 10
5801.5187553361
 20
4131.5177961849
 30
0.0
 40
14.50000000000007
100
AcDbArc
 50
9.8908583965
 51
50.1091416035
  0
LINE
  5
335
330
1F
100
AcDbEntity
  8
0
  6
Continuous
 62
     7
370
    25
100
AcDbLine
 10
5806.5039934312
 20
4145.133867613
 30
0.0
 11
5806.0819772351
 21
4145.2810445624
 31
0.0
  0
ARC
  5
336
330
1F
100
AcDbEntity
  8
0
  6
Continuous
 62
     7
370
    25
100
AcDbCircle
 10
5801.5187553361
 20
4131.5177961849
 30
0.0
 40
14.50000000000047
100
AcDbArc
 50
79.2889033626
 51
110.1091416089
  0
ARC
  5
337
330
1F
100
AcDbEntity
  8
0
  6
Continuous
 62
     7
370
    25
100
AcDbCircle
 10
5801.5187553361
 20
4131.5177961849
 30
0.0
 40
14.49999999999985
100
AcDbArc
 50
129.8908583968
 51
170.1091416032
  0
LINE
  5
338
330
1F
100
AcDbEntity
  8
0
  6
Continuous
 62
     7
370
    25
100
AcDbLine
 10
5787.2342725323
 20
4129.0271033038
 30
0.0
 11
5787.3178216531
 21
4128.5880380838
 31
0.0
  0
ARC
  5
339
330
1F
100
AcDbEntity
  8
0
  6
Continuous
 62
     7
370
    25
100
AcDbCircle
 10
5801.5187553361
 20
4131.5177961849
 30
0.0
 40
14.50000000000031
100
AcDbArc
 50
199.2889033626
 51
230.1091416036
  0
ARC
  5
33A
330
1F
100
AcDbEntity
  8
0
  6
Continuous
 62
     7
370
    25
100
AcDbCircle
 10
5801.5187553361
 20
4131.5177961849
 30
0.0
 40
14.49999999999993
100
AcDbArc
 50
249.8908583902
 51
290.1091416095
  0
LINE
  5
33B
330
1F
100
AcDbEntity
  8
0
  6
Continuous
 62
     7
370
    25
100
AcDbLine
 10
5810.8180000456
 20
4120.392417637
 30
0.0
 11
5811.1564671201
 21
4120.6843059085
 31
0.0
  0
LWPOLYLINE
  5
33C
330
1F
100
AcDbEntity
  8
0
  6
Continuous
 62
     7
370
    25
100
AcDbPolyline
 90
       37
 70
   128
 43
0.0
 10
5771.0187553361
 20
4337.3495568719
 10
5773.1025334681
 20
4337.5278799912
 10
5775.122997056
 20
4338.0574310914
 10
5777.0187553361
 20
4338.9221200301
 10
5778.7322066523
 20
4340.0956736716
 10
5780.2112886535
 20
4341.5424341824
 10
5781.4110601815
 20
4343.2184424763
 10
5782.2950667855
 20
4345.0727738896
 10
5782.8364483722
 20
4347.0490855005
 10
5783.0187553361
 20
4349.0873280807
 10
5782.8364483722
 20
4351.125570661
 10
5782.2950667855
 20
4353.1018822719
 10
5781.4110601815
 20
4354.9562136852
 10
5780.2112886535
 20
4356.6322219791
 10
5778.7322066523
 20
4358.0789824899
 10
5777.0187553361
 20
4359.2525361314
 10
5775.122997056
 20
4360.1172250701
 10
5773.1025334681
 20
4360.6467761703
 10
5771.0187553361
 20
4360.8250992896
 10
5768.9349772041
 20
4360.6467761703
 10
5766.9145136162
 20
4360.1172250701
 10
5765.0187553361
 20
4359.2525361314
 10
5763.3053040199
 20
4358.0789824899
 10
5761.8262220187
 20
4356.6322219791
 10
5760.6264504907
 20
4354.9562136852
 10
5759.7424438867
 20
4353.1018822719
 10
5759.2010623
 20
4351.125570661
 10
5759.0187553361
 20
4349.0873280807
 10
5759.2010623
 20
4347.0490855005
 10
5759.7424438867
 20
4345.0727738896
 10
5760.6264504907
 20
4343.2184424763
 10
5761.8262220187
 20
4341.5424341824
 10
5763.3053040199
 20
4340.0956736716
 10
5765.0187553361
 20
4338.9221200301
 10
5766.9145136162
 20
4338.0574310914
 10
5768.9349772041
 20
4337.5278799912
 10
5771.0187553361
 20
4337.3495568719
  0
LINE
  5
33D
330
1F
100
AcDbEntity
  8
0
  6
Continuous
 62
     7
370
    25
100
AcDbLine
 10
6680.0187553361
 20
4323.5177961849
 30
0.0
 11
6708.0187553361
 21
4323.5177961849
 31
0.0
  0
LINE
  5
33E
330
1F
100
AcDbEntity
  8
0
  6
Continuous
 62
     7
370
    25
100
AcDbLine
 10
6706.5187553361
 20
4322.0177961849
 30
0.0
 11
6681.5187553361
 21
4322.0177961849
 31
0.0
  0
LINE
  5
33F
330
1F
100
AcDbEntity
  8
0
  6
Continuous
 62
     7
370
    25
100
AcDbLine
 10
6106.5187553361
 20
4322.0177961849
 30
0.0
 11
6081.5187553361
 21
4322.0177961849
 31
0.0
  0
LINE
  5
340
330
1F
100
AcDbEntity
  8
0
  6
Continuous
 62
     7
370
    25
100
AcDbLine
 10
6080.0187553361
 20
4323.5177961849
 30
0.0
 11
6108.0187553361
 21
4323.5177961849
 31
0.0
  0
LINE
  5
341
330
1F
100
AcDbEntity
  8
0
  6
Continuous
 62
     7
370
    25
100
AcDbLine
 10
5944.0187553363
 20
4321.517796185
 30
0.0
 11
6004.0187553363
 21
4321.517796185
 31
0.0
  0
LINE
  5
342
330
1F
100
AcDbEntity
  8
0
  6
Continuous
 62
     7
370
    25
100
AcDbLine
 10
6003.5187553363
 20
4321.017796185
 30
0.0
 11
5944.5187553363
 21
4321.017796185
 31
0.0
  0
LINE
  5
343
330
1F
100
AcDbEntity
  8
0
  6
Continuous
 62
     7
370
    25
100
AcDbLine
 10
6544.0187553364
 20
4321.517796185
 30
0.0
 11
6604.0187553364
 21
4321.517796185
 31
0.0
  0
LINE
  5
344
330
1F
100
AcDbEntity
  8
0
  6
Continuous
 62
     7
370
    25
100
AcDbLine
 10
6603.5187553364
 20
4321.017796185
 30
0.0
 11
6544.5187553364
 21
4321.017796185
 31
0.0
  0
LINE
  5
345
330
1F
100
AcDbEntity
  8
0
  6
Continuous
 62
     7
370
    25
100
AcDbLine
 10
5946.3404276031
 20
4321.5177961849
 30
0.0
 11
6004.0187553358
 21
4321.5177961849
 31
0.0
  0
LINE
  5
346
330
1F
100
AcDbEntity
  8
0
  6
Continuous
 62
     7
370
    25
100
AcDbLine
 10
5944.0187553358
 20
4321.5177961849
 30
0.0
 11
5946.3404276031
 21
4321.5177961849
 31
0.0
  0
LINE
  5
347
330
1F
100
AcDbEntity
  8
0
  6
Continuous
 62
     7
370
    25
100
AcDbLine
 10
5946.8017330654
 20
4321.0177961849
 30
0.0
 11
5944.5187553358
 21
4321.0177961849
 31
0.0
  0
LINE
  5
348
330
1F
100
AcDbEntity
  8
0
  6
Continuous
 62
     7
370
    25
100
AcDbLine
 10
6003.5187553358
 20
4321.0177961849
 30
0.0
 11
5946.8017330654
 21
4321.0177961849
 31
0.0
  0
LINE
  5
349
330
1F
100
AcDbEntity
  8
0
  6
Continuous
 62
     7
370
    25
100
AcDbLine
 10
6546.8017330653
 20
4321.0177961849
 30
0.0
 11
6544.5187553358
 21
4321.0177961849
 31
0.0
  0
LINE
  5
34A
330
1F
100
AcDbEntity
  8
0
  6
Continuous
 62
     7
370
    25
100
AcDbLine
 10
6603.5187553358
 20
4321.0177961849
 30
0.0
 11
6546.8017330653
 21
4321.0177961849
 31
0.0
  0
LINE
  5
34B
330
1F
100
AcDbEntity
  8
0
  6
Continuous
 62
     7
370
    25
100
AcDbLine
 10
6546.3404276031
 20
4321.5177961849
 30
0.0
 11
6604.0187553358
 21
4321.5177961849
 31
0.0
  0
LINE
  5
34C
330
1F
100
AcDbEntity
  8
0
  6
Continuous
 62
     7
370
    25
100
AcDbLine
 10
6544.0187553358
 20
4321.5177961849
 30
0.0
 11
6546.3404276031
 21
4321.5177961849
 31
0.0
  0
LINE
  5
34D
330
1F
100
AcDbEntity
  8
0
  6
Continuous
 62
     7
370
    25
100
AcDbLine
 10
6560.0187553358
 20
4156.0177961849
 30
0.0
 11
6588.0187553358
 21
4156.0177961849
 31
0.0
  0
LINE
  5
34E
330
1F
100
AcDbEntity
  8
0
  6
Continuous
 62
     7
370
    25
100
AcDbLine
 10
6587.0187553358
 20
4155.0177961849
 30
0.0
 11
6561.0187553358
 21
4155.0177961849
 31
0.0
  0
LINE
  5
34F
330
1F
100
AcDbEntity
  8
0
  6
Continuous
 62
     7
370
    25
100
AcDbLine
 10
5960.0187553358
 20
4156.0177961849
 30
0.0
 11
5988.0187553358
 21
4156.0177961849
 31
0.0
  0
LINE
  5
350
330
1F
100
AcDbEntity
  8
0
  6
Continuous
 62
     7
370
    25
100
AcDbLine
 10
5987.0187553358
 20
4155.0177961849
 30
0.0
 11
5961.0187553358
 21
4155.0177961849
 31
0.0
  0
LINE
  5
351
330
1F
100
AcDbEntity
  8
0
  6
Continuous
 62
     7
370
    25
100
AcDbLine
 10
6852.3687553361
 20
3893.9177961849
 30
0.0
 11
5695.6687553361
 21
3893.9177961849
 31
0.0
  0
LINE
  5
352
330
1F
100
AcDbEntity
  8
0
  6
Continuous
 62
     7
370
    25
100
AcDbLine
 10
5695.6687553361
 20
3893.9177961849
 30
0.0
 11
5695.6687553361
 21
3894.0177961849
 31
0.0
  0
LINE
  5
353
330
1F
100
AcDbEntity
  8
0
  6
Continuous
 62
     7
370
    25
100
AcDbLine
 10
6852.3687553361
 20
3893.9177961849
 30
0.0
 11
6852.3687553361
 21
3894.0177961849
 31
0.0
  0
LWPOLYLINE
  5
354
330
1F
100
AcDbEntity
  8
0
  6
Continuous
 62
     7
370
    25
100
AcDbPolyline
 90
        3
 70
   128
 43
0.0
 10
5695.1030699112
 20
3894.0177961849
 10
5695.3468563048
 20
3893.9495004722
 10
5695.6687553361
 20
3893.9177961849
  0
LWPOLYLINE
  5
355
330
1F
100
AcDbEntity
  8
0
  6
Continuous
 62
     7
370
    25
100
AcDbPolyline
 90
        3
 70
   128
 43
0.0
 10
6852.3687553361
 20
3893.9177961849
 10
6852.6906543674
 20
3893.9495004722
 10
6852.934440761
 20
3894.0177961849
  0
LINE
  5
356
330
1F
100
AcDbEntity
  8
0
  6
Continuous
 62
     7
370
    25
100
AcDbLine
 10
6899.0187553361
 20
4374.0177961849
 30
0.0
 11
6897.0187553361
 21
4374.0177961849
 31
0.0
  0
LINE
  5
357
330
1F
100
AcDbEntity
  8
0
  6
Continuous
 62
     7
370
    25
100
AcDbLine
 10
6899.0187553361
 20
4374.0177961849
 30
0.0
 11
6899.0187553361
 21
4371.3603904651
 31
0.0
  0
LINE
  5
358
330
1F
100
AcDbEntity
  8
0
  6
Continuous
 62
     7
370
    25
100
AcDbLine
 10
6899.0187553361
 20
4371.3603904651
 30
0.0
 11
6897.0187553361
 21
4371.3603904651
 31
0.0
  0
LINE
  5
359
330
1F
100
AcDbEntity
  8
0
  6
Continuous
 62
     7
370
    25
100
AcDbLine
 10
6897.0187553361
 20
4374.0177961849
 30
0.0
 11
6897.0187553361
 21
4371.3603904651
 31
0.0
  0
LINE
  5
35A
330
1F
100
AcDbEntity
  8
0
  6
Continuous
 62
     7
370
    25
100
AcDbLine
 10
6899.0187553361
 20
4325.7603904651
 30
0.0
 11
6897.0187553361
 21
4325.7603904651
 31
0.0
  0
LINE
  5
35B
330
1F
100
AcDbEntity
  8
0
  6
Continuous
 62
     7
370
    25
100
AcDbLine
 10
6899.0187553361
 20
4371.3603904651
 30
0.0
 11
6899.0187553361
 21
4325.7603904651
 31
0.0
  0
LINE
  5
35C
330
1F
100
AcDbEntity
  8
0
  6
Continuous
 62
     7
370
    25
100
AcDbLine
 10
6897.0187553361
 20
4371.3603904651
 30
0.0
 11
6897.0187553361
 21
4325.7603904651
 31
0.0
  0
LINE
  5
35D
330
1F
100
AcDbEntity
  8
0
  6
Continuous
 62
     7
370
    25
100
AcDbLine
 10
6899.0187553361
 20
4324.0177961849
 30
0.0
 11
6897.0187553361
 21
4324.0177961849
 31
0.0
  0
LINE
  5
35E
330
1F
100
AcDbEntity
  8
0
  6
Continuous
 62
     7
370
    25
100
AcDbLine
 10
6899.0187553361
 20
4325.7603904651
 30
0.0
 11
6899.0187553361
 21
4324.0177961849
 31
0.0
  0
LINE
  5
35F
330
1F
100
AcDbEntity
  8
0
  6
Continuous
 62
     7
370
    25
100
AcDbLine
 10
6897.0187553361
 20
4325.7603904651
 30
0.0
 11
6897.0187553361
 21
4324.0177961849
 31
0.0
  0
LINE
  5
360
330
1F
100
AcDbEntity
  8
0
  6
Continuous
 62
     7
370
    25
100
AcDbLine
 10
6899.0187553361
 20
3896.2177961849
 30
0.0
 11
6897.0187553361
 21
3896.2177961849
 31
0.0
  0
LINE
  5
361
330
1F
100
AcDbEntity
  8
0
  6
Continuous
 62
     7
370
    25
100
AcDbLine
 10
6899.0187553361
 20
4324.0177961849
 30
0.0
 11
6899.0187553361
 21
3896.2177961849
 31
0.0
  0
LINE
  5
362
330
1F
100
AcDbEntity
  8
0
  6
Continuous
 62
     7
370
    25
100
AcDbLine
 10
6897.0187553361
 20
4324.0177961849
 30
0.0
 11
6897.0187553361
 21
3896.2177961849
 31
0.0
  0
LINE
  5
363
330
1F
100
AcDbEntity
  8
0
  6
Continuous
 62
     7
370
    25
100
AcDbLine
 10
6899.0187553361
 20
3894.0177961849
 30
0.0
 11
6897.0187553361
 21
3894.0177961849
 31
0.0
  0
LINE
  5
364
330
1F
100
AcDbEntity
  8
0
  6
Continuous
 62
     7
370
    25
100
AcDbLine
 10
6899.0187553361
 20
3896.2177961849
 30
0.0
 11
6899.0187553361
 21
3894.0177961849
 31
0.0
  0
LINE
  5
365
330
1F
100
AcDbEntity
  8
0
  6
Continuous
 62
     7
370
    25
100
AcDbLine
 10
6897.0187553361
 20
3896.2177961849
 30
0.0
 11
6897.0187553361
 21
3894.0177961849
 31
0.0
  0
LWPOLYLINE
  5
366
330
1F
100
AcDbEntity
  8
0
  6
Continuous
 62
     7
370
    25
100
AcDbPolyline
 90
        3
 70
   128
 43
0.0
 10
6896.6997803037
 20
3894.0177961849
 10
6896.5235353343
 20
3893.9773618156
 10
6895.9187553361
 20
3893.9177961849
  0
LINE
  5
367
330
1F
100
AcDbEntity
  8
0
  6
Continuous
 62
     7
370
    25
100
AcDbLine
 10
6895.9187553361
 20
3893.9177961849
 30
0.0
 11
6857.1187553361
 21
3893.9177961849
 31
0.0
  0
LWPOLYLINE
  5
368
330
1F
100
AcDbEntity
  8
0
  6
Continuous
 62
     7
370
    25
100
AcDbPolyline
 90
        3
 70
   128
 43
0.0
 10
6856.3377303686
 20
3894.0177961849
 10
6856.5139753378
 20
3893.9773618156
 10
6857.1187553361
 20
3893.9177961849
  0
LINE
  5
369
330
1F
100
AcDbEntity
  8
0
  6
Continuous
 62
     7
370
    25
100
AcDbLine
 10
5649.0187553361
 20
4371.3603904651
 30
0.0
 11
5651.0187553361
 21
4371.3603904651
 31
0.0
  0
LINE
  5
36A
330
1F
100
AcDbEntity
  8
0
  6
Continuous
 62
     7
370
    25
100
AcDbLine
 10
5649.0187553361
 20
4374.0177961849
 30
0.0
 11
5649.0187553361
 21
4371.3603904651
 31
0.0
  0
LINE
  5
36B
330
1F
100
AcDbEntity
  8
0
  6
Continuous
 62
     7
370
    25
100
AcDbLine
 10
5649.0187553361
 20
4374.0177961849
 30
0.0
 11
5651.0187553361
 21
4374.0177961849
 31
0.0
  0
LINE
  5
36C
330
1F
100
AcDbEntity
  8
0
  6
Continuous
 62
     7
370
    25
100
AcDbLine
 10
5651.0187553361
 20
4374.0177961849
 30
0.0
 11
5651.0187553361
 21
4371.3603904651
 31
0.0
  0
LINE
  5
36D
330
1F
100
AcDbEntity
  8
0
  6
Continuous
 62
     7
370
    25
100
AcDbLine
 10
5649.0187553361
 20
4325.7603904651
 30
0.0
 11
5651.0187553361
 21
4325.7603904651
 31
0.0
  0
LINE
  5
36E
330
1F
100
AcDbEntity
  8
0
  6
Continuous
 62
     7
370
    25
100
AcDbLine
 10
5649.0187553361
 20
4371.3603904651
 30
0.0
 11
5649.0187553361
 21
4325.7603904651
 31
0.0
  0
LINE
  5
36F
330
1F
100
AcDbEntity
  8
0
  6
Continuous
 62
     7
370
    25
100
AcDbLine
 10
5651.0187553361
 20
4371.3603904651
 30
0.0
 11
5651.0187553361
 21
4325.7603904651
 31
0.0
  0
LINE
  5
370
330
1F
100
AcDbEntity
  8
0
  6
Continuous
 62
     7
370
    25
100
AcDbLine
 10
5649.0187553361
 20
4324.0177961849
 30
0.0
 11
5651.0187553361
 21
4324.0177961849
 31
0.0
  0
LINE
  5
371
330
1F
100
AcDbEntity
  8
0
  6
Continuous
 62
     7
370
    25
100
AcDbLine
 10
5649.0187553361
 20
4325.7603904651
 30
0.0
 11
5649.0187553361
 21
4324.0177961849
 31
0.0
  0
LINE
  5
372
330
1F
100
AcDbEntity
  8
0
  6
Continuous
 62
     7
370
    25
100
AcDbLine
 10
5651.0187553361
 20
4325.7603904651
 30
0.0
 11
5651.0187553361
 21
4324.0177961849
 31
0.0
  0
LINE
  5
373
330
1F
100
AcDbEntity
  8
0
  6
Continuous
 62
     7
370
    25
100
AcDbLine
 10
5649.0187553361
 20
3896.2177961849
 30
0.0
 11
5651.0187553361
 21
3896.2177961849
 31
0.0
  0
LINE
  5
374
330
1F
100
AcDbEntity
  8
0
  6
Continuous
 62
     7
370
    25
100
AcDbLine
 10
5649.0187553361
 20
4324.0177961849
 30
0.0
 11
5649.0187553361
 21
3896.2177961849
 31
0.0
  0
LINE
  5
375
330
1F
100
AcDbEntity
  8
0
  6
Continuous
 62
     7
370
    25
100
AcDbLine
 10
5651.0187553361
 20
4324.0177961849
 30
0.0
 11
5651.0187553361
 21
3896.2177961849
 31
0.0
  0
LINE
  5
376
330
1F
100
AcDbEntity
  8
0
  6
Continuous
 62
     7
370
    25
100
AcDbLine
 10
5649.0187553361
 20
3894.0177961849
 30
0.0
 11
5651.0187553361
 21
3894.0177961849
 31
0.0
  0
LINE
  5
377
330
1F
100
AcDbEntity
  8
0
  6
Continuous
 62
     7
370
    25
100
AcDbLine
 10
5649.0187553361
 20
3896.2177961849
 30
0.0
 11
5649.0187553361
 21
3894.0177961849
 31
0.0
  0
LINE
  5
378
330
1F
100
AcDbEntity
  8
0
  6
Continuous
 62
     7
370
    25
100
AcDbLine
 10
5651.0187553361
 20
3896.2177961849
 30
0.0
 11
5651.0187553361
 21
3894.0177961849
 31
0.0
  0
LWPOLYLINE
  5
379
330
1F
100
AcDbEntity
  8
0
  6
Continuous
 62
     7
370
    25
100
AcDbPolyline
 90
        3
 70
   128
 43
0.0
 10
5651.3377303685
 20
3894.0177961849
 10
5651.5139753379
 20
3893.9773618156
 10
5652.1187553361
 20
3893.9177961849
  0
LINE
  5
37A
330
1F
100
AcDbEntity
  8
0
  6
Continuous
 62
     7
370
    25
100
AcDbLine
 10
5652.1187553361
 20
3893.9177961849
 30
0.0
 11
5690.9187553361
 21
3893.9177961849
 31
0.0
  0
LWPOLYLINE
  5
37B
330
1F
100
AcDbEntity
  8
0
  6
Continuous
 62
     7
370
    25
100
AcDbPolyline
 90
        3
 70
   128
 43
0.0
 10
5691.6997803036
 20
3894.0177961849
 10
5691.5235353344
 20
3893.9773618156
 10
5690.9187553361
 20
3893.9177961849
  0
LINE
  5
37C
330
1F
100
AcDbEntity
  8
0
  6
Continuous
 62
     7
370
    25
100
AcDbLine
 10
6897.0187553361
 20
4374.0177961849
 30
0.0
 11
5651.0187553361
 21
4374.0177961849
 31
0.0
  0
LINE
  5
37D
330
1F
100
AcDbEntity
  8
0
  6
Continuous
 62
     7
370
    25
100
AcDbLine
 10
5651.0187553361
 20
4371.3603904651
 30
0.0
 11
6897.0187553361
 21
4371.3603904651
 31
0.0
  0
LINE
  5
37E
330
1F
100
AcDbEntity
  8
0
  6
Continuous
 62
     7
370
    25
100
AcDbLine
 10
6897.0187553361
 20
4325.7603904651
 30
0.0
 11
5651.0187553361
 21
4325.7603904651
 31
0.0
  0
LINE
  5
37F
330
1F
100
AcDbEntity
  8
0
  6
Continuous
 62
     7
370
    25
100
AcDbLine
 10
5651.0187553361
 20
4324.0177961849
 30
0.0
 11
6897.0187553361
 21
4324.0177961849
 31
0.0
  0
LINE
  5
380
330
1F
100
AcDbEntity
  8
0
  6
Continuous
 62
     7
370
    25
100
AcDbLine
 10
6897.0187553361
 20
3939.0177961849
 30
0.0
 11
5651.0187553361
 21
3939.0177961849
 31
0.0
  0
LINE
  5
381
330
1F
100
AcDbEntity
  8
0
  6
Continuous
 62
     7
370
    25
100
AcDbLine
 10
5651.0187553361
 20
3936.8177961849
 30
0.0
 11
6897.0187553361
 21
3936.8177961849
 31
0.0
  0
LINE
  5
382
330
1F
100
AcDbEntity
  8
0
  6
Continuous
 62
     7
370
    25
100
AcDbLine
 10
6897.0187553361
 20
3896.2177961849
 30
0.0
 11
5651.0187553361
 21
3896.2177961849
 31
0.0
  0
LINE
  5
383
330
1F
100
AcDbEntity
  8
0
  6
Continuous
 62
     7
370
    25
100
AcDbLine
 10
5651.0187553361
 20
3896.2177961849
 30
0.0
 11
5651.0187553361
 21
3936.8177961849
 31
0.0
  0
LINE
  5
384
330
1F
100
AcDbEntity
  8
0
  6
Continuous
 62
     7
370
    25
100
AcDbLine
 10
6897.0187553361
 20
3896.2177961849
 30
0.0
 11
6897.0187553361
 21
3936.8177961849
 31
0.0
  0
LINE
  5
385
330
1F
100
AcDbEntity
  8
0
  6
Continuous
 62
     7
370
    25
100
AcDbLine
 10
5651.0187553361
 20
3894.0177961849
 30
0.0
 11
6897.0187553361
 21
3894.0177961849
 31
0.0
  0
LINE
  5
386
330
1F
100
AcDbEntity
  8
0
  6
Continuous
 62
     7
370
    25
100
AcDbLine
 10
6897.0187553361
 20
3939.3602466856
 30
0.0
 11
5651.0187553361
 21
3939.3602466856
 31
0.0
  0
LINE
  5
387
330
1F
100
AcDbEntity
  8
0
  6
Continuous
 62
     7
370
    25
100
AcDbLine
 10
5651.0187553361
 20
4064.7352582314
 30
0.0
 11
6897.0187553361
 21
4064.7352582314
 31
0.0
  0
LINE
  5
388
330
1F
100
AcDbEntity
  8
0
  6
Continuous
 62
     7
370
    25
100
AcDbLine
 10
6897.0187553361
 20
4065.3928077307
 30
0.0
 11
5651.0187553361
 21
4065.3928077307
 31
0.0
  0
LINE
  5
389
330
1F
100
AcDbEntity
  8
0
  6
Continuous
 62
     8
370
    25
100
AcDbLine
 10
6895.9187553361
 20
3894.0177961849
 30
0.0
 11
6895.9187553361
 21
3893.9177961849
 31
0.0
  0
LINE
  5
38A
330
1F
100
AcDbEntity
  8
0
  6
Continuous
 62
     8
370
    25
100
AcDbLine
 10
6857.1187553361
 20
3894.0177961849
 30
0.0
 11
6857.1187553361
 21
3893.9177961849
 31
0.0
  0
LINE
  5
38B
330
1F
100
AcDbEntity
  8
0
  6
Continuous
 62
     8
370
    25
100
AcDbLine
 10
5652.1187553361
 20
3894.0177961849
 30
0.0
 11
5652.1187553361
 21
3893.9177961849
 31
0.0
  0
LINE
  5
38C
330
1F
100
AcDbEntity
  8
0
  6
Continuous
 62
     8
370
    25
100
AcDbLine
 10
5690.9187553361
 20
3894.0177961849
 30
0.0
 11
5690.9187553361
 21
3893.9177961849
 31
0.0
  0
LINE
  5
38D
330
1F
100
AcDbEntity
  8
0
  6
Continuous
 62
     8
370
    25
100
AcDbLine
 10
5651.0187553361
 20
4323.6753456842
 30
0.0
 11
5944.0187553358
 21
4323.6753456842
 31
0.0
  0
LINE
  5
38E
330
1F
100
AcDbEntity
  8
0
  6
Continuous
 62
     8
370
    25
100
AcDbLine
 10
6004.0187553358
 20
4323.6753456842
 30
0.0
 11
6080.0187553361
 21
4323.6753456842
 31
0.0
  0
LINE
  5
38F
330
1F
100
AcDbEntity
  8
0
  6
Continuous
 62
     8
370
    25
100
AcDbLine
 10
6108.0187553361
 20
4323.6753456842
 30
0.0
 11
6544.0187553358
 21
4323.6753456842
 31
0.0
  0
LINE
  5
390
330
1F
100
AcDbEntity
  8
0
  6
Continuous
 62
     8
370
    25
100
AcDbLine
 10
6604.0187553358
 20
4323.6753456842
 30
0.0
 11
6680.0187553361
 21
4323.6753456842
 31
0.0
  0
LINE
  5
391
330
1F
100
AcDbEntity
  8
0
  6
Continuous
 62
     8
370
    25
100
AcDbLine
 10
6708.0187553361
 20
4323.6753456842
 30
0.0
 11
6897.0187553361
 21
4323.6753456842
 31
0.0
  0
LINE
  5
392
330
1F
100
AcDbEntity
  8
0
  6
Continuous
 62
     8
370
    25
100
AcDbLine
 10
6897.0187553361
 20
4198.3003341383
 30
0.0
 11
6588.0187553358
 21
4198.3003341383
 31
0.0
  0
LINE
  5
393
330
1F
100
AcDbEntity
  8
0
  6
Continuous
 62
     8
370
    25
100
AcDbLine
 10
6560.0187553358
 20
4198.3003341383
 30
0.0
 11
5988.0187553358
 21
4198.3003341383
 31
0.0
  0
LINE
  5
394
330
1F
100
AcDbEntity
  8
0
  6
Continuous
 62
     8
370
    25
100
AcDbLine
 10
5960.0187553358
 20
4198.3003341383
 30
0.0
 11
5651.0187553361
 21
4198.3003341383
 31
0.0
  0
LINE
  5
395
330
1F
100
AcDbEntity
  8
0
  6
Continuous
 62
     8
370
    25
100
AcDbLine
 10
5651.0187553361
 20
4197.642784639
 30
0.0
 11
5960.0187553358
 21
4197.642784639
 31
0.0
  0
LINE
  5
396
330
1F
100
AcDbEntity
  8
0
  6
Continuous
 62
     8
370
    25
100
AcDbLine
 10
5988.0187553358
 20
4197.642784639
 30
0.0
 11
6560.0187553358
 21
4197.642784639
 31
0.0
  0
LINE
  5
397
330
1F
100
AcDbEntity
  8
0
  6
Continuous
 62
     8
370
    25
100
AcDbLine
 10
6588.0187553358
 20
4197.642784639
 30
0.0
 11
6897.0187553361
 21
4197.642784639
 31
0.0
  0
ENDSEC
  0
SECTION
  2
OBJECTS
  0
DICTIONARY
  5
C
330
0
100
AcDbDictionary
281
     1
  3
ACAD_GROUP
350
D
  3
ACAD_LAYOUT
350
1A
  3
ACAD_MLINESTYLE
350
17
  3
ACAD_PLOTSETTINGS
350
19
  3
ACAD_PLOTSTYLENAME
350
E
  3
ACAD_SCALELIST
350
47
  3
DWGPROPS
350
398
  0
DICTIONARY
  5
D
102
{ACAD_REACTORS
330
C
102
}
330
C
100
AcDbDictionary
281
     1
  0
DICTIONARY
  5
1A
102
{ACAD_REACTORS
330
C
102
}
330
C
100
AcDbDictionary
281
     1
  3
Layout1
350
1E
  3
Layout2
350
26
  3
Model
350
22
  0
DICTIONARY
  5
17
102
{ACAD_REACTORS
330
C
102
}
330
C
100
AcDbDictionary
281
     1
  3
Standard
350
18
  0
DICTIONARY
  5
19
102
{ACAD_REACTORS
330
C
102
}
330
C
100
AcDbDictionary
281
     1
  0
ACDBDICTIONARYWDFLT
  5
E
102
{ACAD_REACTORS
330
C
102
}
330
C
100
AcDbDictionary
281
     1
  3
Normal
350
F
100
AcDbDictionaryWithDefault
340
F
  0
DICTIONARY
  5
47
102
{ACAD_REACTORS
330
C
102
}
330
C
100
AcDbDictionary
281
     1
  3
A0
350
48
  3
A1
350
49
  3
A2
350
4A
  3
A3
350
4B
  3
A4
350
4C
  3
A5
350
4D
  3
A6
350
4E
  3
A7
350
4F
  3
A8
350
50
  3
A9
350
51
  3
B0
350
52
  3
B1
350
53
  3
B2
350
54
  3
B3
350
55
  3
B4
350
56
  3
B5
350
57
  3
B6
350
58
  3
B7
350
59
  3
B8
350
5A
  3
B9
350
5B
  3
C0
350
5C
  3
C1
350
5D
  3
C2
350
5E
  3
C3
350
5F
  3
C4
350
60
  3
C5
350
61
  3
C6
350
62
  3
C7
350
63
  3
C8
350
64
  3
C9
350
65
  3
D0
350
66
  3
D1
350
67
  3
D2
350
68
  0
XRECORD
  5
398
102
{ACAD_REACTORS
330
C
102
}
330
C
100
AcDbXrecord
280
     1
  1
DWGPROPS COOKIE
  2

  3

  4

  6

  7

  8
radek.stransky
  9

300
=
301
=
302
=
303
=
304
=
305
=
306
=
307
=
308
=
309
=
 40
0.0
 41
2459837.446159977
 42
2459837.446160452
  1

 90
        0
  0
LAYOUT
  5
1E
102
{ACAD_REACTORS
330
1A
102
}
330
1A
100
AcDbPlotSettings
  1

  2
none_device
  4

  6

 40
0.0
 41
0.0
 42
0.0
 43
0.0
 44
0.0
 45
0.0
 46
0.0
 47
0.0
 48
0.0
 49
0.0
140
0.0
141
0.0
142
1.0
143
1.0
 70
   688
 72
     1
 73
     0
 74
     5
  7

 75
    16
147
1.0
148
0.0
149
0.0
100
AcDbLayout
  1
Layout1
 70
     1
 71
     1
 10
0.0
 20
0.0
 11
420.0
 21
297.0
 12
0.0
 22
0.0
 32
0.0
 14
1.0000000000E+20
 24
1.0000000000E+20
 34
1.0000000000E+20
 15
-1.0000000000E+20
 25
-1.0000000000E+20
 35
-1.0000000000E+20
146
0.0
 13
0.0
 23
0.0
 33
0.0
 16
1.0
 26
0.0
 36
0.0
 17
0.0
 27
1.0
 37
0.0
 76
     0
330
1B
  0
LAYOUT
  5
26
102
{ACAD_REACTORS
330
1A
102
}
330
1A
100
AcDbPlotSettings
  1

  2
none_device
  4

  6

 40
0.0
 41
0.0
 42
0.0
 43
0.0
 44
0.0
 45
0.0
 46
0.0
 47
0.0
 48
0.0
 49
0.0
140
0.0
141
0.0
142
1.0
143
1.0
 70
   688
 72
     1
 73
     0
 74
     5
  7

 75
    16
147
1.0
148
0.0
149
0.0
100
AcDbLayout
  1
Layout2
 70
     1
 71
     2
 10
0.0
 20
0.0
 11
0.0
 21
0.0
 12
0.0
 22
0.0
 32
0.0
 14
0.0
 24
0.0
 34
0.0
 15
0.0
 25
0.0
 35
0.0
146
0.0
 13
0.0
 23
0.0
 33
0.0
 16
1.0
 26
0.0
 36
0.0
 17
0.0
 27
1.0
 37
0.0
 76
     0
330
23
  0
LAYOUT
  5
22
102
{ACAD_REACTORS
330
1A
102
}
330
1A
100
AcDbPlotSettings
  1

  2
none_device
  4
Letter_(8.50_x_11.00_Inches)
  6

 40
6.35
 41
6.35
 42
6.35000508
 43
6.35000508
 44
215.9
 45
279.4
 46
0.0
 47
0.0
 48
0.0
 49
0.0
140
0.0
141
0.0
142
1.0
143
1.0
 70
  1712
 72
     1
 73
     0
 74
     0
  7

 75
     0
147
1.0
148
0.0
149
0.0
100
AcDbLayout
  1
Model
 70
     1
 71
     0
 10
0.0
 20
0.0
 11
20000.0
 21
10000.0
 12
0.0
 22
0.0
 32
0.0
 14
0.0
 24
0.0
 34
0.0
 15
20000.0
 25
10000.0
 35
0.0
146
0.0
 13
0.0
 23
0.0
 33
0.0
 16
1.0
 26
0.0
 36
0.0
 17
0.0
 27
1.0
 37
0.0
 76
     0
330
1F
331
29
  0
MLINESTYLE
  5
18
102
{ACAD_REACTORS
330
17
102
}
330
17
100
AcDbMlineStyle
  2
Standard
 70
     0
  3

 62
   256
 51
90.0
 52
90.0
 71
     2
 49
0.5
 62
   256
  6
BYLAYER
 49
-0.5
 62
   256
  6
BYLAYER
  0
ACDBPLACEHOLDER
  5
F
102
{ACAD_REACTORS
330
E
102
}
330
E
  0
SCALE
  5
48
102
{ACAD_REACTORS
330
47
102
}
330
47
100
AcDbScale
 70
     0
300
1:1
140
1.0
141
1.0
290
     1
  0
SCALE
  5
49
102
{ACAD_REACTORS
330
47
102
}
330
47
100
AcDbScale
 70
     0
300
1:2
140
1.0
141
2.0
290
     0
  0
SCALE
  5
4A
102
{ACAD_REACTORS
330
47
102
}
330
47
100
AcDbScale
 70
     0
300
1:4
140
1.0
141
4.0
290
     0
  0
SCALE
  5
4B
102
{ACAD_REACTORS
330
47
102
}
330
47
100
AcDbScale
 70
     0
300
1:5
140
1.0
141
5.0
290
     0
  0
SCALE
  5
4C
102
{ACAD_REACTORS
330
47
102
}
330
47
100
AcDbScale
 70
     0
300
1:8
140
1.0
141
8.0
290
     0
  0
SCALE
  5
4D
102
{ACAD_REACTORS
330
47
102
}
330
47
100
AcDbScale
 70
     0
300
1:10
140
1.0
141
10.0
290
     0
  0
SCALE
  5
4E
102
{ACAD_REACTORS
330
47
102
}
330
47
100
AcDbScale
 70
     0
300
1:16
140
1.0
141
16.0
290
     0
  0
SCALE
  5
4F
102
{ACAD_REACTORS
330
47
102
}
330
47
100
AcDbScale
 70
     0
300
1:20
140
1.0
141
20.0
290
     0
  0
SCALE
  5
50
102
{ACAD_REACTORS
330
47
102
}
330
47
100
AcDbScale
 70
     0
300
1:30
140
1.0
141
30.0
290
     0
  0
SCALE
  5
51
102
{ACAD_REACTORS
330
47
102
}
330
47
100
AcDbScale
 70
     0
300
1:40
140
1.0
141
40.0
290
     0
  0
SCALE
  5
52
102
{ACAD_REACTORS
330
47
102
}
330
47
100
AcDbScale
 70
     0
300
1:50
140
1.0
141
50.0
290
     0
  0
SCALE
  5
53
102
{ACAD_REACTORS
330
47
102
}
330
47
100
AcDbScale
 70
     0
300
1:100
140
1.0
141
100.0
290
     0
  0
SCALE
  5
54
102
{ACAD_REACTORS
330
47
102
}
330
47
100
AcDbScale
 70
     0
300
2:1
140
2.0
141
1.0
290
     0
  0
SCALE
  5
55
102
{ACAD_REACTORS
330
47
102
}
330
47
100
AcDbScale
 70
     0
300
4:1
140
4.0
141
1.0
290
     0
  0
SCALE
  5
56
102
{ACAD_REACTORS
330
47
102
}
330
47
100
AcDbScale
 70
     0
300
8:1
140
8.0
141
1.0
290
     0
  0
SCALE
  5
57
102
{ACAD_REACTORS
330
47
102
}
330
47
100
AcDbScale
 70
     0
300
10:1
140
10.0
141
1.0
290
     0
  0
SCALE
  5
58
102
{ACAD_REACTORS
330
47
102
}
330
47
100
AcDbScale
 70
     0
300
100:1
140
100.0
141
1.0
290
     0
  0
SCALE
  5
59
102
{ACAD_REACTORS
330
47
102
}
330
47
100
AcDbScale
 70
     0
300
1/128" = 1'-0"
140
0.0078125
141
12.0
290
     0
  0
SCALE
  5
5A
102
{ACAD_REACTORS
330
47
102
}
330
47
100
AcDbScale
 70
     0
300
1/64" = 1'-0"
140
0.015625
141
12.0
290
     0
  0
SCALE
  5
5B
102
{ACAD_REACTORS
330
47
102
}
330
47
100
AcDbScale
 70
     0
300
1/32" = 1'-0"
140
0.03125
141
12.0
290
     0
  0
SCALE
  5
5C
102
{ACAD_REACTORS
330
47
102
}
330
47
100
AcDbScale
 70
     0
300
1/16" = 1'-0"
140
0.0625
141
12.0
290
     0
  0
SCALE
  5
5D
102
{ACAD_REACTORS
330
47
102
}
330
47
100
AcDbScale
 70
     0
300
3/32" = 1'-0"
140
0.09375
141
12.0
290
     0
  0
SCALE
  5
5E
102
{ACAD_REACTORS
330
47
102
}
330
47
100
AcDbScale
 70
     0
300
1/8" = 1'-0"
140
0.125
141
12.0
290
     0
  0
SCALE
  5
5F
102
{ACAD_REACTORS
330
47
102
}
330
47
100
AcDbScale
 70
     0
300
3/16" = 1'-0"
140
0.1875
141
12.0
290
     0
  0
SCALE
  5
60
102
{ACAD_REACTORS
330
47
102
}
330
47
100
AcDbScale
 70
     0
300
1/4" = 1'-0"
140
0.25
141
12.0
290
     0
  0
SCALE
  5
61
102
{ACAD_REACTORS
330
47
102
}
330
47
100
AcDbScale
 70
     0
300
3/8" = 1'-0"
140
0.375
141
12.0
290
     0
  0
SCALE
  5
62
102
{ACAD_REACTORS
330
47
102
}
330
47
100
AcDbScale
 70
     0
300
1/2" = 1'-0"
140
0.5
141
12.0
290
     0
  0
SCALE
  5
63
102
{ACAD_REACTORS
330
47
102
}
330
47
100
AcDbScale
 70
     0
300
3/4" = 1'-0"
140
0.75
141
12.0
290
     0
  0
SCALE
  5
64
102
{ACAD_REACTORS
330
47
102
}
330
47
100
AcDbScale
 70
     0
300
1" = 1'-0"
140
1.0
141
12.0
290
     0
  0
SCALE
  5
65
102
{ACAD_REACTORS
330
47
102
}
330
47
100
AcDbScale
 70
     0
300
1-1/2" = 1'-0"
140
1.5
141
12.0
290
     0
  0
SCALE
  5
66
102
{ACAD_REACTORS
330
47
102
}
330
47
100
AcDbScale
 70
     0
300
3" = 1'-0"
140
3.0
141
12.0
290
     0
  0
SCALE
  5
67
102
{ACAD_REACTORS
330
47
102
}
330
47
100
AcDbScale
 70
     0
300
6" = 1'-0"
140
6.0
141
12.0
290
     0
  0
SCALE
  5
68
102
{ACAD_REACTORS
330
47
102
}
330
47
100
AcDbScale
 70
     0
300
1'-0" = 1'-0"
140
12.0
141
12.0
290
     0
  0
ENDSEC
  0
EOF
