  0
SECTION
  2
HEADER
  9
$ACADVER
  1
AC1015
  9
$ACADMAINTVER
 70
     6
  9
$DWGCODEPAGE
  3
ANSI_1250
  9
$INSBASE
 10
0.0
 20
0.0
 30
0.0
  9
$EXTMIN
 10
6049.0178918514
 20
3770.6609264859
 30
0.0
  9
$EXTMAX
 10
7431.3969513276
 20
5643.872078921
 30
0.0
  9
$LIMMIN
 10
0.0
 20
0.0
  9
$LIMMAX
 10
420.0
 20
297.0
  9
$ORTHOMODE
 70
     0
  9
$REGENMODE
 70
     1
  9
$FILLMODE
 70
     1
  9
$QTEXTMODE
 70
     0
  9
$MIRRTEXT
 70
     1
  9
$LTSCALE
 40
1.0
  9
$ATTMODE
 70
     1
  9
$TEXTSIZE
 40
3.5
  9
$TRACEWID
 40
1.0
  9
$TEXTSTYLE
  7
Standard
  9
$CLAYER
  8
0
  9
$CELTYPE
  6
ByLayer
  9
$CECOLOR
 62
   256
  9
$CELTSCALE
 40
1.0
  9
$DISPSILH
 70
     0
  9
$DIMSCALE
 40
1.0
  9
$DIMASZ
 40
3.302
  9
$DIMEXO
 40
0.0
  9
$DIMDLI
 40
3.75
  9
$DIMRND
 40
0.0
  9
$DIMDLE
 40
0.0
  9
$DIMEXE
 40
1.0
  9
$DIMTP
 40
0.0
  9
$DIMTM
 40
0.0
  9
$DIMTXT
 40
3.5
  9
$DIMCEN
 40
2.5
  9
$DIMTSZ
 40
0.0
  9
$DIMTOL
 70
     0
  9
$DIMLIM
 70
     0
  9
$DIMTIH
 70
     1
  9
$DIMTOH
 70
     1
  9
$DIMSE1
 70
     0
  9
$DIMSE2
 70
     0
  9
$DIMTAD
 70
     1
  9
$DIMZIN
 70
     0
  9
$DIMBLK
  1

  9
$DIMASO
 70
     1
  9
$DIMSHO
 70
     1
  9
$DIMPOST
  1

  9
$DIMAPOST
  1

  9
$DIMALT
 70
     0
  9
$DIMALTD
 70
     3
  9
$DIMALTF
 40
0.0393700787
  9
$DIMLFAC
 40
1.0
  9
$DIMTOFL
 70
     1
  9
$DIMTVP
 40
0.0
  9
$DIMTIX
 70
     0
  9
$DIMSOXD
 70
     0
  9
$DIMSAH
 70
     0
  9
$DIMBLK1
  1

  9
$DIMBLK2
  1

  9
$DIMSTYLE
  2
ISO-25
  9
$DIMCLRD
 70
     0
  9
$DIMCLRE
 70
     0
  9
$DIMCLRT
 70
     0
  9
$DIMTFAC
 40
1.0
  9
$DIMGAP
 40
1.524
  9
$DIMJUST
 70
     0
  9
$DIMSD1
 70
     0
  9
$DIMSD2
 70
     0
  9
$DIMTOLJ
 70
     0
  9
$DIMTZIN
 70
     0
  9
$DIMALTZ
 70
     0
  9
$DIMALTTZ
 70
     0
  9
$DIMUPT
 70
     0
  9
$DIMDEC
 70
     2
  9
$DIMTDEC
 70
     2
  9
$DIMALTU
 70
     2
  9
$DIMALTTD
 70
     3
  9
$DIMTXSTY
  7
Standard
  9
$DIMAUNIT
 70
     0
  9
$DIMADEC
 70
     2
  9
$DIMALTRND
 40
0.0
  9
$DIMAZIN
 70
     0
  9
$DIMDSEP
 70
    44
  9
$DIMATFIT
 70
     3
  9
$DIMFRAC
 70
     0
  9
$DIMLDRBLK
  1

  9
$DIMLUNIT
 70
     2
  9
$DIMLWD
 70
    -2
  9
$DIMLWE
 70
    -2
  9
$DIMTMOVE
 70
     0
  9
$LUNITS
 70
     2
  9
$LUPREC
 70
     2
  9
$SKETCHINC
 40
1.0
  9
$FILLETRAD
 40
10.0
  9
$AUNITS
 70
     0
  9
$AUPREC
 70
     2
  9
$MENU
  1
.
  9
$ELEVATION
 40
0.0
  9
$PELEVATION
 40
0.0
  9
$THICKNESS
 40
0.0
  9
$LIMCHECK
 70
     0
  9
$CHAMFERA
 40
0.0
  9
$CHAMFERB
 40
0.0
  9
$CHAMFERC
 40
0.0
  9
$CHAMFERD
 40
0.0
  9
$SKPOLY
 70
     0
  9
$TDCREATE
 40
2459096.398050845
  9
$TDUCREATE
 40
2459096.314717512
  9
$TDUPDATE
 40
2459096.398084873
  9
$TDUUPDATE
 40
2459096.314751539
  9
$TDINDWG
 40
0.0000000116
  9
$TDUSRTIMER
 40
0.0000000116
  9
$USRTIMER
 70
     1
  9
$ANGBASE
 50
0.0
  9
$ANGDIR
 70
     0
  9
$PDMODE
 70
     0
  9
$PDSIZE
 40
-1.0
  9
$PLINEWID
 40
0.0
  9
$SPLFRAME
 70
     0
  9
$SPLINETYPE
 70
     6
  9
$SPLINESEGS
 70
     8
  9
$HANDSEED
  5
6D2
  9
$SURFTAB1
 70
     6
  9
$SURFTAB2
 70
     6
  9
$SURFTYPE
 70
     6
  9
$SURFU
 70
     6
  9
$SURFV
 70
     6
  9
$UCSBASE
  2

  9
$UCSNAME
  2

  9
$UCSORG
 10
0.0
 20
0.0
 30
0.0
  9
$UCSXDIR
 10
1.0
 20
0.0
 30
0.0
  9
$UCSYDIR
 10
0.0
 20
1.0
 30
0.0
  9
$UCSORTHOREF
  2

  9
$UCSORTHOVIEW
 70
     0
  9
$UCSORGTOP
 10
0.0
 20
0.0
 30
0.0
  9
$UCSORGBOTTOM
 10
0.0
 20
0.0
 30
0.0
  9
$UCSORGLEFT
 10
0.0
 20
0.0
 30
0.0
  9
$UCSORGRIGHT
 10
0.0
 20
0.0
 30
0.0
  9
$UCSORGFRONT
 10
0.0
 20
0.0
 30
0.0
  9
$UCSORGBACK
 10
0.0
 20
0.0
 30
0.0
  9
$PUCSBASE
  2

  9
$PUCSNAME
  2

  9
$PUCSORG
 10
0.0
 20
0.0
 30
0.0
  9
$PUCSXDIR
 10
1.0
 20
0.0
 30
0.0
  9
$PUCSYDIR
 10
0.0
 20
1.0
 30
0.0
  9
$PUCSORTHOREF
  2

  9
$PUCSORTHOVIEW
 70
     0
  9
$PUCSORGTOP
 10
0.0
 20
0.0
 30
0.0
  9
$PUCSORGBOTTOM
 10
0.0
 20
0.0
 30
0.0
  9
$PUCSORGLEFT
 10
0.0
 20
0.0
 30
0.0
  9
$PUCSORGRIGHT
 10
0.0
 20
0.0
 30
0.0
  9
$PUCSORGFRONT
 10
0.0
 20
0.0
 30
0.0
  9
$PUCSORGBACK
 10
0.0
 20
0.0
 30
0.0
  9
$USERI1
 70
     0
  9
$USERI2
 70
     0
  9
$USERI3
 70
     0
  9
$USERI4
 70
     0
  9
$USERI5
 70
     0
  9
$USERR1
 40
0.0
  9
$USERR2
 40
0.0
  9
$USERR3
 40
0.0
  9
$USERR4
 40
0.0
  9
$USERR5
 40
0.0
  9
$WORLDVIEW
 70
     1
  9
$SHADEDGE
 70
     3
  9
$SHADEDIF
 70
    70
  9
$TILEMODE
 70
     1
  9
$MAXACTVP
 70
    64
  9
$PINSBASE
 10
0.0
 20
0.0
 30
0.0
  9
$PLIMCHECK
 70
     0
  9
$PEXTMIN
 10
1.0000000000E+20
 20
1.0000000000E+20
 30
1.0000000000E+20
  9
$PEXTMAX
 10
-1.0000000000E+20
 20
-1.0000000000E+20
 30
-1.0000000000E+20
  9
$PLIMMIN
 10
0.0
 20
0.0
  9
$PLIMMAX
 10
420.0
 20
297.0
  9
$UNITMODE
 70
     0
  9
$VISRETAIN
 70
     1
  9
$PLINEGEN
 70
     0
  9
$PSLTSCALE
 70
     1
  9
$TREEDEPTH
 70
  3020
  9
$CMLSTYLE
  2
Standard
  9
$CMLJUST
 70
     0
  9
$CMLSCALE
 40
20.0
  9
$PROXYGRAPHICS
 70
     1
  9
$MEASUREMENT
 70
     1
  9
$CELWEIGHT
370
    -1
  9
$ENDCAPS
280
     0
  9
$JOINSTYLE
280
     0
  9
$LWDISPLAY
290
     1
  9
$INSUNITS
 70
     4
  9
$HYPERLINKBASE
  1

  9
$STYLESHEET
  1

  9
$XEDIT
290
     1
  9
$CEPSNTYPE
380
     0
  9
$PSTYLEMODE
290
     1
  9
$FINGERPRINTGUID
  2
{35facc49-b025-4ee4-bc5c-c1ea2918ad9d}
  9
$VERSIONGUID
  2
{FAEB1C32-E019-11D5-929B-00C0DF256EC4}
  9
$EXTNAMES
290
     1
  9
$PSVPSCALE
 40
0.0
  9
$OLESTARTUP
290
     0
  0
ENDSEC
  0
SECTION
  2
CLASSES
  0
CLASS
  1
ACDBDICTIONARYWDFLT
  2
AcDbDictionaryWithDefault
  3
ObjectDBX Classes
 90
        0
280
     0
281
     0
  0
CLASS
  1
VISUALSTYLE
  2
AcDbVisualStyle
  3
ObjectDBX Classes
 90
     4095
280
     0
281
     0
  0
CLASS
  1
MATERIAL
  2
AcDbMaterial
  3
ObjectDBX Classes
 90
     1153
280
     0
281
     0
  0
CLASS
  1
SCALE
  2
AcDbScale
  3
ObjectDBX Classes
 90
     1153
280
     0
281
     0
  0
CLASS
  1
TABLESTYLE
  2
AcDbTableStyle
  3
ObjectDBX Classes
 90
     4095
280
     0
281
     0
  0
CLASS
  1
MLEADERSTYLE
  2
AcDbMLeaderStyle
  3
ACDB_MLEADERSTYLE_CLASS
 90
     4095
280
     0
281
     0
  0
CLASS
  1
SUN
  2
AcDbSun
  3
SCENEOE
 90
     1153
280
     0
281
     0
  0
CLASS
  1
ACDBPLACEHOLDER
  2
AcDbPlaceHolder
  3
ObjectDBX Classes
 90
        0
280
     0
281
     0
  0
CLASS
  1
LAYOUT
  2
AcDbLayout
  3
ObjectDBX Classes
 90
        0
280
     0
281
     0
  0
ENDSEC
  0
SECTION
  2
TABLES
  0
TABLE
  2
VPORT
  5
8
330
0
100
AcDbSymbolTable
 70
     1
  0
VPORT
  5
29
330
8
100
AcDbSymbolTableRecord
100
AcDbViewportTableRecord
  2
*Active
 70
     0
 10
0.0
 20
0.0
 11
1.0
 21
1.0
 12
6740.2074215895
 22
4707.2665027034
 13
0.0
 23
0.0
 14
10.0
 24
10.0
 15
10.0
 25
10.0
 16
0.0
 26
0.0
 36
1.0
 17
0.0
 27
0.0
 37
0.0
 40
1910.6753754838
 41
0.7379728963
 42
50.0
 43
0.0
 44
0.0
 50
0.0
 51
0.0
 71
     0
 72
   100
 73
     1
 74
     3
 75
     0
 76
     0
 77
     0
 78
     0
281
     0
 65
     1
110
0.0
120
0.0
130
0.0
111
1.0
121
0.0
131
0.0
112
0.0
122
1.0
132
0.0
 79
     0
146
0.0
  0
ENDTAB
  0
TABLE
  2
LTYPE
  5
5
330
0
100
AcDbSymbolTable
 70
     6
  0
LTYPE
  5
14
330
5
100
AcDbSymbolTableRecord
100
AcDbLinetypeTableRecord
  2
ByBlock
 70
     0
  3

 72
    65
 73
     0
 40
0.0
  0
LTYPE
  5
15
330
5
100
AcDbSymbolTableRecord
100
AcDbLinetypeTableRecord
  2
ByLayer
 70
     0
  3

 72
    65
 73
     0
 40
0.0
  0
LTYPE
  5
16
330
5
100
AcDbSymbolTableRecord
100
AcDbLinetypeTableRecord
  2
Continuous
 70
     0
  3
Solid line
 72
    65
 73
     0
 40
0.0
  0
LTYPE
  5
6E
330
5
100
AcDbSymbolTableRecord
100
AcDbLinetypeTableRecord
  2
HIDDEN
 70
     0
  3
Hidden __ __ __ __ __ __ __ __ __ __ __ __ __ __
 72
    65
 73
     2
 40
1.905
 49
1.27
 74
     0
 49
-0.635
 74
     0
  0
LTYPE
  5
6F
330
5
100
AcDbSymbolTableRecord
100
AcDbLinetypeTableRecord
  2
PHANTOM
 70
     0
  3
Phantom ______  __  __  ______  __  __  ______
 72
    65
 73
     6
 40
12.7
 49
6.35
 74
     0
 49
-1.27
 74
     0
 49
1.27
 74
     0
 49
-1.27
 74
     0
 49
1.27
 74
     0
 49
-1.27
 74
     0
  0
LTYPE
  5
70
330
5
100
AcDbSymbolTableRecord
100
AcDbLinetypeTableRecord
  2
CENTER
 70
     0
  3
Center ____ _ ____ _ ____ _ ____ _ ____ _ ____
 72
    65
 73
     4
 40
10.16
 49
6.35
 74
     0
 49
-1.27
 74
     0
 49
1.27
 74
     0
 49
-1.27
 74
     0
  0
LTYPE
  5
71
330
5
100
AcDbSymbolTableRecord
100
AcDbLinetypeTableRecord
  2
CENTERX2
 70
     0
  3
Center (2x) ________  __  ________  __  _____
 72
    65
 73
     4
 40
20.32
 49
12.7
 74
     0
 49
-2.54
 74
     0
 49
2.54
 74
     0
 49
-2.54
 74
     0
  0
LTYPE
  5
72
330
5
100
AcDbSymbolTableRecord
100
AcDbLinetypeTableRecord
  2
DOT2
 70
     0
  3
Dot (.5x) ........................................
 72
    65
 73
     2
 40
0.635
 49
0.0
 74
     0
 49
-0.635
 74
     0
  0
ENDTAB
  0
TABLE
  2
LAYER
  5
2
330
0
100
AcDbSymbolTable
 70
     1
  0
LAYER
  5
10
330
2
100
AcDbSymbolTableRecord
100
AcDbLayerTableRecord
  2
0
 70
     0
 62
     7
  6
Continuous
370
    -3
390
F
  0
ENDTAB
  0
TABLE
  2
STYLE
  5
3
330
0
100
AcDbSymbolTable
 70
     1
  0
STYLE
  5
11
330
3
100
AcDbSymbolTableRecord
100
AcDbTextStyleTableRecord
  2
Standard
 70
     0
 40
0.0
 41
1.0
 50
0.0
 71
     0
 42
3.5
  3
txt
  4

  0
ENDTAB
  0
TABLE
  2
VIEW
  5
6
330
0
100
AcDbSymbolTable
 70
     0
  0
ENDTAB
  0
TABLE
  2
UCS
  5
7
330
0
100
AcDbSymbolTable
 70
     0
  0
ENDTAB
  0
TABLE
  2
APPID
  5
9
330
0
100
AcDbSymbolTable
 70
     1
  0
APPID
  5
12
330
9
100
AcDbSymbolTableRecord
100
AcDbRegAppTableRecord
  2
ACAD
 70
     0
  0
ENDTAB
  0
TABLE
  2
DIMSTYLE
  5
A
330
0
100
AcDbSymbolTable
 70
     1
100
AcDbDimStyleTable
  0
DIMSTYLE
105
27
330
A
100
AcDbSymbolTableRecord
100
AcDbDimStyleTableRecord
  2
ISO-25
 70
     0
 41
2.5
 42
0.625
 43
3.75
 44
1.25
 73
     0
 74
     0
 77
     1
 78
     8
140
2.5
141
2.5
143
0.0393700787
147
0.625
171
     3
172
     1
178
     0
271
     2
272
     2
274
     3
278
    44
283
     0
284
     8
340
11
  0
ENDTAB
  0
TABLE
  2
BLOCK_RECORD
  5
1
330
0
100
AcDbSymbolTable
 70
     1
  0
BLOCK_RECORD
  5
1F
330
1
100
AcDbSymbolTableRecord
100
AcDbBlockTableRecord
  2
*Model_Space
340
22
  0
BLOCK_RECORD
  5
1B
330
1
100
AcDbSymbolTableRecord
100
AcDbBlockTableRecord
  2
*Paper_Space
340
1E
  0
BLOCK_RECORD
  5
23
330
1
100
AcDbSymbolTableRecord
100
AcDbBlockTableRecord
  2
*Paper_Space0
340
26
  0
ENDTAB
  0
ENDSEC
  0
SECTION
  2
BLOCKS
  0
BLOCK
  5
20
330
1F
100
AcDbEntity
  8
0
100
AcDbBlockBegin
  2
*Model_Space
 70
     0
 10
0.0
 20
0.0
 30
0.0
  3
*Model_Space
  1

  0
ENDBLK
  5
21
330
1F
100
AcDbEntity
  8
0
100
AcDbBlockEnd
  0
BLOCK
  5
1C
330
1B
100
AcDbEntity
 67
     1
  8
0
100
AcDbBlockBegin
  2
*Paper_Space
 70
     0
 10
0.0
 20
0.0
 30
0.0
  3
*Paper_Space
  1

  0
ENDBLK
  5
1D
330
1B
100
AcDbEntity
 67
     1
  8
0
100
AcDbBlockEnd
  0
BLOCK
  5
24
330
23
100
AcDbEntity
  8
0
100
AcDbBlockBegin
  2
*Paper_Space0
 70
     0
 10
0.0
 20
0.0
 30
0.0
  3
*Paper_Space0
  1

  0
ENDBLK
  5
25
330
23
100
AcDbEntity
  8
0
100
AcDbBlockEnd
  0
ENDSEC
  0
SECTION
  2
ENTITIES
  0
ARC
  5
73
330
1F
100
AcDbEntity
  8
0
  6
Continuous
 62
     7
100
AcDbCircle
 10
6157.4001479709
 20
4786.4593341157
 30
0.0
 40
3.000000000001805
100
AcDbArc
 50
185.8472789937
 51
269.9996909512
  0
ARC
  5
74
330
1F
100
AcDbEntity
  8
0
  6
Continuous
 62
     7
100
AcDbCircle
 10
6205.6438008185
 20
4786.4592149065
 30
0.0
 40
3.000000000000556
100
AcDbArc
 50
269.9997655671
 51
354.151576683
  0
ARC
  5
75
330
1F
100
AcDbEntity
  8
0
  6
Continuous
 62
     7
100
AcDbCircle
 10
6392.6078450592
 20
5469.7795133838
 30
0.0
 40
0.9999999999994279
100
AcDbArc
 50
91.9392403111
 51
181.9389236951
  0
ARC
  5
76
330
1F
100
AcDbEntity
  8
0
  6
Continuous
 62
     7
100
AcDbCircle
 10
6397.1052704944
 20
5469.9318033077
 30
0.0
 40
0.9999999999998727
100
AcDbArc
 50
1.9387992285
 51
91.9393358947
  0
ARC
  5
77
330
1F
100
AcDbEntity
  8
0
  6
Continuous
 62
     7
100
AcDbCircle
 10
6050.6687399733
 20
5160.0560184835
 30
0.0
 40
0.44999999999972
100
AcDbArc
 50
179.9998415454
 51
215.182042217
  0
ARC
  5
78
330
1F
100
AcDbEntity
  8
0
  6
Continuous
 62
     7
100
AcDbCircle
 10
6050.6687263164
 20
5160.0560237282
 30
0.0
 40
1.649999999999682
100
AcDbArc
 50
180.0000134816
 51
260.9592937397
  0
ARC
  5
79
330
1F
100
AcDbEntity
  8
0
  6
Continuous
 62
     7
100
AcDbCircle
 10
6050.6688455255
 20
5196.7560094163
 30
0.0
 40
1.650000000001004
100
AcDbArc
 50
89.9998062647
 51
179.9991588496
  0
ARC
  5
7A
330
1F
100
AcDbEntity
  8
0
  6
Continuous
 62
     7
100
AcDbCircle
 10
6050.6688455255
 20
5196.7560094163
 30
0.0
 40
0.4500065619694367
100
AcDbArc
 50
90.0003580696
 51
179.9986871129
  0
ARC
  5
7B
330
1F
100
AcDbEntity
  8
0
  6
Continuous
 62
     7
100
AcDbCircle
 10
6497.3688430938
 20
5196.7547831156
 30
0.0
 40
0.4499999999999805
100
AcDbArc
 50
359.9998505854
 51
90.000048677
  0
ARC
  5
7C
330
1F
100
AcDbEntity
  8
0
  6
Continuous
 62
     7
100
AcDbCircle
 10
6497.3688430938
 20
5196.7547831156
 30
0.0
 40
1.650004405501439
100
AcDbArc
 50
359.9999592507
 51
90.0000057956
  0
ARC
  5
7D
330
1F
100
AcDbEntity
  8
0
  6
Continuous
 62
     7
100
AcDbCircle
 10
6274.0195045295
 20
5401.0177824506
 30
0.0
 40
35.48490445815953
100
AcDbArc
 50
87.5772979002
 51
92.4227020998
  0
ARC
  5
7E
330
1F
100
AcDbEntity
  8
0
  6
Continuous
 62
     7
100
AcDbCircle
 10
6271.0082466894
 20
5422.4765467554
 30
0.0
 40
13.78443842207279
100
AcDbArc
 50
99.9519153001
 51
109.0694581686
  0
ARC
  5
7F
330
1F
100
AcDbEntity
  8
0
  6
Continuous
 62
     7
100
AcDbCircle
 10
6265.4557575268
 20
5434.1086060212
 30
0.0
 40
0.6845593080902639
100
AcDbArc
 50
145.4503491762
 51
214.5496508238
  0
ARC
  5
80
330
1F
100
AcDbEntity
  8
0
  6
Continuous
 62
     7
100
AcDbCircle
 10
6268.1045181965
 20
5438.4515412169
 30
0.0
 40
5.033951764739911
100
AcDbArc
 50
237.4899321662
 51
251.4693487278
  0
ARC
  5
81
330
1F
100
AcDbEntity
  8
0
  6
Continuous
 62
     7
100
AcDbCircle
 10
6271.0086720399
 20
5445.7419379239
 30
0.0
 40
13.78579670645875
100
AcDbArc
 50
250.9305900698
 51
260.0472332374
  0
ARC
  5
82
330
1F
100
AcDbEntity
  8
0
  6
Continuous
 62
     7
100
AcDbCircle
 10
6273.617278746
 20
5461.4964309026
 30
0.0
 40
28.80523584139567
100
AcDbArc
 50
260.7449879161
 51
267.8158910615
  0
ARC
  5
83
330
1F
100
AcDbEntity
  8
0
  6
Continuous
 62
     7
100
AcDbCircle
 10
6274.0196675741
 20
5467.1965250477
 30
0.0
 40
35.48205453973851
100
AcDbArc
 50
267.5768216129
 51
272.4226092067
  0
ARC
  5
84
330
1F
100
AcDbEntity
  8
0
  6
Continuous
 62
     7
100
AcDbCircle
 10
6274.4218978076
 20
5461.4957658098
 30
0.0
 40
28.80457888745294
100
AcDbArc
 50
272.1837808745
 51
279.2548499206
  0
ARC
  5
85
330
1F
100
AcDbEntity
  8
0
  6
Continuous
 62
     7
100
AcDbCircle
 10
6277.0301957035
 20
5445.7427375591
 30
0.0
 40
13.78663357880407
100
AcDbArc
 50
279.9526426983
 51
289.0687307691
  0
ARC
  5
86
330
1F
100
AcDbEntity
  8
0
  6
Continuous
 62
     7
100
AcDbCircle
 10
6279.9342606295
 20
5438.4519970379
 30
0.0
 40
5.034493590219633
100
AcDbArc
 50
288.5311242856
 51
302.5091444765
  0
ARC
  5
87
330
1F
100
AcDbEntity
  8
0
  6
Continuous
 62
     7
100
AcDbCircle
 10
6282.5832261264
 20
5434.1085491218
 30
0.0
 40
0.6845694941565919
100
AcDbArc
 50
325.4506612968
 51
34.5487889122
  0
ARC
  5
88
330
1F
100
AcDbEntity
  8
0
  6
Continuous
 62
     7
100
AcDbCircle
 10
6277.0303782862
 20
5422.475431527
 30
0.0
 40
13.78557325128815
100
AcDbArc
 50
70.930516026
 51
80.0473072811
  0
ARC
  5
89
330
1F
100
AcDbEntity
  8
0
  6
Continuous
 62
     7
100
AcDbCircle
 10
6274.0195045295
 20
5402.8349111038
 30
0.0
 40
33.538369044487
100
AcDbArc
 50
87.4365952348
 51
92.5634047652
  0
ARC
  5
8A
330
1F
100
AcDbEntity
  8
0
  6
Continuous
 62
     7
100
AcDbCircle
 10
6276.863392959
 20
5446.0608732783
 30
0.0
 40
13.02417062163686
100
AcDbArc
 50
279.684820961
 51
289.335798093
  0
ARC
  5
8B
330
1F
100
AcDbEntity
  8
0
  6
Continuous
 62
     7
100
AcDbCircle
 10
6274.0196616147
 20
5466.3438966914
 30
0.0
 40
33.53409807616518
100
AcDbArc
 50
267.435987132
 51
272.5634436876
  0
ARC
  5
8C
330
1F
100
AcDbEntity
  8
0
  6
Continuous
 62
     7
100
AcDbCircle
 10
6271.1762234854
 20
5446.0626397838
 30
0.0
 40
13.02600257913362
100
AcDbArc
 50
250.6641112721
 51
260.3137608499
  0
ARC
  5
8D
330
1F
100
AcDbEntity
  8
0
  6
Continuous
 62
     7
100
AcDbCircle
 10
6276.8632225399
 20
5423.122167182
 30
0.0
 40
13.02422040550286
100
AcDbArc
 50
70.6634495003
 51
80.3144226217
  0
ARC
  5
8E
330
1F
100
AcDbEntity
  8
0
  6
Continuous
 62
     7
100
AcDbCircle
 10
6271.1763008689
 20
5423.11986173
 30
0.0
 40
13.02660953486851
100
AcDbArc
 50
99.6860955244
 51
109.3352779442
  0
ARC
  5
8F
330
1F
100
AcDbEntity
  8
0
  6
Continuous
 62
     7
100
AcDbCircle
 10
6282.1128107486
 20
5434.1085563962
 30
0.0
 40
0.654691455532146
100
AcDbArc
 50
323.6292309704
 51
36.370219264
  0
ARC
  5
90
330
1F
100
AcDbEntity
  8
0
  6
Continuous
 62
     7
100
AcDbCircle
 10
6265.9261629154
 20
5434.1086009629
 30
0.0
 40
0.6546690359470297
100
AcDbArc
 50
143.6283208284
 51
216.3705795894
  0
ARC
  5
91
330
1F
100
AcDbEntity
  8
0
  6
Continuous
 62
     7
100
AcDbCircle
 10
6276.8626091271
 20
5445.0976302811
 30
0.0
 40
13.02695905444529
100
AcDbArc
 50
279.6862252764
 51
289.3351481909
  0
ARC
  5
92
330
1F
100
AcDbEntity
  8
0
  6
Continuous
 62
     7
100
AcDbCircle
 10
6271.1757730513
 20
5445.0949615326
 30
0.0
 40
13.02419726171294
100
AcDbArc
 50
250.6634244587
 51
260.3143988485
  0
ARC
  5
93
330
1F
100
AcDbEntity
  8
0
  6
Continuous
 62
     7
100
AcDbCircle
 10
6274.019491491
 20
5465.3821022082
 30
0.0
 40
33.53822997471417
100
AcDbArc
 50
267.4365877836
 51
272.5634122164
  0
CIRCLE
  5
94
330
1F
100
AcDbEntity
  8
0
  6
Continuous
 62
     7
100
AcDbCircle
 10
6274.0195224247
 20
5442.8714608484
 30
0.0
 40
29.49999999999985
  0
CIRCLE
  5
95
330
1F
100
AcDbEntity
  8
0
  6
Continuous
 62
     7
100
AcDbCircle
 10
6274.0195224247
 20
5442.8714608484
 30
0.0
 40
29.99999999999957
  0
ARC
  5
96
330
1F
100
AcDbEntity
  8
0
  6
Continuous
 62
     7
100
AcDbCircle
 10
6274.0195224247
 20
5442.8714608484
 30
0.0
 40
14.00000029286314
100
AcDbArc
 50
339.5573994716
 51
200.4422831738
  0
ARC
  5
97
330
1F
100
AcDbEntity
  8
0
  6
Continuous
 62
     7
100
AcDbCircle
 10
6274.0195224247
 20
5442.8714608484
 30
0.0
 40
13.00000183937287
100
AcDbArc
 50
339.174427901
 51
200.8252207717
  0
ARC
  5
98
330
1F
100
AcDbEntity
  8
0
  6
Continuous
 62
     7
100
AcDbCircle
 10
6274.0195224247
 20
5442.8714608484
 30
0.0
 40
14.00000029286314
100
AcDbArc
 50
200.4422831738
 51
339.5573994716
  0
ARC
  5
99
330
1F
100
AcDbEntity
  8
0
  6
Continuous
 62
     7
100
AcDbCircle
 10
6279.8884526719
 20
5438.2542577608
 30
0.0
 40
5.371811389663497
100
AcDbArc
 50
287.8418115017
 51
302.4324640349
  0
ARC
  5
9A
330
1F
100
AcDbEntity
  8
0
  6
Continuous
 62
     7
100
AcDbCircle
 10
6274.3186784927
 20
5462.4908137364
 30
0.0
 40
30.31824095482216
100
AcDbArc
 50
272.2699034081
 51
278.9864725874
  0
ARC
  5
9B
330
1F
100
AcDbEntity
  8
0
  6
Continuous
 62
     7
100
AcDbCircle
 10
6273.72047817
 20
5462.4912594266
 30
0.0
 40
30.31867828520623
100
AcDbArc
 50
261.0133329405
 51
267.7298008743
  0
ARC
  5
9C
330
1F
100
AcDbEntity
  8
0
  6
Continuous
 62
     7
100
AcDbCircle
 10
6268.1504685506
 20
5438.2539069232
 30
0.0
 40
5.371427851174457
100
AcDbArc
 50
237.5658110716
 51
252.1576472376
  0
ARC
  5
9D
330
1F
100
AcDbEntity
  8
0
  6
Continuous
 62
     7
100
AcDbCircle
 10
6274.0191523969
 20
5308.405401883
 30
0.0
 40
20.00000000000076
100
AcDbArc
 50
24.7215240151
 51
155.2781940098
  0
ARC
  5
9E
330
1F
100
AcDbEntity
  8
0
  6
Continuous
 62
     7
100
AcDbCircle
 10
6274.0191523969
 20
5308.405401883
 30
0.0
 40
20.0000033543098
100
AcDbArc
 50
204.7215406456
 51
335.2781688972
  0
CIRCLE
  5
9F
330
1F
100
AcDbEntity
  8
0
  6
Continuous
 62
     7
100
AcDbCircle
 10
6395.7702370355
 20
5442.8711241417
 30
0.0
 40
30.00000000000091
  0
CIRCLE
  5
A0
330
1F
100
AcDbEntity
  8
0
  6
Continuous
 62
     7
100
AcDbCircle
 10
6395.7702370355
 20
5442.8711241417
 30
0.0
 40
22.70000000000073
  0
CIRCLE
  5
A1
330
1F
100
AcDbEntity
  8
0
  6
Continuous
 62
     7
100
AcDbCircle
 10
6395.7702370355
 20
5442.8711241417
 30
0.0
 40
7.500000000000909
  0
CIRCLE
  5
A2
330
1F
100
AcDbEntity
  8
0
  6
Continuous
 62
     7
100
AcDbCircle
 10
6395.7702370355
 20
5442.8711241417
 30
0.0
 40
7.0
  0
ARC
  5
A3
330
1F
100
AcDbEntity
  8
0
  6
Continuous
 62
     7
100
AcDbCircle
 10
6395.7702370355
 20
5442.8711241417
 30
0.0
 40
22.95000000000023
100
AcDbArc
 50
100.0804062123
 51
83.7981100381
  0
ARC
  5
A4
330
1F
100
AcDbEntity
  8
0
  6
Continuous
 62
     7
100
AcDbCircle
 10
6395.7702370355
 20
5442.8711241417
 30
0.0
 40
23.0000000000002
100
AcDbArc
 50
100.0625883848
 51
83.8159278656
  0
ARC
  5
A5
330
1F
100
AcDbEntity
  8
0
  6
Continuous
 62
     7
100
AcDbCircle
 10
6050.668739835
 20
5160.0060184835
 30
0.0
 40
1.650000000000238
100
AcDbArc
 50
179.9998415461
 51
255.8587313124
  0
ARC
  5
A6
330
1F
100
AcDbEntity
  8
0
  6
Continuous
 62
     7
100
AcDbCircle
 10
6497.3687387858
 20
5160.0047831158
 30
0.0
 40
0.4499999999998612
100
AcDbArc
 50
269.9999749166
 51
0.0012773137
  0
ARC
  5
A7
330
1F
100
AcDbEntity
  8
0
  6
Continuous
 62
     7
100
AcDbCircle
 10
6395.7702370355
 20
5442.8711241417
 30
0.0
 40
28.00000000000021
100
AcDbArc
 50
231.1535695106
 51
86.29693259
  0
ARC
  5
A8
330
1F
100
AcDbEntity
  8
0
  6
Continuous
 62
     7
100
AcDbCircle
 10
6395.7702370355
 20
5442.8711241417
 30
0.0
 40
28.0000000000002
100
AcDbArc
 50
97.5815836604
 51
231.1535695106
  0
ARC
  5
A9
330
1F
100
AcDbEntity
  8
0
  6
Continuous
 62
     7
100
AcDbCircle
 10
6984.1736617259
 20
4871.4592931078
 30
0.0
 40
20.00000000000185
100
AcDbArc
 50
270.0000072365
 51
319.2525936803
  0
ARC
  5
AA
330
1F
100
AcDbEntity
  8
0
  6
Continuous
 62
     7
100
AcDbCircle
 10
6983.8010137323
 20
5308.4053818749
 30
0.0
 40
28.00000000000112
100
AcDbArc
 50
314.4153240032
 51
344.5348673896
  0
ARC
  5
AB
330
1F
100
AcDbEntity
  8
0
  6
Continuous
 62
     7
100
AcDbCircle
 10
6983.8010159543
 20
5308.4054116935
 30
0.0
 40
27.99999999999955
100
AcDbArc
 50
15.4635880552
 51
45.5846823622
  0
ARC
  5
AC
330
1F
100
AcDbEntity
  8
0
  6
Continuous
 62
     7
100
AcDbCircle
 10
7004.3969356814
 20
5470.8711232946
 30
0.0
 40
2.000000000000936
100
AcDbArc
 50
359.9998838873
 51
90.0000093909
  0
ARC
  5
AD
330
1F
100
AcDbEntity
  8
0
  6
Continuous
 62
     7
100
AcDbCircle
 10
7004.3969356814
 20
5414.8711209104
 30
0.0
 40
1.999999999999559
100
AcDbArc
 50
269.9999906091
 51
0.0001161128
  0
ARC
  5
AE
330
1F
100
AcDbEntity
  8
0
  6
Continuous
 62
     7
100
AcDbCircle
 10
7429.7469513277
 20
5160.0547854097
 30
0.0
 40
1.650000000000859
100
AcDbArc
 50
279.0401241046
 51
359.9995219384
  0
ARC
  5
AF
330
1F
100
AcDbEntity
  8
0
  6
Continuous
 62
     7
100
AcDbCircle
 10
7429.7469310147
 20
5196.7560184833
 30
0.0
 40
0.4500000000003988
100
AcDbArc
 50
0.0019297679
 51
89.9992493303
  0
ARC
  5
B0
330
1F
100
AcDbEntity
  8
0
  6
Continuous
 62
     7
100
AcDbCircle
 10
7429.7469310144
 20
5196.7547831156
 30
0.0
 40
0.4500000000002446
100
AcDbArc
 50
359.9998505805
 51
89.9992492983
  0
ARC
  5
B1
330
1F
100
AcDbEntity
  8
0
  6
Continuous
 62
     7
100
AcDbCircle
 10
7429.7469513278
 20
5196.7560094163
 30
0.0
 40
1.649999999999185
100
AcDbArc
 50
0.0008411503
 51
90.0001937319
  0
ARC
  5
B2
330
1F
100
AcDbEntity
  8
0
  6
Continuous
 62
     7
100
AcDbCircle
 10
7001.3469368914
 20
5198.3560244844
 30
0.0
 40
0.5000000000001174
100
AcDbArc
 50
0.0007376601
 51
90.0001161204
  0
ARC
  5
B3
330
1F
100
AcDbEntity
  8
0
  6
Continuous
 62
     7
100
AcDbCircle
 10
7076.2531478854
 20
5490.7164479487
 30
0.0
 40
20.99081594073747
100
AcDbArc
 50
263.6192208198
 51
272.504290748
  0
ARC
  5
B4
330
1F
100
AcDbEntity
  8
0
  6
Continuous
 62
     7
100
AcDbCircle
 10
7077.961305343
 20
5494.4453938914
 30
0.0
 40
24.71237653420065
100
AcDbArc
 50
268.1657941973
 51
275.7106986748
  0
ARC
  5
B5
330
1F
100
AcDbEntity
  8
0
  6
Continuous
 62
     7
100
AcDbCircle
 10
6423.7702386054
 20
4197.6609421321
 30
0.0
 40
2.000000000000027
100
AcDbArc
 50
269.9998838872
 51
0.0000093909
  0
ARC
  5
B6
330
1F
100
AcDbEntity
  8
0
  6
Continuous
 62
     7
100
AcDbCircle
 10
6367.7702362212
 20
4197.6609421321
 30
0.0
 40
2.000000000000936
100
AcDbArc
 50
179.9999906092
 51
270.0000093936
  0
ARC
  5
B7
330
1F
100
AcDbEntity
  8
0
  6
Continuous
 62
     7
100
AcDbCircle
 10
6050.670087734
 20
4244.0109497964
 30
0.0
 40
0.4499999999996696
100
AcDbArc
 50
121.5411955009
 51
180.0015913379
  0
ARC
  5
B8
330
1F
100
AcDbEntity
  8
0
  6
Continuous
 62
     7
100
AcDbCircle
 10
6050.6700674209
 20
4244.0109428771
 30
0.0
 40
1.650000000000883
100
AcDbArc
 50
89.9998062705
 51
180.0001937295
  0
ARC
  5
B9
330
1F
100
AcDbEntity
  8
0
  6
Continuous
 62
     7
100
AcDbCircle
 10
6050.6688455257
 20
4244.0109428771
 30
0.0
 40
1.650000000000883
100
AcDbArc
 50
89.9998062705
 51
180.0001937295
  0
ARC
  5
BA
330
1F
100
AcDbEntity
  8
0
  6
Continuous
 62
     7
100
AcDbCircle
 10
6497.3700704011
 20
4244.0109428771
 30
0.0
 40
1.650000000001414
100
AcDbArc
 50
359.9998062699
 51
89.9996762896
  0
ARC
  5
BB
330
1F
100
AcDbEntity
  8
0
  6
Continuous
 62
     7
100
AcDbCircle
 10
6497.3700805981
 20
4244.0101390925
 30
0.0
 40
0.4499999999998971
100
AcDbArc
 50
0.1016307531
 51
57.0648721812
  0
ARC
  5
BC
330
1F
100
AcDbEntity
  8
0
  6
Continuous
 62
     7
100
AcDbCircle
 10
6497.3688430938
 20
4244.0109436309
 30
0.0
 40
0.4499999999998128
100
AcDbArc
 50
359.9991936871
 51
56.876936639
  0
ARC
  5
BD
330
1F
100
AcDbEntity
  8
0
  6
Continuous
 62
     7
100
AcDbCircle
 10
6050.6688455257
 20
4202.310941089
 30
0.0
 40
1.649999999997969
100
AcDbArc
 50
180.0000649903
 51
270.0001937293
  0
ARC
  5
BE
330
1F
100
AcDbEntity
  8
0
  6
Continuous
 62
     7
100
AcDbCircle
 10
6274.0188460302
 20
5181.3859409031
 30
0.0
 40
1365.125000000024
100
AcDbArc
 50
265.6336630093
 51
274.3632828071
  0
ARC
  5
BF
330
1F
100
AcDbEntity
  8
0
  6
Continuous
 62
     7
100
AcDbCircle
 10
6371.4119197726
 20
3904.956954268
 30
0.0
 40
84.98580103166935
100
AcDbArc
 50
274.3632828039
 51
354.9650587449
  0
ARC
  5
C0
330
1F
100
AcDbEntity
  8
0
  6
Continuous
 62
     7
100
AcDbCircle
 10
5315.6259888897
 20
3986.2609408767
 30
0.0
 40
1143.892857142869
100
AcDbArc
 50
355.5495473974
 51
4.4504526026
  0
ARC
  5
C1
330
1F
100
AcDbEntity
  8
0
  6
Continuous
 62
     7
100
AcDbCircle
 10
6371.4119199744
 20
4067.5649251944
 30
0.0
 40
84.98580103164865
100
AcDbArc
 50
5.0349428059
 51
56.3774200036
  0
ARC
  5
C2
330
1F
100
AcDbEntity
  8
0
  6
Continuous
 62
     7
100
AcDbCircle
 10
6274.0188460316
 20
2791.1359409031
 30
0.0
 40
1365.125000000099
100
AcDbArc
 50
90.5875771347
 51
94.3632828071
  0
ARC
  5
C3
330
1F
100
AcDbEntity
  8
0
  6
Continuous
 62
     7
100
AcDbCircle
 10
6274.0188460316
 20
2791.1359409031
 30
0.0
 40
1365.124999862955
100
AcDbArc
 50
85.8495694172
 51
89.4123661106
  0
ARC
  5
C4
330
1F
100
AcDbEntity
  8
0
  6
Continuous
 62
     7
100
AcDbCircle
 10
6176.6257722894
 20
4067.5649275382
 30
0.0
 40
84.9858010317437
100
AcDbArc
 50
94.3632828039
 51
174.9650587502
  0
ARC
  5
C5
330
1F
100
AcDbEntity
  8
0
  6
Continuous
 62
     7
100
AcDbCircle
 10
7232.4117031721
 20
3986.2609409288
 30
0.0
 40
1143.892857142921
100
AcDbArc
 50
175.5495473978
 51
184.4540939363
  0
ARC
  5
C6
330
1F
100
AcDbEntity
  8
0
  6
Continuous
 62
     7
100
AcDbCircle
 10
6175.6215065244
 20
3903.9416526104
 30
0.0
 40
83.90135483739175
100
AcDbArc
 50
184.4540939376
 51
266.2181040993
  0
ARC
  5
C7
330
1F
100
AcDbEntity
  8
0
  6
Continuous
 62
     7
100
AcDbCircle
 10
6274.0188460302
 20
5181.3859409031
 30
0.0
 40
1365.125000000024
100
AcDbArc
 50
269.9999995714
 51
274.3632828071
  0
ARC
  5
C8
330
1F
100
AcDbEntity
  8
0
  6
Continuous
 62
     7
100
AcDbCircle
 10
6274.0188460316
 20
2791.1359409031
 30
0.0
 40
1365.124999862955
100
AcDbArc
 50
85.8495694172
 51
89.4123661106
  0
ARC
  5
C9
330
1F
100
AcDbEntity
  8
0
  6
Continuous
 62
     7
100
AcDbCircle
 10
6371.4119199744
 20
4067.5649251944
 30
0.0
 40
84.98580103164865
100
AcDbArc
 50
5.0349428059
 51
56.3774200036
  0
ARC
  5
CA
330
1F
100
AcDbEntity
  8
0
  6
Continuous
 62
     7
100
AcDbCircle
 10
6371.4119197726
 20
3904.956954268
 30
0.0
 40
84.98580103166935
100
AcDbArc
 50
274.3632828039
 51
354.9650587449
  0
ARC
  5
CB
330
1F
100
AcDbEntity
  8
0
  6
Continuous
 62
     7
100
AcDbCircle
 10
5315.6259888897
 20
3986.2609408767
 30
0.0
 40
1143.892857142869
100
AcDbArc
 50
355.5495473974
 51
4.4504526026
  0
ARC
  5
CC
330
1F
100
AcDbEntity
  8
0
  6
Continuous
 62
     7
100
AcDbCircle
 10
6181.5225970711
 20
4062.8842282469
 30
0.0
 40
15.00000000000029
100
AcDbArc
 50
174.224590238
 51
204.2608740111
  0
ARC
  5
CD
330
1F
100
AcDbEntity
  8
0
  6
Continuous
 62
     7
100
AcDbCircle
 10
6181.5224826263
 20
4062.8842746562
 30
0.0
 40
14.99999999999994
100
AcDbArc
 50
241.9954356304
 51
298.005724606
  0
ARC
  5
CE
330
1F
100
AcDbEntity
  8
0
  6
Continuous
 62
     7
100
AcDbCircle
 10
6181.5223695743
 20
4062.8842145303
 30
0.0
 40
14.99999999999921
100
AcDbArc
 50
335.7396506026
 51
28.0047483223
  0
ARC
  5
CF
330
1F
100
AcDbEntity
  8
0
  6
Continuous
 62
     7
100
AcDbCircle
 10
6181.5223695743
 20
4062.8842145303
 30
0.0
 40
15.00000000000038
100
AcDbArc
 50
61.9937862922
 51
84.2598692698
  0
ARC
  5
D0
330
1F
100
AcDbEntity
  8
0
  6
Continuous
 62
     7
100
AcDbCircle
 10
6181.5225969045
 20
4062.8842153194
 30
0.0
 40
15.00000000000065
100
AcDbArc
 50
95.7392247996
 51
118.0050597264
  0
ARC
  5
D1
330
1F
100
AcDbEntity
  8
0
  6
Continuous
 62
     7
100
AcDbCircle
 10
6181.5225969045
 20
4062.8842153194
 30
0.0
 40
15.00000113509409
100
AcDbArc
 50
151.9946490518
 51
174.2245410451
  0
ARC
  5
D2
330
1F
100
AcDbEntity
  8
0
  6
Continuous
 62
     7
100
AcDbCircle
 10
6181.5223695743
 20
4062.8842145303
 30
0.0
 40
14.99999999999957
100
AcDbArc
 50
269.9999997107
 51
298.0062137072
  0
ARC
  5
D3
330
1F
100
AcDbEntity
  8
0
  6
Continuous
 62
     7
100
AcDbCircle
 10
6181.5223695743
 20
4062.8842145303
 30
0.0
 40
14.99999999999921
100
AcDbArc
 50
335.7396506026
 51
28.0047483223
  0
ARC
  5
D4
330
1F
100
AcDbEntity
  8
0
  6
Continuous
 62
     7
100
AcDbCircle
 10
6181.5223695743
 20
4062.8842145303
 30
0.0
 40
15.00000000000038
100
AcDbArc
 50
61.9937862922
 51
84.2598692698
  0
ARC
  5
D5
330
1F
100
AcDbEntity
  8
0
  6
Continuous
 62
     7
100
AcDbCircle
 10
6181.5226559181
 20
4062.8842145303
 30
0.0
 40
5.250000000000516
100
AcDbArc
 50
98.2132107014
 51
261.786789298
  0
ARC
  5
D6
330
1F
100
AcDbEntity
  8
0
  6
Continuous
 62
     7
100
AcDbCircle
 10
6181.5226559181
 20
4062.8842145303
 30
0.0
 40
5.250000000000646
100
AcDbArc
 50
278.2132107014
 51
81.786789298
  0
ARC
  5
D7
330
1F
100
AcDbEntity
  8
0
  6
Continuous
 62
     7
100
AcDbCircle
 10
6181.5226559181
 20
4062.8842145303
 30
0.0
 40
5.250000967897352
100
AcDbArc
 50
179.9998415461
 51
269.9999788734
  0
ARC
  5
D8
330
1F
100
AcDbEntity
  8
0
  6
Continuous
 62
     7
100
AcDbCircle
 10
6181.5226559181
 20
4062.8842145303
 30
0.0
 40
5.250000967904628
100
AcDbArc
 50
90.000021126
 51
179.9998415461
  0
ARC
  5
D9
330
1F
100
AcDbEntity
  8
0
  6
Continuous
 62
     7
100
AcDbCircle
 10
6181.5226559181
 20
4062.8842145303
 30
0.0
 40
5.250000000000516
100
AcDbArc
 50
81.786789298
 51
98.2132107014
  0
ARC
  5
DA
330
1F
100
AcDbEntity
  8
0
  6
Continuous
 62
     7
100
AcDbCircle
 10
6181.5226559181
 20
4062.8842145303
 30
0.0
 40
5.250000000000646
100
AcDbArc
 50
261.786789298
 51
278.2132107014
  0
CIRCLE
  5
DB
330
1F
100
AcDbEntity
  8
0
  6
Continuous
 62
     7
100
AcDbCircle
 10
6181.5226932071
 20
4062.8842145303
 30
0.0
 40
35.0
  0
ARC
  5
DC
330
1F
100
AcDbEntity
  8
0
  6
Continuous
 62
     7
100
AcDbCircle
 10
6181.5226932071
 20
4062.8842145303
 30
0.0
 40
35.00000096794935
100
AcDbArc
 50
179.9998415461
 51
269.9999965416
  0
ARC
  5
DD
330
1F
100
AcDbEntity
  8
0
  6
Continuous
 62
     7
100
AcDbCircle
 10
6181.5226932071
 20
4062.8842145303
 30
0.0
 40
35.00000096794979
100
AcDbArc
 50
90.0000028798
 51
179.9998415461
  0
CIRCLE
  5
DE
330
1F
100
AcDbEntity
  8
0
  6
Continuous
 62
     7
100
AcDbCircle
 10
6181.5226932071
 20
4062.8842145303
 30
0.0
 40
24.50000000000091
  0
CIRCLE
  5
DF
330
1F
100
AcDbEntity
  8
0
  6
Continuous
 62
     7
100
AcDbCircle
 10
6181.5226932071
 20
4062.8842145303
 30
0.0
 40
22.49999446889979
  0
ARC
  5
E0
330
1F
100
AcDbEntity
  8
0
  6
Continuous
 62
     7
100
AcDbCircle
 10
6181.522671434
 20
4062.8842160453
 30
0.0
 40
22.5
100
AcDbArc
 50
269.9999997107
 51
89.9999997107
  0
CIRCLE
  5
E1
330
1F
100
AcDbEntity
  8
0
  6
Continuous
 62
     7
100
AcDbCircle
 10
6181.5226559181
 20
4062.8842145303
 30
0.0
 40
21.50000339080088
  0
CIRCLE
  5
E2
330
1F
100
AcDbEntity
  8
0
  6
Continuous
 62
     7
100
AcDbCircle
 10
6181.5226559181
 20
4062.8842145303
 30
0.0
 40
19.55298904906249
  0
CIRCLE
  5
E3
330
1F
100
AcDbEntity
  8
0
  6
Continuous
 62
     7
100
AcDbCircle
 10
6181.5226559181
 20
4062.8842145303
 30
0.0
 40
6.182049932068367
  0
ARC
  5
E4
330
1F
100
AcDbEntity
  8
0
  6
Continuous
 62
     7
100
AcDbCircle
 10
6181.5226559181
 20
4062.8842145303
 30
0.0
 40
19.50000085275079
100
AcDbArc
 50
166.9496956408
 51
193.050304359
  0
ARC
  5
E5
330
1F
100
AcDbEntity
  8
0
  6
Continuous
 62
     7
100
AcDbCircle
 10
6166.4229861722
 20
4059.3842145302
 30
0.0
 40
3.999999999950823
100
AcDbArc
 50
193.0503049392
 51
13.0503049392
  0
ARC
  5
E6
330
1F
100
AcDbEntity
  8
0
  6
Continuous
 62
     7
100
AcDbCircle
 10
6181.5226559181
 20
4062.8842145303
 30
0.0
 40
11.50000085279093
100
AcDbArc
 50
166.9496960455
 51
193.0503039553
  0
ARC
  5
E7
330
1F
100
AcDbEntity
  8
0
  6
Continuous
 62
     7
100
AcDbCircle
 10
6166.4229861722
 20
4066.3842145303
 30
0.0
 40
4.000000000000466
100
AcDbArc
 50
346.9496950591
 51
166.9496950591
  0
ARC
  5
E8
330
1F
100
AcDbEntity
  8
0
  6
Continuous
 62
     7
100
AcDbCircle
 10
6181.5226559181
 20
4062.8842145303
 30
0.0
 40
19.50000009887889
100
AcDbArc
 50
256.9496925543
 51
283.0503024333
  0
ARC
  5
E9
330
1F
100
AcDbEntity
  8
0
  6
Continuous
 62
     7
100
AcDbCircle
 10
6185.0226551095
 20
4047.7845453708
 30
0.0
 40
4.000000000000695
100
AcDbArc
 50
283.0503049393
 51
103.0503049393
  0
ARC
  5
EA
330
1F
100
AcDbEntity
  8
0
  6
Continuous
 62
     7
100
AcDbCircle
 10
6181.5226559181
 20
4062.8842145303
 30
0.0
 40
11.50000009887751
100
AcDbArc
 50
256.9496908112
 51
283.05030069
  0
ARC
  5
EB
330
1F
100
AcDbEntity
  8
0
  6
Continuous
 62
     7
100
AcDbCircle
 10
6178.0226550649
 20
4047.784545756
 30
0.0
 40
4.000000000000569
100
AcDbArc
 50
76.9496950601
 51
256.9496950601
  0
ARC
  5
EC
330
1F
100
AcDbEntity
  8
0
  6
Continuous
 62
     7
100
AcDbCircle
 10
6181.5226559181
 20
4062.8842145303
 30
0.0
 40
19.49999914709501
100
AcDbArc
 50
346.9496944789
 51
13.0503055204
  0
ARC
  5
ED
330
1F
100
AcDbEntity
  8
0
  6
Continuous
 62
     7
100
AcDbCircle
 10
6196.6223239131
 20
4066.3842145303
 30
0.0
 40
3.999999999969318
100
AcDbArc
 50
13.0503049385
 51
193.0503049385
  0
ARC
  5
EE
330
1F
100
AcDbEntity
  8
0
  6
Continuous
 62
     7
100
AcDbCircle
 10
6181.5226559181
 20
4062.8842145303
 30
0.0
 40
11.4999991471129
100
AcDbArc
 50
346.9496940753
 51
13.0503059253
  0
ARC
  5
EF
330
1F
100
AcDbEntity
  8
0
  6
Continuous
 62
     7
100
AcDbCircle
 10
6196.6223239131
 20
4059.3842145302
 30
0.0
 40
4.000000000000466
100
AcDbArc
 50
166.9496950591
 51
346.9496950591
  0
ARC
  5
F0
330
1F
100
AcDbEntity
  8
0
  6
Continuous
 62
     7
100
AcDbCircle
 10
6181.5226559181
 20
4062.8842145303
 30
0.0
 40
19.50000135791796
100
AcDbArc
 50
76.949697566
 51
103.0503074453
  0
ARC
  5
F1
330
1F
100
AcDbEntity
  8
0
  6
Continuous
 62
     7
100
AcDbCircle
 10
6178.0226547807
 20
4077.9838845311
 30
0.0
 40
3.999999999968734
100
AcDbArc
 50
103.0503049394
 51
283.0503049394
  0
ARC
  5
F2
330
1F
100
AcDbEntity
  8
0
  6
Continuous
 62
     7
100
AcDbCircle
 10
6181.5226559181
 20
4062.8842145303
 30
0.0
 40
11.50000135798102
100
AcDbArc
 50
76.9496993092
 51
103.0503091886
  0
ARC
  5
F3
330
1F
100
AcDbEntity
  8
0
  6
Continuous
 62
     7
100
AcDbCircle
 10
6185.022655394
 20
4077.9838849163
 30
0.0
 40
3.999999999968802
100
AcDbArc
 50
256.9496950601
 51
76.9496950601
  0
ARC
  5
F4
330
1F
100
AcDbEntity
  8
0
  6
Continuous
 62
     7
100
AcDbCircle
 10
6166.4229861722
 20
4066.3842145303
 30
0.0
 40
4.000000000000913
100
AcDbArc
 50
346.9496950591
 51
90.0000274404
  0
ARC
  5
F5
330
1F
100
AcDbEntity
  8
0
  6
Continuous
 62
     7
100
AcDbCircle
 10
6166.4229861722
 20
4059.3842145302
 30
0.0
 40
3.999999999950456
100
AcDbArc
 50
269.999971981
 51
13.0503049392
  0
ARC
  5
F6
330
1F
100
AcDbEntity
  8
0
  6
Continuous
 62
     7
100
AcDbCircle
 10
6181.5226559181
 20
4062.8842145303
 30
0.0
 40
11.50000085279093
100
AcDbArc
 50
166.9496960455
 51
193.0503039553
  0
CIRCLE
  5
F7
330
1F
100
AcDbEntity
  8
0
  6
Continuous
 62
     7
100
AcDbCircle
 10
6181.5226559181
 20
4062.8842145303
 30
0.0
 40
5.682049561568419
  0
ARC
  5
F8
330
1F
100
AcDbEntity
  8
0
  6
Continuous
 62
     7
100
AcDbCircle
 10
6181.522671434
 20
4062.8842160453
 30
0.0
 40
19.49999637848295
100
AcDbArc
 50
76.9497409727
 51
90.0001415231
  0
ARC
  5
F9
330
1F
100
AcDbEntity
  8
0
  6
Continuous
 62
     7
100
AcDbCircle
 10
6181.5226559181
 20
4062.8842145303
 30
0.0
 40
19.50000009887889
100
AcDbArc
 50
269.9999917391
 51
283.0503024333
  0
ARC
  5
FA
330
1F
100
AcDbEntity
  8
0
  6
Continuous
 62
     7
100
AcDbCircle
 10
6181.5226559181
 20
4062.8842145303
 30
0.0
 40
11.50000135797423
100
AcDbArc
 50
90.0001626702
 51
103.0503091886
  0
ARC
  5
FB
330
1F
100
AcDbEntity
  8
0
  6
Continuous
 62
     7
100
AcDbCircle
 10
6181.5226559181
 20
4062.8842145303
 30
0.0
 40
11.50000009887151
100
AcDbArc
 50
256.9496908112
 51
269.9999859926
  0
ARC
  5
FC
330
1F
100
AcDbEntity
  8
0
  6
Continuous
 62
     7
100
AcDbCircle
 10
6185.022655394
 20
4077.9838849163
 30
0.0
 40
3.999999999968802
100
AcDbArc
 50
269.999971981
 51
76.9496950601
  0
ARC
  5
FD
330
1F
100
AcDbEntity
  8
0
  6
Continuous
 62
     7
100
AcDbCircle
 10
6185.0226551095
 20
4047.7845453708
 30
0.0
 40
4.000000000000913
100
AcDbArc
 50
283.0503049393
 51
90.000027439
  0
ARC
  5
FE
330
1F
100
AcDbEntity
  8
0
  6
Continuous
 62
     7
100
AcDbCircle
 10
6196.6223239131
 20
4066.3842145303
 30
0.0
 40
3.999999999992728
100
AcDbArc
 50
13.0503049385
 51
90.0000274405
  0
ARC
  5
FF
330
1F
100
AcDbEntity
  8
0
  6
Continuous
 62
     7
100
AcDbCircle
 10
6196.6223239131
 20
4059.3842145302
 30
0.0
 40
4.000000000000466
100
AcDbArc
 50
269.999971981
 51
346.9496950591
  0
ARC
  5
100
330
1F
100
AcDbEntity
  8
0
  6
Continuous
 62
     7
100
AcDbCircle
 10
6181.5226559181
 20
4062.8842145303
 30
0.0
 40
19.49999914709501
100
AcDbArc
 50
346.9496944789
 51
13.0503055204
  0
CIRCLE
  5
101
330
1F
100
AcDbEntity
  8
0
  6
Continuous
 62
     7
100
AcDbCircle
 10
6394.8235427508
 20
4124.887884283
 30
0.0
 40
2.249537382766903
  0
ARC
  5
102
330
1F
100
AcDbEntity
  8
0
  6
Continuous
 62
     7
100
AcDbCircle
 10
6394.8573718081
 20
4124.888601525
 30
0.0
 40
3.248954379603132
100
AcDbArc
 50
90.0143549106
 51
180.0184919208
  0
ARC
  5
103
330
1F
100
AcDbEntity
  8
0
  6
Continuous
 62
     7
100
AcDbCircle
 10
6394.85751592
 20
4124.8866521119
 30
0.0
 40
3.249098447202903
100
AcDbArc
 50
179.9841144418
 51
269.9831044038
  0
ARC
  5
104
330
1F
100
AcDbEntity
  8
0
  6
Continuous
 62
     7
100
AcDbCircle
 10
6051.0187354102
 20
3772.6609409031
 30
0.0
 40
2.000000000000561
100
AcDbArc
 50
190.0786581091
 51
203.5781784787
  0
ARC
  5
105
330
1F
100
AcDbEntity
  8
0
  6
Continuous
 62
     7
100
AcDbCircle
 10
6051.0187354102
 20
3772.6609409031
 30
0.0
 40
1.000000000000085
100
AcDbArc
 50
200.4873151154
 51
233.1301023544
  0
ARC
  5
106
330
1F
100
AcDbEntity
  8
0
  6
Continuous
 62
     7
100
AcDbCircle
 10
6051.0179057475
 20
3772.6609409031
 30
0.0
 40
2.000000000000607
100
AcDbArc
 50
190.0786581091
 51
203.5781784789
  0
ARC
  5
107
330
1F
100
AcDbEntity
  8
0
  6
Continuous
 62
     7
100
AcDbCircle
 10
6497.019158701
 20
3772.6614095441
 30
0.0
 40
1.000000000000764
100
AcDbArc
 50
290.4689064976
 51
317.8924760268
  0
ARC
  5
108
330
1F
100
AcDbEntity
  8
0
  6
Continuous
 62
     7
100
AcDbCircle
 10
6497.0187354084
 20
3772.6609409031
 30
0.0
 40
1.000000000000455
100
AcDbArc
 50
270.0
 51
317.9286587103
  0
ARC
  5
109
330
1F
100
AcDbEntity
  8
0
  6
Continuous
 62
     7
100
AcDbCircle
 10
6497.0187354084
 20
3772.6609409031
 30
0.0
 40
2.00000000000025
100
AcDbArc
 50
280.0821176334
 51
293.5783211103
  0
ARC
  5
10A
330
1F
100
AcDbEntity
  8
0
  6
Continuous
 62
     7
100
AcDbCircle
 10
7232.3090339175
 20
3986.580246348
 30
0.0
 40
1142.892858560793
100
AcDbArc
 50
175.549804541
 51
184.454094792
  0
ARC
  5
10B
330
1F
100
AcDbEntity
  8
0
  6
Continuous
 62
     7
100
AcDbCircle
 10
6175.5188377902
 20
3904.2609403016
 30
0.0
 40
82.90135539735724
100
AcDbArc
 50
184.4540934912
 51
266.2216176835
  0
ARC
  5
10C
330
1F
100
AcDbEntity
  8
0
  6
Continuous
 62
     7
100
AcDbCircle
 10
6176.5231015516
 20
4067.8842142766
 30
0.0
 40
83.98580246223271
100
AcDbArc
 50
94.3632816555
 51
174.9615857881
  0
ARC
  5
10D
330
1F
100
AcDbEntity
  8
0
  6
Continuous
 62
     7
100
AcDbCircle
 10
6273.9161777502
 20
5181.7052285457
 30
0.0
 40
1364.12500056751
100
AcDbArc
 50
265.6334480795
 51
274.3632827608
  0
ARC
  5
10E
330
1F
100
AcDbEntity
  8
0
  6
Continuous
 62
     7
100
AcDbCircle
 10
6273.9161683407
 20
2791.4552285457
 30
0.0
 40
1364.125000000007
100
AcDbArc
 50
90.5836950065
 51
94.3632824481
  0
ARC
  5
10F
330
1F
100
AcDbEntity
  8
0
  6
Continuous
 62
     7
100
AcDbCircle
 10
6273.9158724276
 20
2791.4552285457
 30
0.0
 40
1364.125000000006
100
AcDbArc
 50
85.8421850368
 51
89.4076100065
  0
ARC
  5
110
330
1F
100
AcDbEntity
  8
0
  6
Continuous
 62
     7
100
AcDbCircle
 10
6371.3092493889
 20
3905.2762402316
 30
0.0
 40
83.98580008511207
100
AcDbArc
 50
274.3632835697
 51
354.9615858445
  0
ARC
  5
111
330
1F
100
AcDbEntity
  8
0
  6
Continuous
 62
     7
100
AcDbCircle
 10
6371.3092675448
 20
4067.8840063927
 30
0.0
 40
83.98579962794904
100
AcDbArc
 50
5.03855165
 51
55.8379756739
  0
ARC
  5
112
330
1F
100
AcDbEntity
  8
0
  6
Continuous
 62
     7
100
AcDbCircle
 10
5315.5233196358
 20
3986.5802236744
 30
0.0
 40
1142.892854783448
100
AcDbArc
 50
355.5498037608
 51
4.4501962392
  0
ARC
  5
113
330
1F
100
AcDbEntity
  8
0
  6
Continuous
 62
     7
100
AcDbCircle
 10
6371.3089564008
 20
3905.2762431225
 30
0.0
 40
83.9858027449952
100
AcDbArc
 50
274.3632814293
 51
354.9615840247
  0
ARC
  5
114
330
1F
100
AcDbEntity
  8
0
  6
Continuous
 62
     7
100
AcDbCircle
 10
5315.5230237207
 20
3986.5802236744
 30
0.0
 40
1142.892860109774
100
AcDbArc
 50
355.5498037816
 51
4.4501962184
  0
CIRCLE
  5
115
330
1F
100
AcDbEntity
  8
0
  6
Continuous
 62
     7
100
AcDbCircle
 10
6181.5226932071
 20
4062.8842145303
 30
0.0
 40
37.50000337777237
  0
ARC
  5
116
330
1F
100
AcDbEntity
  8
0
  6
Continuous
 62
     7
100
AcDbCircle
 10
6050.6688455257
 20
4244.0609437235
 30
0.0
 40
1.649999999999973
100
AcDbArc
 50
89.9998062705
 51
180.0001937295
  0
ARC
  5
117
330
1F
100
AcDbEntity
  8
0
  6
Continuous
 62
     7
100
AcDbCircle
 10
6497.3688472746
 20
4244.0609437235
 30
0.0
 40
1.650000000000817
100
AcDbArc
 50
0.0000605162
 51
90.0001509725
  0
ARC
  5
118
330
1F
100
AcDbEntity
  8
0
  6
Continuous
 62
     7
100
AcDbCircle
 10
6394.8552728716
 20
4124.8875548043
 30
0.0
 40
3.250001252389385
100
AcDbArc
 50
270.0226528386
 51
89.9773471614
  0
ARC
  5
119
330
1F
100
AcDbEntity
  8
0
  6
Continuous
 62
     7
100
AcDbCircle
 10
6273.9158892932
 20
5181.7052285455
 30
0.0
 40
1364.125000000006
100
AcDbArc
 50
269.9999997107
 51
274.3632824485
  0
ARC
  5
11A
330
1F
100
AcDbEntity
  8
0
  6
Continuous
 62
     7
100
AcDbCircle
 10
6371.3089559392
 20
4067.8842146415
 30
0.0
 40
83.98580229012951
100
AcDbArc
 50
5.0384088698
 51
55.8377199974
  0
ARC
  5
11B
330
1F
100
AcDbEntity
  8
0
  6
Continuous
 62
     7
100
AcDbCircle
 10
6273.9158724276
 20
2791.4552285457
 30
0.0
 40
1364.125000000006
100
AcDbArc
 50
85.8421850368
 51
89.4076100065
  0
LINE
  5
11C
330
1F
100
AcDbEntity
  8
0
  6
Continuous
 62
     7
100
AcDbLine
 10
6497.6660614881
 20
5643.8708421246
 30
0.0
 11
6050.373986927
 21
5643.872078921
 31
0.0
  0
LINE
  5
11D
330
1F
100
AcDbEntity
  8
0
  6
Continuous
 62
     7
100
AcDbLine
 10
6215.5221557292
 20
4853.4592077539
 30
0.0
 11
6214.9450933608
 21
4858.4055588052
 31
0.0
  0
LINE
  5
11E
330
1F
100
AcDbEntity
  8
0
  6
Continuous
 62
     7
100
AcDbLine
 10
6148.0992442045
 20
4858.4057376192
 30
0.0
 11
6147.5221520337
 21
4853.4593865678
 31
0.0
  0
LINE
  5
11F
330
1F
100
AcDbEntity
  8
0
  6
Continuous
 62
     7
100
AcDbLine
 10
6147.5221520337
 20
4853.4593865678
 30
0.0
 11
6154.4157570276
 21
4786.1537024782
 31
0.0
  0
LINE
  5
120
330
1F
100
AcDbEntity
  8
0
  6
Continuous
 62
     7
100
AcDbLine
 10
6208.628185657
 20
4786.1535236642
 30
0.0
 11
6215.5221557292
 21
4853.4592077539
 31
0.0
  0
LINE
  5
121
330
1F
100
AcDbEntity
  8
0
  6
Continuous
 62
     7
100
AcDbLine
 10
6272.4288260612
 20
5428.9621249244
 30
0.0
 11
6272.5194847259
 21
5428.8714662597
 31
0.0
  0
LINE
  5
122
330
1F
100
AcDbEntity
  8
0
  6
Continuous
 62
     7
100
AcDbLine
 10
6275.519483355
 20
5428.8714513586
 30
0.0
 11
6275.6101420197
 21
5428.9621100233
 31
0.0
  0
LINE
  5
123
330
1F
100
AcDbEntity
  8
0
  6
Continuous
 62
     7
100
AcDbLine
 10
6264.7695025477
 20
5434.7123042152
 30
0.0
 11
6264.7694950971
 21
5434.1085985706
 31
0.0
  0
LINE
  5
124
330
1F
100
AcDbEntity
  8
0
  6
Continuous
 62
     7
100
AcDbLine
 10
6283.2694990608
 20
5434.1085538671
 30
0.0
 11
6283.2694990608
 21
5434.7122595117
 31
0.0
  0
LINE
  5
125
330
1F
100
AcDbEntity
  8
0
  6
Continuous
 62
     7
100
AcDbLine
 10
6281.5194992396
 20
5435.074476938
 30
0.0
 11
6281.5195029649
 21
5435.5006650493
 31
0.0
  0
LINE
  5
126
330
1F
100
AcDbEntity
  8
0
  6
Continuous
 62
     7
100
AcDbLine
 10
6266.5195023689
 20
5435.5007097528
 30
0.0
 11
6266.5195023689
 21
5435.0745216415
 31
0.0
  0
LINE
  5
127
330
1F
100
AcDbEntity
  8
0
  6
Continuous
 62
     7
100
AcDbLine
 10
6275.6694821688
 20
5428.9665952728
 30
0.0
 11
6275.6694821688
 21
5428.9690241621
 31
0.0
  0
LINE
  5
128
330
1F
100
AcDbEntity
  8
0
  6
Continuous
 62
     7
100
AcDbLine
 10
6398.2581203851
 20
5465.4343709753
 30
0.0
 11
6398.1046980294
 21
5469.9656352804
 31
0.0
  0
LINE
  5
129
330
1F
100
AcDbEntity
  8
0
  6
Continuous
 62
     7
100
AcDbLine
 10
6391.6084175977
 20
5469.74567924
 30
0.0
 11
6391.7618436786
 21
5465.2144149349
 31
0.0
  0
LINE
  5
12A
330
1F
100
AcDbEntity
  8
0
  6
Continuous
 62
     7
100
AcDbLine
 10
6050.6688455255
 20
5196.7560094163
 30
0.0
 11
6497.3688430938
 21
5196.7547831156
 31
0.0
  0
LINE
  5
12B
330
1F
100
AcDbEntity
  8
0
  6
Continuous
 62
     7
100
AcDbLine
 10
6497.3687386188
 20
5160.0547716425
 30
0.0
 11
6497.3688430938
 21
5196.7547831156
 31
0.0
  0
LINE
  5
12C
330
1F
100
AcDbEntity
  8
0
  6
Continuous
 62
     7
100
AcDbLine
 10
6050.2894377383
 20
5160.05602334
 30
0.0
 11
6497.3687386188
 21
5160.0547716425
 31
0.0
  0
LINE
  5
12D
330
1F
100
AcDbEntity
  8
0
  6
Continuous
 62
     7
100
AcDbLine
 10
6049.0187263164
 20
5160.05602334
 30
0.0
 11
6050.2894377383
 21
5160.05602334
 31
0.0
  0
LINE
  5
12E
330
1F
100
AcDbEntity
  8
0
  6
Continuous
 62
     7
100
AcDbLine
 10
6050.6688455255
 20
5196.7560094163
 30
0.0
 11
6049.0188455257
 21
5196.7560336397
 31
0.0
  0
LINE
  5
12F
330
1F
100
AcDbEntity
  8
0
  6
Continuous
 62
     7
100
AcDbLine
 10
6049.0188455257
 20
5196.7560336397
 30
0.0
 11
6049.0187263164
 21
5160.05602334
 31
0.0
  0
LINE
  5
130
330
1F
100
AcDbEntity
  8
0
  6
Continuous
 62
     7
100
AcDbLine
 10
6499.0188474993
 20
5196.7547819421
 30
0.0
 11
6499.0187441978
 21
5160.0547716425
 31
0.0
  0
LINE
  5
131
330
1F
100
AcDbEntity
  8
0
  6
Continuous
 62
     7
100
AcDbLine
 10
6497.8187387857
 20
5160.0547716425
 30
0.0
 11
6499.0187441978
 21
5160.0547716425
 31
0.0
  0
LINE
  5
132
330
1F
100
AcDbEntity
  8
0
  6
Continuous
 62
     7
100
AcDbLine
 10
6497.8188430938
 20
5196.7547819421
 30
0.0
 11
6497.8187387857
 21
5160.0547716425
 31
0.0
  0
LINE
  5
133
330
1F
100
AcDbEntity
  8
0
  6
Continuous
 62
     7
100
AcDbLine
 10
6499.0188474993
 20
5196.7547819421
 30
0.0
 11
6497.8188430938
 21
5196.7547819421
 31
0.0
  0
LINE
  5
134
330
1F
100
AcDbEntity
  8
0
  6
Continuous
 62
     7
100
AcDbLine
 10
6050.6688511047
 20
5198.4060094163
 30
0.0
 11
6050.6688455255
 21
5196.7560094163
 31
0.0
  0
LINE
  5
135
330
1F
100
AcDbEntity
  8
0
  6
Continuous
 62
     7
100
AcDbLine
 10
6050.6688511047
 20
5198.4060094163
 30
0.0
 11
6497.3688429269
 21
5198.4047875211
 31
0.0
  0
LINE
  5
136
330
1F
100
AcDbEntity
  8
0
  6
Continuous
 62
     7
100
AcDbLine
 10
6497.3688430938
 20
5196.7547831156
 30
0.0
 11
6497.3688429269
 21
5198.4047875211
 31
0.0
  0
LINE
  5
137
330
1F
100
AcDbEntity
  8
0
  6
Continuous
 62
     7
100
AcDbLine
 10
6497.3687386188
 20
5158.4252700613
 30
0.0
 11
6497.3687386188
 21
5160.0547716425
 31
0.0
  0
LINE
  5
138
330
1F
100
AcDbEntity
  8
0
  6
Continuous
 62
     7
100
AcDbLine
 10
6497.3687386188
 20
5158.4252700613
 30
0.0
 11
6497.3687386188
 21
5158.4047958658
 31
0.0
  0
LINE
  5
139
330
1F
100
AcDbEntity
  8
0
  6
Continuous
 62
     7
100
AcDbLine
 10
6050.4094516906
 20
5158.4265217588
 30
0.0
 11
6050.4641389522
 21
5158.7701425359
 31
0.0
  0
LINE
  5
13A
330
1F
100
AcDbEntity
  8
0
  6
Continuous
 62
     7
100
AcDbLine
 10
6050.6688511047
 20
5198.8560244844
 30
0.0
 11
6497.3688429269
 21
5198.8547727869
 31
0.0
  0
LINE
  5
13B
330
1F
100
AcDbEntity
  8
0
  6
Continuous
 62
     7
100
AcDbLine
 10
6497.3688429269
 20
5198.8547727869
 30
0.0
 11
6497.3688429269
 21
5198.4047875211
 31
0.0
  0
LINE
  5
13C
330
1F
100
AcDbEntity
  8
0
  6
Continuous
 62
     7
100
AcDbLine
 10
6050.6688511047
 20
5198.8560244844
 30
0.0
 11
6050.6688511047
 21
5198.4060094163
 31
0.0
  0
LINE
  5
13D
330
1F
100
AcDbEntity
  8
0
  6
Continuous
 62
     7
100
AcDbLine
 10
6497.7493291768
 20
5627.4723014266
 30
0.0
 11
6497.7493291768
 21
5628.5999323644
 31
0.0
  0
LINE
  5
13E
330
1F
100
AcDbEntity
  8
0
  6
Continuous
 62
     7
100
AcDbLine
 10
6050.2907490405
 20
5627.4735386886
 30
0.0
 11
6050.2907490405
 21
5628.6011700921
 31
0.0
  0
LINE
  5
13F
330
1F
100
AcDbEntity
  8
0
  6
Continuous
 62
     7
100
AcDbLine
 10
6050.2200281295
 20
5627.1216566146
 30
0.0
 11
6050.2200281295
 21
5627.1571460583
 31
0.0
  0
LINE
  5
140
330
1F
100
AcDbEntity
  8
0
  6
Continuous
 62
     7
100
AcDbLine
 10
6050.6700431976
 20
5627.0506758646
 30
0.0
 11
6050.2200281295
 21
5627.1571460583
 31
0.0
  0
LINE
  5
141
330
1F
100
AcDbEntity
  8
0
  6
Continuous
 62
     7
100
AcDbLine
 10
6050.6700431976
 20
5627.0506758646
 30
0.0
 11
6050.2200281295
 21
5627.1216566146
 31
0.0
  0
LINE
  5
142
330
1F
100
AcDbEntity
  8
0
  6
Continuous
 62
     7
100
AcDbLine
 10
6497.8200351867
 20
5627.1559083306
 30
0.0
 11
6497.8200351867
 21
5627.1204184212
 31
0.0
  0
LINE
  5
143
330
1F
100
AcDbEntity
  8
0
  6
Continuous
 62
     7
100
AcDbLine
 10
6497.8200351867
 20
5627.1204184212
 30
0.0
 11
6497.3700350198
 21
5627.0494404652
 31
0.0
  0
LINE
  5
144
330
1F
100
AcDbEntity
  8
0
  6
Continuous
 62
     7
100
AcDbLine
 10
6497.3700350198
 20
5627.0494404652
 30
0.0
 11
6497.8200351867
 21
5627.1559083306
 31
0.0
  0
LINE
  5
145
330
1F
100
AcDbEntity
  8
0
  6
Continuous
 62
     7
100
AcDbLine
 10
6049.0200376186
 20
5627.4543119997
 30
0.0
 11
6049.0188455257
 21
5198.8560244844
 31
0.0
  0
LINE
  5
146
330
1F
100
AcDbEntity
  8
0
  6
Continuous
 62
     7
100
AcDbLine
 10
6049.0418827209
 20
5627.4124355458
 30
0.0
 11
6049.0200376186
 21
5627.4543119997
 31
0.0
  0
LINE
  5
147
330
1F
100
AcDbEntity
  8
0
  6
Continuous
 62
     7
100
AcDbLine
 10
6049.0418827209
 20
5627.4124355458
 30
0.0
 11
6049.0605985793
 21
5627.3972168036
 31
0.0
  0
LINE
  5
148
330
1F
100
AcDbEntity
  8
0
  6
Continuous
 62
     7
100
AcDbLine
 10
6050.6700431976
 20
5627.0506758646
 30
0.0
 11
6050.6688511047
 21
5198.8560244844
 31
0.0
  0
LINE
  5
149
330
1F
100
AcDbEntity
  8
0
  6
Continuous
 62
     7
100
AcDbLine
 10
6050.2188360366
 20
5198.8560244844
 30
0.0
 11
6050.6688511047
 21
5198.8560244844
 31
0.0
  0
LINE
  5
14A
330
1F
100
AcDbEntity
  8
0
  6
Continuous
 62
     7
100
AcDbLine
 10
6499.0188474993
 20
5198.8547727869
 30
0.0
 11
6499.020024691
 21
5627.4530672871
 31
0.0
  0
LINE
  5
14B
330
1F
100
AcDbEntity
  8
0
  6
Continuous
 62
     7
100
AcDbLine
 10
6497.3688429269
 20
5198.8547727869
 30
0.0
 11
6497.8188430938
 21
5198.8547727869
 31
0.0
  0
LINE
  5
14C
330
1F
100
AcDbEntity
  8
0
  6
Continuous
 62
     7
100
AcDbLine
 10
6497.3688429269
 20
5198.8547727869
 30
0.0
 11
6497.3700350198
 21
5627.0494404652
 31
0.0
  0
LINE
  5
14D
330
1F
100
AcDbEntity
  8
0
  6
Continuous
 62
     7
100
AcDbLine
 10
6498.9981805953
 20
5627.4112043374
 30
0.0
 11
6498.9794647369
 21
5627.3959618465
 31
0.0
  0
LINE
  5
14E
330
1F
100
AcDbEntity
  8
0
  6
Continuous
 62
     7
100
AcDbLine
 10
6499.020024691
 20
5627.4530672871
 30
0.0
 11
6498.9981805953
 21
5627.4112043374
 31
0.0
  0
LINE
  5
14F
330
1F
100
AcDbEntity
  8
0
  6
Continuous
 62
     7
100
AcDbLine
 10
6497.3700350198
 20
5627.0494404652
 30
0.0
 11
6050.6700431976
 21
5627.0506758646
 31
0.0
  0
LINE
  5
150
330
1F
100
AcDbEntity
  8
0
  6
Continuous
 62
     7
100
AcDbLine
 10
6497.7493291768
 20
5628.5999323644
 30
0.0
 11
6050.2907490405
 21
5628.6011700921
 31
0.0
  0
LINE
  5
151
330
1F
100
AcDbEntity
  8
0
  6
Continuous
 62
     7
100
AcDbLine
 10
6050.2200281295
 20
5627.1571460583
 30
0.0
 11
6050.2200281295
 21
5627.2698318989
 31
0.0
  0
LINE
  5
152
330
1F
100
AcDbEntity
  8
0
  6
Continuous
 62
     7
100
AcDbLine
 10
6049.0418827209
 20
5627.4124355458
 30
0.0
 11
6050.2200281295
 21
5627.2698318989
 31
0.0
  0
LINE
  5
153
330
1F
100
AcDbEntity
  8
0
  6
Continuous
 62
     7
100
AcDbLine
 10
6497.8200351867
 20
5627.1559083306
 30
0.0
 11
6497.8200351867
 21
5627.2685941712
 31
0.0
  0
LINE
  5
154
330
1F
100
AcDbEntity
  8
0
  6
Continuous
 62
     7
100
AcDbLine
 10
6498.9981805953
 20
5627.4112043374
 30
0.0
 11
6497.8200202855
 21
5627.2686328211
 31
0.0
  0
LINE
  5
155
330
1F
100
AcDbEntity
  8
0
  6
Continuous
 62
     7
100
AcDbLine
 10
6497.8200351867
 20
5627.2685941712
 30
0.0
 11
6497.3700350198
 21
5627.0494404652
 31
0.0
  0
LINE
  5
156
330
1F
100
AcDbEntity
  8
0
  6
Continuous
 62
     7
100
AcDbLine
 10
6050.2200281295
 20
5627.2698318989
 30
0.0
 11
6050.6700431976
 21
5627.0506758646
 31
0.0
  0
LINE
  5
157
330
1F
100
AcDbEntity
  8
0
  6
Continuous
 62
     7
100
AcDbLine
 10
6050.2200281295
 20
5627.4543087401
 30
0.0
 11
6049.0200376186
 21
5627.4543119997
 31
0.0
  0
LINE
  5
158
330
1F
100
AcDbEntity
  8
0
  6
Continuous
 62
     7
100
AcDbLine
 10
6050.2200281295
 20
5627.2698318989
 30
0.0
 11
6050.2200281295
 21
5627.4543087401
 31
0.0
  0
LINE
  5
159
330
1F
100
AcDbEntity
  8
0
  6
Continuous
 62
     7
100
AcDbLine
 10
6497.8200202855
 20
5627.2686328211
 30
0.0
 11
6497.8200351867
 21
5627.4530705468
 31
0.0
  0
LINE
  5
15A
330
1F
100
AcDbEntity
  8
0
  6
Continuous
 62
     7
100
AcDbLine
 10
6497.8200351867
 20
5627.4530705468
 30
0.0
 11
6499.020024691
 21
5627.4530672871
 31
0.0
  0
LINE
  5
15B
330
1F
100
AcDbEntity
  8
0
  6
Continuous
 62
     7
100
AcDbLine
 10
6497.7493738803
 20
5643.7713340328
 30
0.0
 11
6050.2907788429
 21
5643.7725726918
 31
0.0
  0
LINE
  5
15C
330
1F
100
AcDbEntity
  8
0
  6
Continuous
 62
     7
100
AcDbLine
 10
6497.7493291768
 20
5628.5999323644
 30
0.0
 11
6497.7493738803
 21
5643.7713340328
 31
0.0
  0
LINE
  5
15D
330
1F
100
AcDbEntity
  8
0
  6
Continuous
 62
     7
100
AcDbLine
 10
6050.2907788429
 20
5643.7725726918
 30
0.0
 11
6050.2907490405
 21
5628.6011700921
 31
0.0
  0
LINE
  5
15E
330
1F
100
AcDbEntity
  8
0
  6
Continuous
 62
     7
100
AcDbLine
 10
6049.0200674209
 20
5642.631870176
 30
0.0
 11
6050.2200877342
 21
5642.6318664507
 31
0.0
  0
LINE
  5
15F
330
1F
100
AcDbEntity
  8
0
  6
Continuous
 62
     7
100
AcDbLine
 10
6050.2200877342
 20
5642.6318664507
 30
0.0
 11
6050.2200281295
 21
5627.4543087401
 31
0.0
  0
LINE
  5
160
330
1F
100
AcDbEntity
  8
0
  6
Continuous
 62
     7
100
AcDbLine
 10
6049.0200674209
 20
5642.631870176
 30
0.0
 11
6049.0200376186
 21
5627.4543119997
 31
0.0
  0
LINE
  5
161
330
1F
100
AcDbEntity
  8
0
  6
Continuous
 62
     7
100
AcDbLine
 10
6497.8200798902
 20
5642.6306296543
 30
0.0
 11
6497.8200351867
 21
5627.4530705468
 31
0.0
  0
LINE
  5
162
330
1F
100
AcDbEntity
  8
0
  6
Continuous
 62
     7
100
AcDbLine
 10
6499.0200693945
 20
5642.630625929
 30
0.0
 11
6497.8200798902
 21
5642.6306296543
 31
0.0
  0
LINE
  5
163
330
1F
100
AcDbEntity
  8
0
  6
Continuous
 62
     7
100
AcDbLine
 10
6499.0200693945
 20
5642.630625929
 30
0.0
 11
6499.020024691
 21
5627.4530672871
 31
0.0
  0
LINE
  5
164
330
1F
100
AcDbEntity
  8
0
  6
Continuous
 62
     7
100
AcDbLine
 10
6497.7493738803
 20
5643.7713340328
 30
0.0
 11
6497.6660614881
 21
5643.855313252
 31
0.0
  0
LINE
  5
165
330
1F
100
AcDbEntity
  8
0
  6
Continuous
 62
     7
100
AcDbLine
 10
6050.2907788429
 20
5642.1571322188
 30
0.0
 11
6050.2200877342
 21
5642.1571322188
 31
0.0
  0
LINE
  5
166
330
1F
100
AcDbEntity
  8
0
  6
Continuous
 62
     7
100
AcDbLine
 10
6497.8200798902
 20
5642.1558954225
 30
0.0
 11
6497.7493589792
 21
5642.1558954225
 31
0.0
  0
LINE
  5
167
330
1F
100
AcDbEntity
  8
0
  6
Continuous
 62
     7
100
AcDbLine
 10
6147.5221520337
 20
4853.4593865678
 30
0.0
 11
6147.6235693368
 21
4853.4593865678
 31
0.0
  0
LINE
  5
168
330
1F
100
AcDbEntity
  8
0
  6
Continuous
 62
     7
100
AcDbLine
 10
6147.6235693368
 20
4853.4593865678
 30
0.0
 11
6148.0730330619
 21
4853.4593865678
 31
0.0
  0
LINE
  5
169
330
1F
100
AcDbEntity
  8
0
  6
Continuous
 62
     7
100
AcDbLine
 10
6148.0730330619
 20
4853.4593865678
 30
0.0
 11
6148.8770550164
 21
4853.4593865678
 31
0.0
  0
LINE
  5
16A
330
1F
100
AcDbEntity
  8
0
  6
Continuous
 62
     7
100
AcDbLine
 10
6148.8770550164
 20
4853.4593865678
 30
0.0
 11
6150.0271415385
 21
4853.4593865678
 31
0.0
  0
LINE
  5
16B
330
1F
100
AcDbEntity
  8
0
  6
Continuous
 62
     7
100
AcDbLine
 10
6150.0271415385
 20
4853.4593865678
 30
0.0
 11
6151.511073676
 21
4853.4593865678
 31
0.0
  0
LINE
  5
16C
330
1F
100
AcDbEntity
  8
0
  6
Continuous
 62
     7
100
AcDbLine
 10
6151.511073676
 20
4853.4593865678
 30
0.0
 11
6153.313145605
 21
4853.4593865678
 31
0.0
  0
LINE
  5
16D
330
1F
100
AcDbEntity
  8
0
  6
Continuous
 62
     7
100
AcDbLine
 10
6153.313145605
 20
4853.4593865678
 30
0.0
 11
6155.4142242345
 21
4853.4593865678
 31
0.0
  0
LINE
  5
16E
330
1F
100
AcDbEntity
  8
0
  6
Continuous
 62
     7
100
AcDbLine
 10
6155.4142242345
 20
4853.4593865678
 30
0.0
 11
6157.7920621309
 21
4853.4593865678
 31
0.0
  0
LINE
  5
16F
330
1F
100
AcDbEntity
  8
0
  6
Continuous
 62
     7
100
AcDbLine
 10
6157.7920621309
 20
4853.4593865678
 30
0.0
 11
6160.4214316282
 21
4853.4593269632
 31
0.0
  0
LINE
  5
170
330
1F
100
AcDbEntity
  8
0
  6
Continuous
 62
     7
100
AcDbLine
 10
6160.4214316282
 20
4853.4593269632
 30
0.0
 11
6163.2744824561
 21
4853.4593269632
 31
0.0
  0
LINE
  5
171
330
1F
100
AcDbEntity
  8
0
  6
Continuous
 62
     7
100
AcDbLine
 10
6163.2744824561
 20
4853.4593269632
 30
0.0
 11
6166.3209652576
 21
4853.4593269632
 31
0.0
  0
LINE
  5
172
330
1F
100
AcDbEntity
  8
0
  6
Continuous
 62
     7
100
AcDbLine
 10
6166.3209652576
 20
4853.4593269632
 30
0.0
 11
6169.5285892162
 21
4853.4593269632
 31
0.0
  0
LINE
  5
173
330
1F
100
AcDbEntity
  8
0
  6
Continuous
 62
     7
100
AcDbLine
 10
6169.5285892162
 20
4853.4593269632
 30
0.0
 11
6172.8633349809
 21
4853.4593269632
 31
0.0
  0
LINE
  5
174
330
1F
100
AcDbEntity
  8
0
  6
Continuous
 62
     7
100
AcDbLine
 10
6172.8633349809
 20
4853.4593269632
 30
0.0
 11
6176.2898718986
 21
4853.4593269632
 31
0.0
  0
LINE
  5
175
330
1F
100
AcDbEntity
  8
0
  6
Continuous
 62
     7
100
AcDbLine
 10
6176.2898718986
 20
4853.4593269632
 30
0.0
 11
6179.7718858394
 21
4853.4593269632
 31
0.0
  0
LINE
  5
176
330
1F
100
AcDbEntity
  8
0
  6
Continuous
 62
     7
100
AcDbLine
 10
6179.7718858394
 20
4853.4593269632
 30
0.0
 11
6183.2724368247
 21
4853.4592673585
 31
0.0
  0
LINE
  5
177
330
1F
100
AcDbEntity
  8
0
  6
Continuous
 62
     7
100
AcDbLine
 10
6183.2724368247
 20
4853.4592673585
 30
0.0
 11
6186.7544358644
 21
4853.4592673585
 31
0.0
  0
LINE
  5
178
330
1F
100
AcDbEntity
  8
0
  6
Continuous
 62
     7
100
AcDbLine
 10
6186.7544358644
 20
4853.4592673585
 30
0.0
 11
6190.1809727821
 21
4853.4592673585
 31
0.0
  0
LINE
  5
179
330
1F
100
AcDbEntity
  8
0
  6
Continuous
 62
     7
100
AcDbLine
 10
6190.1809727821
 20
4853.4592673585
 30
0.0
 11
6193.515733448
 21
4853.4592673585
 31
0.0
  0
LINE
  5
17A
330
1F
100
AcDbEntity
  8
0
  6
Continuous
 62
     7
100
AcDbLine
 10
6193.515733448
 20
4853.4592673585
 30
0.0
 11
6196.7233425054
 21
4853.4592673585
 31
0.0
  0
LINE
  5
17B
330
1F
100
AcDbEntity
  8
0
  6
Continuous
 62
     7
100
AcDbLine
 10
6196.7233425054
 20
4853.4592673585
 30
0.0
 11
6199.7698253068
 21
4853.4592673585
 31
0.0
  0
LINE
  5
17C
330
1F
100
AcDbEntity
  8
0
  6
Continuous
 62
     7
100
AcDbLine
 10
6199.7698253068
 20
4853.4592673585
 30
0.0
 11
6202.6228761348
 21
4853.4592077539
 31
0.0
  0
LINE
  5
17D
330
1F
100
AcDbEntity
  8
0
  6
Continuous
 62
     7
100
AcDbLine
 10
6202.6228761348
 20
4853.4592077539
 30
0.0
 11
6205.2522605333
 21
4853.4592077539
 31
0.0
  0
LINE
  5
17E
330
1F
100
AcDbEntity
  8
0
  6
Continuous
 62
     7
100
AcDbLine
 10
6205.2522605333
 20
4853.4592077539
 30
0.0
 11
6207.630090979
 21
4853.4592077539
 31
0.0
  0
LINE
  5
17F
330
1F
100
AcDbEntity
  8
0
  6
Continuous
 62
     7
100
AcDbLine
 10
6207.630090979
 20
4853.4592077539
 30
0.0
 11
6209.7311770591
 21
4853.4592077539
 31
0.0
  0
LINE
  5
180
330
1F
100
AcDbEntity
  8
0
  6
Continuous
 62
     7
100
AcDbLine
 10
6209.7311770591
 20
4853.4592077539
 30
0.0
 11
6211.5332340869
 21
4853.4592077539
 31
0.0
  0
LINE
  5
181
330
1F
100
AcDbEntity
  8
0
  6
Continuous
 62
     7
100
AcDbLine
 10
6211.5332340869
 20
4853.4592077539
 30
0.0
 11
6213.017173675
 21
4853.4592077539
 31
0.0
  0
LINE
  5
182
330
1F
100
AcDbEntity
  8
0
  6
Continuous
 62
     7
100
AcDbLine
 10
6213.017173675
 20
4853.4592077539
 30
0.0
 11
6214.1672527465
 21
4853.4592077539
 31
0.0
  0
LINE
  5
183
330
1F
100
AcDbEntity
  8
0
  6
Continuous
 62
     7
100
AcDbLine
 10
6214.1672527465
 20
4853.4592077539
 30
0.0
 11
6214.9712896022
 21
4853.4592077539
 31
0.0
  0
LINE
  5
184
330
1F
100
AcDbEntity
  8
0
  6
Continuous
 62
     7
100
AcDbLine
 10
6214.9712896022
 20
4853.4592077539
 30
0.0
 11
6215.4207533273
 21
4853.4592077539
 31
0.0
  0
LINE
  5
185
330
1F
100
AcDbEntity
  8
0
  6
Continuous
 62
     7
100
AcDbLine
 10
6215.4207533273
 20
4853.4592077539
 30
0.0
 11
6215.5221557292
 21
4853.4592077539
 31
0.0
  0
LINE
  5
186
330
1F
100
AcDbEntity
  8
0
  6
Continuous
 62
     7
100
AcDbLine
 10
6157.4001317891
 20
4783.4593341157
 30
0.0
 11
6157.5760101947
 21
4783.4593341157
 31
0.0
  0
LINE
  5
187
330
1F
100
AcDbEntity
  8
0
  6
Continuous
 62
     7
100
AcDbLine
 10
6157.5760101947
 20
4783.4593341157
 30
0.0
 11
6158.1010675105
 21
4783.4593341157
 31
0.0
  0
LINE
  5
188
330
1F
100
AcDbEntity
  8
0
  6
Continuous
 62
     7
100
AcDbLine
 10
6158.1010675105
 20
4783.4593341157
 30
0.0
 11
6158.9676594409
 21
4783.4593341157
 31
0.0
  0
LINE
  5
189
330
1F
100
AcDbEntity
  8
0
  6
Continuous
 62
     7
100
AcDbLine
 10
6158.9676594409
 20
4783.4593341157
 30
0.0
 11
6160.1631498012
 21
4783.4593341157
 31
0.0
  0
LINE
  5
18A
330
1F
100
AcDbEntity
  8
0
  6
Continuous
 62
     7
100
AcDbLine
 10
6160.1631498012
 20
4783.4593341157
 30
0.0
 11
6161.6700893316
 21
4783.4593341157
 31
0.0
  0
LINE
  5
18B
330
1F
100
AcDbEntity
  8
0
  6
Continuous
 62
     7
100
AcDbLine
 10
6161.6700893316
 20
4783.4593341157
 30
0.0
 11
6163.4665137204
 21
4783.4593341157
 31
0.0
  0
LINE
  5
18C
330
1F
100
AcDbEntity
  8
0
  6
Continuous
 62
     7
100
AcDbLine
 10
6163.4665137204
 20
4783.4593341157
 30
0.0
 11
6165.5262267265
 21
4783.4593341157
 31
0.0
  0
LINE
  5
18D
330
1F
100
AcDbEntity
  8
0
  6
Continuous
 62
     7
100
AcDbLine
 10
6165.5262267265
 20
4783.4593341157
 30
0.0
 11
6167.8192025098
 21
4783.4593341157
 31
0.0
  0
LINE
  5
18E
330
1F
100
AcDbEntity
  8
0
  6
Continuous
 62
     7
100
AcDbLine
 10
6167.8192025098
 20
4783.4593341157
 30
0.0
 11
6170.3119879636
 21
4783.4593341157
 31
0.0
  0
LINE
  5
18F
330
1F
100
AcDbEntity
  8
0
  6
Continuous
 62
     7
100
AcDbLine
 10
6170.3119879636
 20
4783.4593341157
 30
0.0
 11
6172.9682391557
 21
4783.4593341157
 31
0.0
  0
LINE
  5
190
330
1F
100
AcDbEntity
  8
0
  6
Continuous
 62
     7
100
AcDbLine
 10
6172.9682391557
 20
4783.4593341157
 30
0.0
 11
6175.7492279681
 21
4783.4593341157
 31
0.0
  0
LINE
  5
191
330
1F
100
AcDbEntity
  8
0
  6
Continuous
 62
     7
100
AcDbLine
 10
6175.7492279681
 20
4783.4593341157
 30
0.0
 11
6178.6143934402
 21
4783.4592745111
 31
0.0
  0
LINE
  5
192
330
1F
100
AcDbEntity
  8
0
  6
Continuous
 62
     7
100
AcDbLine
 10
6178.6143934402
 20
4783.4592745111
 30
0.0
 11
6181.521967617
 21
4783.4592745111
 31
0.0
  0
LINE
  5
193
330
1F
100
AcDbEntity
  8
0
  6
Continuous
 62
     7
100
AcDbLine
 10
6181.521967617
 20
4783.4592745111
 30
0.0
 11
6184.4295268926
 21
4783.4592745111
 31
0.0
  0
LINE
  5
194
330
1F
100
AcDbEntity
  8
0
  6
Continuous
 62
     7
100
AcDbLine
 10
6184.4295268926
 20
4783.4592745111
 30
0.0
 11
6187.2946923646
 21
4783.4592745111
 31
0.0
  0
LINE
  5
195
330
1F
100
AcDbEntity
  8
0
  6
Continuous
 62
     7
100
AcDbLine
 10
6187.2946923646
 20
4783.4592745111
 30
0.0
 11
6190.0756811771
 21
4783.4592745111
 31
0.0
  0
LINE
  5
196
330
1F
100
AcDbEntity
  8
0
  6
Continuous
 62
     7
100
AcDbLine
 10
6190.0756811771
 20
4783.4592745111
 30
0.0
 11
6192.7319323692
 21
4783.4592745111
 31
0.0
  0
LINE
  5
197
330
1F
100
AcDbEntity
  8
0
  6
Continuous
 62
     7
100
AcDbLine
 10
6192.7319323692
 20
4783.4592745111
 30
0.0
 11
6195.224717823
 21
4783.4592745111
 31
0.0
  0
LINE
  5
198
330
1F
100
AcDbEntity
  8
0
  6
Continuous
 62
     7
100
AcDbLine
 10
6195.224717823
 20
4783.4592745111
 30
0.0
 11
6197.5176936063
 21
4783.4592745111
 31
0.0
  0
LINE
  5
199
330
1F
100
AcDbEntity
  8
0
  6
Continuous
 62
     7
100
AcDbLine
 10
6197.5176936063
 20
4783.4592745111
 30
0.0
 11
6199.5774066123
 21
4783.4592149065
 31
0.0
  0
LINE
  5
19A
330
1F
100
AcDbEntity
  8
0
  6
Continuous
 62
     7
100
AcDbLine
 10
6199.5774066123
 20
4783.4592149065
 30
0.0
 11
6201.3738459024
 21
4783.4592149065
 31
0.0
  0
LINE
  5
19B
330
1F
100
AcDbEntity
  8
0
  6
Continuous
 62
     7
100
AcDbLine
 10
6201.3738459024
 20
4783.4592149065
 30
0.0
 11
6202.8807854327
 21
4783.4592149065
 31
0.0
  0
LINE
  5
19C
330
1F
100
AcDbEntity
  8
0
  6
Continuous
 62
     7
100
AcDbLine
 10
6202.8807854327
 20
4783.4592149065
 30
0.0
 11
6204.0762608918
 21
4783.4592149065
 31
0.0
  0
LINE
  5
19D
330
1F
100
AcDbEntity
  8
0
  6
Continuous
 62
     7
100
AcDbLine
 10
6204.0762608918
 20
4783.4592149065
 30
0.0
 11
6204.9428528222
 21
4783.4592149065
 31
0.0
  0
LINE
  5
19E
330
1F
100
AcDbEntity
  8
0
  6
Continuous
 62
     7
100
AcDbLine
 10
6204.9428528222
 20
4783.4592149065
 30
0.0
 11
6205.4679101381
 21
4783.4592149065
 31
0.0
  0
LINE
  5
19F
330
1F
100
AcDbEntity
  8
0
  6
Continuous
 62
     7
100
AcDbLine
 10
6205.4679101381
 20
4783.4592149065
 30
0.0
 11
6205.6437885436
 21
4783.4592149065
 31
0.0
  0
LINE
  5
1A0
330
1F
100
AcDbEntity
  8
0
  6
Continuous
 62
     7
100
AcDbLine
 10
6274.0194840404
 20
5428.8714662597
 30
0.0
 11
6272.5194847259
 21
5428.8714662597
 31
0.0
  0
LINE
  5
1A1
330
1F
100
AcDbEntity
  8
0
  6
Continuous
 62
     7
100
AcDbLine
 10
6275.519483355
 20
5428.8714513586
 30
0.0
 11
6275.4053032073
 21
5428.8714513586
 31
0.0
  0
LINE
  5
1A2
330
1F
100
AcDbEntity
  8
0
  6
Continuous
 62
     7
100
AcDbLine
 10
6275.4053032073
 20
5428.8714513586
 30
0.0
 11
6275.0801449689
 21
5428.8714513586
 31
0.0
  0
LINE
  5
1A3
330
1F
100
AcDbEntity
  8
0
  6
Continuous
 62
     7
100
AcDbLine
 10
6275.0801449689
 20
5428.8714513586
 30
0.0
 11
6274.5935102972
 21
5428.8714662597
 31
0.0
  0
LINE
  5
1A4
330
1F
100
AcDbEntity
  8
0
  6
Continuous
 62
     7
100
AcDbLine
 10
6274.5935102972
 20
5428.8714662597
 30
0.0
 11
6274.0194840404
 21
5428.8714662597
 31
0.0
  0
LINE
  5
1A5
330
1F
100
AcDbEntity
  8
0
  6
Continuous
 62
     7
100
AcDbLine
 10
6275.5195057067
 20
5436.6347477243
 30
0.0
 11
6275.5195057067
 21
5436.4709690616
 31
0.0
  0
LINE
  5
1A6
330
1F
100
AcDbEntity
  8
0
  6
Continuous
 62
     7
100
AcDbLine
 10
6272.5195033523
 20
5436.6347626255
 30
0.0
 11
6272.5195033523
 21
5436.4709690616
 31
0.0
  0
LINE
  5
1A7
330
1F
100
AcDbEntity
  8
0
  6
Continuous
 62
     7
100
AcDbLine
 10
6268.6259975704
 20
5436.2495378063
 30
0.0
 11
6268.6259975704
 21
5436.0535726354
 31
0.0
  0
LINE
  5
1A8
330
1F
100
AcDbEntity
  8
0
  6
Continuous
 62
     7
100
AcDbLine
 10
6266.5046757135
 20
5435.7667252824
 30
0.0
 11
6266.5046757135
 21
5435.5045393512
 31
0.0
  0
LINE
  5
1A9
330
1F
100
AcDbEntity
  8
0
  6
Continuous
 62
     7
100
AcDbLine
 10
6264.891930488
 20
5435.0840136812
 30
0.0
 11
6264.891930488
 21
5434.4968334243
 31
0.0
  0
LINE
  5
1AA
330
1F
100
AcDbEntity
  8
0
  6
Continuous
 62
     7
100
AcDbLine
 10
6266.5046682629
 20
5433.6785808609
 30
0.0
 11
6266.5046682629
 21
5432.71265779
 31
0.0
  0
LINE
  5
1AB
330
1F
100
AcDbEntity
  8
0
  6
Continuous
 62
     7
100
AcDbLine
 10
6281.5343221697
 20
5433.6785361574
 30
0.0
 11
6281.5343184444
 21
5432.7126130865
 31
0.0
  0
LINE
  5
1AC
330
1F
100
AcDbEntity
  8
0
  6
Continuous
 62
     7
100
AcDbLine
 10
6283.1470673951
 20
5435.0839689777
 30
0.0
 11
6283.1470673951
 21
5434.4967738197
 31
0.0
  0
LINE
  5
1AD
330
1F
100
AcDbEntity
  8
0
  6
Continuous
 62
     7
100
AcDbLine
 10
6281.5343296203
 20
5435.766680579
 30
0.0
 11
6281.534325895
 21
5435.5044946477
 31
0.0
  0
LINE
  5
1AE
330
1F
100
AcDbEntity
  8
0
  6
Continuous
 62
     7
100
AcDbLine
 10
6279.4130077633
 20
5436.249508004
 30
0.0
 11
6279.4130077633
 21
5436.0535428331
 31
0.0
  0
LINE
  5
1AF
330
1F
100
AcDbEntity
  8
0
  6
Continuous
 62
     7
100
AcDbLine
 10
6272.5195033523
 20
5436.4709690616
 30
0.0
 11
6272.5195033523
 21
5436.3397196338
 31
0.0
  0
LINE
  5
1B0
330
1F
100
AcDbEntity
  8
0
  6
Continuous
 62
     7
100
AcDbLine
 10
6275.5195057067
 20
5436.4709690616
 30
0.0
 11
6275.5195057067
 21
5436.3397196338
 31
0.0
  0
LINE
  5
1B1
330
1F
100
AcDbEntity
  8
0
  6
Continuous
 62
     7
100
AcDbLine
 10
6282.2695007595
 20
5435.074476938
 30
0.0
 11
6282.0892153355
 21
5434.6305415437
 31
0.0
  0
LINE
  5
1B2
330
1F
100
AcDbEntity
  8
0
  6
Continuous
 62
     7
100
AcDbLine
 10
6282.0892153355
 20
5434.6305415437
 30
0.0
 11
6281.5562492284
 21
5434.2059925602
 31
0.0
  0
LINE
  5
1B3
330
1F
100
AcDbEntity
  8
0
  6
Continuous
 62
     7
100
AcDbLine
 10
6281.5562492284
 20
5434.2059925602
 30
0.0
 11
6280.6938855025
 21
5433.8194117353
 31
0.0
  0
LINE
  5
1B4
330
1F
100
AcDbEntity
  8
0
  6
Continuous
 62
     7
100
AcDbLine
 10
6280.6938855025
 20
5433.8194117353
 30
0.0
 11
6279.5398240957
 21
5433.4876820848
 31
0.0
  0
LINE
  5
1B5
330
1F
100
AcDbEntity
  8
0
  6
Continuous
 62
     7
100
AcDbLine
 10
6279.5398240957
 20
5433.4876820848
 30
0.0
 11
6278.1444942626
 21
5433.2253024385
 31
0.0
  0
LINE
  5
1B6
330
1F
100
AcDbEntity
  8
0
  6
Continuous
 62
     7
100
AcDbLine
 10
6278.1444942626
 20
5433.2253024385
 30
0.0
 11
6276.5688864562
 21
5433.0437466905
 31
0.0
  0
LINE
  5
1B7
330
1F
100
AcDbEntity
  8
0
  6
Continuous
 62
     7
100
AcDbLine
 10
6276.5688864562
 20
5433.0437466905
 30
0.0
 11
6274.8818552169
 21
5432.9509422586
 31
0.0
  0
LINE
  5
1B8
330
1F
100
AcDbEntity
  8
0
  6
Continuous
 62
     7
100
AcDbLine
 10
6274.8818552169
 20
5432.9509422586
 30
0.0
 11
6273.1571352157
 21
5432.9509422586
 31
0.0
  0
LINE
  5
1B9
330
1F
100
AcDbEntity
  8
0
  6
Continuous
 62
     7
100
AcDbLine
 10
6273.1571352157
 20
5432.9509422586
 30
0.0
 11
6271.4701039764
 21
5433.0437615917
 31
0.0
  0
LINE
  5
1BA
330
1F
100
AcDbEntity
  8
0
  6
Continuous
 62
     7
100
AcDbLine
 10
6271.4701039764
 20
5433.0437615917
 30
0.0
 11
6269.89449617
 21
5433.2253322408
 31
0.0
  0
LINE
  5
1BB
330
1F
100
AcDbEntity
  8
0
  6
Continuous
 62
     7
100
AcDbLine
 10
6269.89449617
 20
5433.2253322408
 30
0.0
 11
6268.4991663369
 21
5433.4877118871
 31
0.0
  0
LINE
  5
1BC
330
1F
100
AcDbEntity
  8
0
  6
Continuous
 62
     7
100
AcDbLine
 10
6268.4991663369
 20
5433.4877118871
 30
0.0
 11
6267.3451086554
 21
5433.8194564388
 31
0.0
  0
LINE
  5
1BD
330
1F
100
AcDbEntity
  8
0
  6
Continuous
 62
     7
100
AcDbLine
 10
6267.3451086554
 20
5433.8194564388
 30
0.0
 11
6266.4827486548
 21
5434.2060372636
 31
0.0
  0
LINE
  5
1BE
330
1F
100
AcDbEntity
  8
0
  6
Continuous
 62
     7
100
AcDbLine
 10
6266.4827486548
 20
5434.2060372636
 30
0.0
 11
6265.9497788224
 21
5434.6305862472
 31
0.0
  0
LINE
  5
1BF
330
1F
100
AcDbEntity
  8
0
  6
Continuous
 62
     7
100
AcDbLine
 10
6265.9497788224
 20
5434.6305862472
 30
0.0
 11
6265.7694971236
 21
5435.0745216415
 31
0.0
  0
LINE
  5
1C0
330
1F
100
AcDbEntity
  8
0
  6
Continuous
 62
     7
100
AcDbLine
 10
6265.7694971236
 20
5435.0745216415
 30
0.0
 11
6265.9497862729
 21
5435.5184719369
 31
0.0
  0
LINE
  5
1C1
330
1F
100
AcDbEntity
  8
0
  6
Continuous
 62
     7
100
AcDbLine
 10
6265.9497862729
 20
5435.5184719369
 30
0.0
 11
6266.035996941
 21
5435.6128558919
 31
0.0
  0
LINE
  5
1C2
330
1F
100
AcDbEntity
  8
0
  6
Continuous
 62
     7
100
AcDbLine
 10
6282.0030046675
 20
5435.6128111885
 30
0.0
 11
6282.0892190608
 21
5435.5184272335
 31
0.0
  0
LINE
  5
1C3
330
1F
100
AcDbEntity
  8
0
  6
Continuous
 62
     7
100
AcDbLine
 10
6282.0892190608
 20
5435.5184272335
 30
0.0
 11
6282.2695007595
 21
5435.074476938
 31
0.0
  0
LINE
  5
1C4
330
1F
100
AcDbEntity
  8
0
  6
Continuous
 62
     7
100
AcDbLine
 10
6281.1757480773
 20
5433.7713405893
 30
0.0
 11
6281.5343221697
 21
5433.6785361574
 31
0.0
  0
LINE
  5
1C5
330
1F
100
AcDbEntity
  8
0
  6
Continuous
 62
     7
100
AcDbLine
 10
6266.8632423553
 20
5433.7713852928
 30
0.0
 11
6266.5046682629
 21
5433.6785808609
 31
0.0
  0
LINE
  5
1C6
330
1F
100
AcDbEntity
  8
0
  6
Continuous
 62
     7
100
AcDbLine
 10
6282.0797866258
 20
5435.585124831
 30
0.0
 11
6281.5562492284
 21
5435.1719156311
 31
0.0
  0
LINE
  5
1C7
330
1F
100
AcDbEntity
  8
0
  6
Continuous
 62
     7
100
AcDbLine
 10
6281.5562492284
 20
5435.1719156311
 30
0.0
 11
6281.5194992396
 21
5435.1508602903
 31
0.0
  0
LINE
  5
1C8
330
1F
100
AcDbEntity
  8
0
  6
Continuous
 62
     7
100
AcDbLine
 10
6266.5195023689
 20
5435.1509049938
 30
0.0
 11
6266.4827486548
 21
5435.1719603345
 31
0.0
  0
LINE
  5
1C9
330
1F
100
AcDbEntity
  8
0
  6
Continuous
 62
     7
100
AcDbLine
 10
6266.4827486548
 20
5435.1719603345
 30
0.0
 11
6265.959218708
 21
5435.5851695345
 31
0.0
  0
LINE
  5
1CA
330
1F
100
AcDbEntity
  8
0
  6
Continuous
 62
     7
100
AcDbLine
 10
6279.0544373962
 20
5436.3072351024
 30
0.0
 11
6279.0544336709
 21
5435.9607384012
 31
0.0
  0
LINE
  5
1CB
330
1F
100
AcDbEntity
  8
0
  6
Continuous
 62
     7
100
AcDbLine
 10
6279.0544336709
 20
5435.9607384012
 30
0.0
 11
6279.4130077633
 21
5436.0535428331
 31
0.0
  0
LINE
  5
1CC
330
1F
100
AcDbEntity
  8
0
  6
Continuous
 62
     7
100
AcDbLine
 10
6268.9845716628
 20
5436.3072649047
 30
0.0
 11
6268.9845716628
 21
5435.9607682035
 31
0.0
  0
LINE
  5
1CD
330
1F
100
AcDbEntity
  8
0
  6
Continuous
 62
     7
100
AcDbLine
 10
6268.9845716628
 20
5435.9607682035
 30
0.0
 11
6268.6259975704
 21
5436.0535726354
 31
0.0
  0
LINE
  5
1CE
330
1F
100
AcDbEntity
  8
0
  6
Continuous
 62
     7
100
AcDbLine
 10
6281.1757555279
 20
5435.4116902158
 30
0.0
 11
6281.534325895
 21
5435.5044946477
 31
0.0
  0
LINE
  5
1CF
330
1F
100
AcDbEntity
  8
0
  6
Continuous
 62
     7
100
AcDbLine
 10
6266.8632498059
 20
5435.4117349193
 30
0.0
 11
6266.5046757135
 21
5435.5045393512
 31
0.0
  0
LINE
  5
1D0
330
1F
100
AcDbEntity
  8
0
  6
Continuous
 62
     7
100
AcDbLine
 10
6281.3688000712
 20
5435.4616538093
 30
0.0
 11
6281.5194992396
 21
5435.074476938
 31
0.0
  0
LINE
  5
1D1
330
1F
100
AcDbEntity
  8
0
  6
Continuous
 62
     7
100
AcDbLine
 10
6281.5194992396
 20
5435.074476938
 30
0.0
 11
6281.3441535506
 21
5434.6571997211
 31
0.0
  0
LINE
  5
1D2
330
1F
100
AcDbEntity
  8
0
  6
Continuous
 62
     7
100
AcDbLine
 10
6281.3441535506
 20
5434.6571997211
 30
0.0
 11
6280.826312122
 21
5434.259413223
 31
0.0
  0
LINE
  5
1D3
330
1F
100
AcDbEntity
  8
0
  6
Continuous
 62
     7
100
AcDbLine
 10
6280.826312122
 20
5434.259413223
 30
0.0
 11
6279.9901967916
 21
5433.8997587965
 31
0.0
  0
LINE
  5
1D4
330
1F
100
AcDbEntity
  8
0
  6
Continuous
 62
     7
100
AcDbLine
 10
6279.9901967916
 20
5433.8997587965
 30
0.0
 11
6278.874893305
 21
5433.59503005
 31
0.0
  0
LINE
  5
1D5
330
1F
100
AcDbEntity
  8
0
  6
Continuous
 62
     7
100
AcDbLine
 10
6278.874893305
 20
5433.59503005
 30
0.0
 11
6277.5325594517
 21
5433.3594724939
 31
0.0
  0
LINE
  5
1D6
330
1F
100
AcDbEntity
  8
0
  6
Continuous
 62
     7
100
AcDbLine
 10
6277.5325594517
 20
5433.3594724939
 30
0.0
 11
6276.0259589228
 21
5433.2041129873
 31
0.0
  0
LINE
  5
1D7
330
1F
100
AcDbEntity
  8
0
  6
Continuous
 62
     7
100
AcDbLine
 10
6276.0259589228
 20
5433.2041129873
 30
0.0
 11
6274.4255369577
 21
5433.1362083957
 31
0.0
  0
LINE
  5
1D8
330
1F
100
AcDbEntity
  8
0
  6
Continuous
 62
     7
100
AcDbLine
 10
6274.4255369577
 20
5433.1362083957
 30
0.0
 11
6272.8061309132
 21
5433.1589326665
 31
0.0
  0
LINE
  5
1D9
330
1F
100
AcDbEntity
  8
0
  6
Continuous
 62
     7
100
AcDbLine
 10
6272.8061309132
 20
5433.1589326665
 30
0.0
 11
6271.2434610399
 21
5433.2712278173
 31
0.0
  0
LINE
  5
1DA
330
1F
100
AcDbEntity
  8
0
  6
Continuous
 62
     7
100
AcDbLine
 10
6271.2434610399
 20
5433.2712278173
 30
0.0
 11
6269.8105914566
 21
5433.4678486393
 31
0.0
  0
LINE
  5
1DB
330
1F
100
AcDbEntity
  8
0
  6
Continuous
 62
     7
100
AcDbLine
 10
6269.8105914566
 20
5433.4678486393
 30
0.0
 11
6268.5745289597
 21
5433.7396011159
 31
0.0
  0
LINE
  5
1DC
330
1F
100
AcDbEntity
  8
0
  6
Continuous
 62
     7
100
AcDbLine
 10
6268.5745289597
 20
5433.7396011159
 30
0.0
 11
6267.5930714282
 21
5434.0737596557
 31
0.0
  0
LINE
  5
1DD
330
1F
100
AcDbEntity
  8
0
  6
Continuous
 62
     7
100
AcDbLine
 10
6267.5930714282
 20
5434.0737596557
 30
0.0
 11
6266.9121032628
 21
5434.4547078416
 31
0.0
  0
LINE
  5
1DE
330
1F
100
AcDbEntity
  8
0
  6
Continuous
 62
     7
100
AcDbLine
 10
6266.9121032628
 20
5434.4547078416
 30
0.0
 11
6266.563468245
 21
5434.8646536872
 31
0.0
  0
LINE
  5
1DF
330
1F
100
AcDbEntity
  8
0
  6
Continuous
 62
     7
100
AcDbLine
 10
6266.563468245
 20
5434.8646536872
 30
0.0
 11
6266.563468245
 21
5435.2844044969
 31
0.0
  0
LINE
  5
1E0
330
1F
100
AcDbEntity
  8
0
  6
Continuous
 62
     7
100
AcDbLine
 10
6266.563468245
 20
5435.2844044969
 30
0.0
 11
6266.6702052626
 21
5435.4616985128
 31
0.0
  0
LINE
  5
1E1
330
1F
100
AcDbEntity
  8
0
  6
Continuous
 62
     7
100
AcDbLine
 10
6282.6399697038
 20
5435.3552744196
 30
0.0
 11
6282.6399697038
 21
5434.4967887209
 31
0.0
  0
LINE
  5
1E2
330
1F
100
AcDbEntity
  8
0
  6
Continuous
 62
     7
100
AcDbLine
 10
6283.1470673951
 20
5434.4967738197
 30
0.0
 11
6282.6399697038
 21
5434.4967887209
 31
0.0
  0
LINE
  5
1E3
330
1F
100
AcDbEntity
  8
0
  6
Continuous
 62
     7
100
AcDbLine
 10
6282.6399697038
 20
5434.4967887209
 30
0.0
 11
6282.6399659786
 21
5433.7203190134
 31
0.0
  0
LINE
  5
1E4
330
1F
100
AcDbEntity
  8
0
  6
Continuous
 62
     7
100
AcDbLine
 10
6283.1470636698
 20
5433.7203190134
 30
0.0
 11
6282.6399659786
 21
5433.7203190134
 31
0.0
  0
LINE
  5
1E5
330
1F
100
AcDbEntity
  8
0
  6
Continuous
 62
     7
100
AcDbLine
 10
6264.891930488
 20
5433.720378618
 30
0.0
 11
6265.399024454
 21
5433.720378618
 31
0.0
  0
LINE
  5
1E6
330
1F
100
AcDbEntity
  8
0
  6
Continuous
 62
     7
100
AcDbLine
 10
6264.891930488
 20
5434.4968334243
 30
0.0
 11
6265.3990319046
 21
5434.4968334243
 31
0.0
  0
LINE
  5
1E7
330
1F
100
AcDbEntity
  8
0
  6
Continuous
 62
     7
100
AcDbLine
 10
6265.3990319046
 20
5435.355319123
 30
0.0
 11
6265.3990319046
 21
5434.4968334243
 31
0.0
  0
LINE
  5
1E8
330
1F
100
AcDbEntity
  8
0
  6
Continuous
 62
     7
100
AcDbLine
 10
6265.3990319046
 20
5434.4968334243
 30
0.0
 11
6265.399024454
 21
5433.720378618
 31
0.0
  0
LINE
  5
1E9
330
1F
100
AcDbEntity
  8
0
  6
Continuous
 62
     7
100
AcDbLine
 10
6281.1757480773
 20
5433.7713405893
 30
0.0
 11
6281.1757480773
 21
5432.8054175184
 31
0.0
  0
LINE
  5
1EA
330
1F
100
AcDbEntity
  8
0
  6
Continuous
 62
     7
100
AcDbLine
 10
6279.0544262203
 20
5433.2223222063
 30
0.0
 11
6279.0544262203
 21
5432.2563842342
 31
0.0
  0
LINE
  5
1EB
330
1F
100
AcDbEntity
  8
0
  6
Continuous
 62
     7
100
AcDbLine
 10
6281.1757480773
 20
5432.8054175184
 30
0.0
 11
6281.5343184444
 21
5432.7126130865
 31
0.0
  0
LINE
  5
1EC
330
1F
100
AcDbEntity
  8
0
  6
Continuous
 62
     7
100
AcDbLine
 10
6266.8632423553
 20
5433.7713852928
 30
0.0
 11
6266.8632423553
 21
5432.8054622219
 31
0.0
  0
LINE
  5
1ED
330
1F
100
AcDbEntity
  8
0
  6
Continuous
 62
     7
100
AcDbLine
 10
6268.9845642123
 20
5433.2223371074
 30
0.0
 11
6268.984560487
 21
5432.2564140365
 31
0.0
  0
LINE
  5
1EE
330
1F
100
AcDbEntity
  8
0
  6
Continuous
 62
     7
100
AcDbLine
 10
6266.8632423553
 20
5432.8054622219
 30
0.0
 11
6266.5046682629
 21
5432.71265779
 31
0.0
  0
LINE
  5
1EF
330
1F
100
AcDbEntity
  8
0
  6
Continuous
 62
     7
100
AcDbLine
 10
6268.984560487
 20
5432.2564140365
 30
0.0
 11
6268.6259863946
 21
5432.1636096046
 31
0.0
  0
LINE
  5
1F0
330
1F
100
AcDbEntity
  8
0
  6
Continuous
 62
     7
100
AcDbLine
 10
6279.0544262203
 20
5432.2563842342
 30
0.0
 11
6279.4129965874
 21
5432.1635798023
 31
0.0
  0
LINE
  5
1F1
330
1F
100
AcDbEntity
  8
0
  6
Continuous
 62
     7
100
AcDbLine
 10
6272.5194921765
 20
5431.7461982772
 30
0.0
 11
6272.5194921765
 21
5431.8774328039
 31
0.0
  0
LINE
  5
1F2
330
1F
100
AcDbEntity
  8
0
  6
Continuous
 62
     7
100
AcDbLine
 10
6275.5194908056
 20
5431.7461833761
 30
0.0
 11
6275.5194908056
 21
5431.8774328039
 31
0.0
  0
LINE
  5
1F3
330
1F
100
AcDbEntity
  8
0
  6
Continuous
 62
     7
100
AcDbLine
 10
6275.5194945308
 20
5432.8433558748
 30
0.0
 11
6275.5194908056
 21
5431.8774328039
 31
0.0
  0
LINE
  5
1F4
330
1F
100
AcDbEntity
  8
0
  6
Continuous
 62
     7
100
AcDbLine
 10
6272.5194959018
 20
5432.8433707759
 30
0.0
 11
6272.5194921765
 21
5431.8774328039
 31
0.0
  0
LINE
  5
1F5
330
1F
100
AcDbEntity
  8
0
  6
Continuous
 62
     7
100
AcDbLine
 10
6287.1378385438
 20
5437.9816970095
 30
0.0
 11
6286.1701963517
 21
5438.2496461675
 31
0.0
  0
LINE
  5
1F6
330
1F
100
AcDbEntity
  8
0
  6
Continuous
 62
     7
100
AcDbLine
 10
6261.8688201579
 20
5438.2497206733
 30
0.0
 11
6260.9011792221
 21
5437.9817696704
 31
0.0
  0
LINE
  5
1F7
330
1F
100
AcDbEntity
  8
0
  6
Continuous
 62
     7
100
AcDbLine
 10
6261.8688201579
 20
5438.2497206733
 30
0.0
 11
6286.1701963517
 21
5438.2496461675
 31
0.0
  0
LINE
  5
1F8
330
1F
100
AcDbEntity
  8
0
  6
Continuous
 62
     7
100
AcDbLine
 10
6274.0195063922
 20
5436.6644159362
 30
0.0
 11
6275.8883616003
 21
5436.6182223365
 31
0.0
  0
LINE
  5
1F9
330
1F
100
AcDbEntity
  8
0
  6
Continuous
 62
     7
100
AcDbLine
 10
6275.8883616003
 20
5436.6182223365
 30
0.0
 11
6277.6896698448
 21
5436.4813253686
 31
0.0
  0
LINE
  5
1FA
330
1F
100
AcDbEntity
  8
0
  6
Continuous
 62
     7
100
AcDbLine
 10
6277.6896698448
 20
5436.4813253686
 30
0.0
 11
6279.3583316776
 21
5436.2586722181
 31
0.0
  0
LINE
  5
1FB
330
1F
100
AcDbEntity
  8
0
  6
Continuous
 62
     7
100
AcDbLine
 10
6279.3583316776
 20
5436.2586722181
 30
0.0
 11
6280.8340346488
 21
5435.9583095119
 31
0.0
  0
LINE
  5
1FC
330
1F
100
AcDbEntity
  8
0
  6
Continuous
 62
     7
100
AcDbLine
 10
6280.8340346488
 20
5435.9583095119
 30
0.0
 11
6282.063440052
 21
5435.5910852954
 31
0.0
  0
LINE
  5
1FD
330
1F
100
AcDbEntity
  8
0
  6
Continuous
 62
     7
100
AcDbLine
 10
6282.063440052
 20
5435.5910852954
 30
0.0
 11
6283.0021163496
 21
5435.1702914045
 31
0.0
  0
LINE
  5
1FE
330
1F
100
AcDbEntity
  8
0
  6
Continuous
 62
     7
100
AcDbLine
 10
6283.0021163496
 20
5435.1702914045
 30
0.0
 11
6283.6161373231
 21
5434.7111121223
 31
0.0
  0
LINE
  5
1FF
330
1F
100
AcDbEntity
  8
0
  6
Continuous
 62
     7
100
AcDbLine
 10
6283.6161373231
 20
5434.7111121223
 30
0.0
 11
6283.883311418
 21
5434.2301622436
 31
0.0
  0
LINE
  5
200
330
1F
100
AcDbEntity
  8
0
  6
Continuous
 62
     7
100
AcDbLine
 10
6283.883311418
 20
5434.2301622436
 30
0.0
 11
6283.7939826819
 21
5433.7448165224
 31
0.0
  0
LINE
  5
201
330
1F
100
AcDbEntity
  8
0
  6
Continuous
 62
     7
100
AcDbLine
 10
6283.7939826819
 20
5433.7448165224
 30
0.0
 11
6283.3513772163
 21
5433.2726136253
 31
0.0
  0
LINE
  5
202
330
1F
100
AcDbEntity
  8
0
  6
Continuous
 62
     7
100
AcDbLine
 10
6283.3513772163
 20
5433.2726136253
 30
0.0
 11
6282.5714951429
 21
5432.8306302831
 31
0.0
  0
LINE
  5
203
330
1F
100
AcDbEntity
  8
0
  6
Continuous
 62
     7
100
AcDbLine
 10
6282.5714951429
 20
5432.8306302831
 30
0.0
 11
6281.4825220081
 21
5432.4348405407
 31
0.0
  0
LINE
  5
204
330
1F
100
AcDbEntity
  8
0
  6
Continuous
 62
     7
100
AcDbLine
 10
6281.4825220081
 20
5432.4348405407
 30
0.0
 11
6280.1238117787
 21
5432.0995346115
 31
0.0
  0
LINE
  5
205
330
1F
100
AcDbEntity
  8
0
  6
Continuous
 62
     7
100
AcDbLine
 10
6280.1238117787
 20
5432.0995346115
 30
0.0
 11
6278.544478682
 21
5431.8368420408
 31
0.0
  0
LINE
  5
206
330
1F
100
AcDbEntity
  8
0
  6
Continuous
 62
     7
100
AcDbLine
 10
6278.544478682
 20
5431.8368420408
 30
0.0
 11
6276.8016016158
 21
5431.6562548683
 31
0.0
  0
LINE
  5
207
330
1F
100
AcDbEntity
  8
0
  6
Continuous
 62
     7
100
AcDbLine
 10
6276.8016016158
 20
5431.6562548683
 30
0.0
 11
6274.9581677887
 21
5431.5643147037
 31
0.0
  0
LINE
  5
208
330
1F
100
AcDbEntity
  8
0
  6
Continuous
 62
     7
100
AcDbLine
 10
6274.9581677887
 20
5431.5643147037
 30
0.0
 11
6273.0808114681
 21
5431.5643147037
 31
0.0
  0
LINE
  5
209
330
1F
100
AcDbEntity
  8
0
  6
Continuous
 62
     7
100
AcDbLine
 10
6273.0808114681
 20
5431.5643147037
 30
0.0
 11
6271.2373813662
 21
5431.6562697694
 31
0.0
  0
LINE
  5
20A
330
1F
100
AcDbEntity
  8
0
  6
Continuous
 62
     7
100
AcDbLine
 10
6271.2373813662
 20
5431.6562697694
 30
0.0
 11
6269.4945043
 21
5431.8368718431
 31
0.0
  0
LINE
  5
20B
330
1F
100
AcDbEntity
  8
0
  6
Continuous
 62
     7
100
AcDbLine
 10
6269.4945043
 20
5431.8368718431
 30
0.0
 11
6267.9151749286
 21
5432.0995644138
 31
0.0
  0
LINE
  5
20C
330
1F
100
AcDbEntity
  8
0
  6
Continuous
 62
     7
100
AcDbLine
 10
6267.9151749286
 20
5432.0995644138
 30
0.0
 11
6266.5564646992
 21
5432.4348852441
 31
0.0
  0
LINE
  5
20D
330
1F
100
AcDbEntity
  8
0
  6
Continuous
 62
     7
100
AcDbLine
 10
6266.5564646992
 20
5432.4348852441
 30
0.0
 11
6265.4674952897
 21
5432.8306898878
 31
0.0
  0
LINE
  5
20E
330
1F
100
AcDbEntity
  8
0
  6
Continuous
 62
     7
100
AcDbLine
 10
6265.4674952897
 20
5432.8306898878
 30
0.0
 11
6264.6876132163
 21
5433.2726732299
 31
0.0
  0
LINE
  5
20F
330
1F
100
AcDbEntity
  8
0
  6
Continuous
 62
     7
100
AcDbLine
 10
6264.6876132163
 20
5433.2726732299
 30
0.0
 11
6264.245011476
 21
5433.744876127
 31
0.0
  0
LINE
  5
210
330
1F
100
AcDbEntity
  8
0
  6
Continuous
 62
     7
100
AcDbLine
 10
6264.245011476
 20
5433.744876127
 30
0.0
 11
6264.1556864652
 21
5434.2302218483
 31
0.0
  0
LINE
  5
211
330
1F
100
AcDbEntity
  8
0
  6
Continuous
 62
     7
100
AcDbLine
 10
6264.1556864652
 20
5434.2302218483
 30
0.0
 11
6264.4228568348
 21
5434.7111717269
 31
0.0
  0
LINE
  5
212
330
1F
100
AcDbEntity
  8
0
  6
Continuous
 62
     7
100
AcDbLine
 10
6264.4228568348
 20
5434.7111717269
 30
0.0
 11
6265.0368815336
 21
5435.170336108
 31
0.0
  0
LINE
  5
213
330
1F
100
AcDbEntity
  8
0
  6
Continuous
 62
     7
100
AcDbLine
 10
6265.0368815336
 20
5435.170336108
 30
0.0
 11
6265.9755652818
 21
5435.5911299989
 31
0.0
  0
LINE
  5
214
330
1F
100
AcDbEntity
  8
0
  6
Continuous
 62
     7
100
AcDbLine
 10
6265.9755652818
 20
5435.5911299989
 30
0.0
 11
6267.2049706849
 21
5435.9583393142
 31
0.0
  0
LINE
  5
215
330
1F
100
AcDbEntity
  8
0
  6
Continuous
 62
     7
100
AcDbLine
 10
6267.2049706849
 20
5435.9583393142
 30
0.0
 11
6268.6806773814
 21
5436.2587020204
 31
0.0
  0
LINE
  5
216
330
1F
100
AcDbEntity
  8
0
  6
Continuous
 62
     7
100
AcDbLine
 10
6268.6806773814
 20
5436.2587020204
 30
0.0
 11
6270.3493392143
 21
5436.4813402698
 31
0.0
  0
LINE
  5
217
330
1F
100
AcDbEntity
  8
0
  6
Continuous
 62
     7
100
AcDbLine
 10
6270.3493392143
 20
5436.4813402698
 30
0.0
 11
6272.1506474587
 21
5436.6182372377
 31
0.0
  0
LINE
  5
218
330
1F
100
AcDbEntity
  8
0
  6
Continuous
 62
     7
100
AcDbLine
 10
6272.1506474587
 20
5436.6182372377
 30
0.0
 11
6274.0195063922
 21
5436.6644159362
 31
0.0
  0
LINE
  5
219
330
1F
100
AcDbEntity
  8
0
  6
Continuous
 62
     7
100
AcDbLine
 10
6283.2488721284
 20
5435.0175246999
 30
0.0
 11
6283.3944974515
 21
5434.5915154026
 31
0.0
  0
LINE
  5
21A
330
1F
100
AcDbEntity
  8
0
  6
Continuous
 62
     7
100
AcDbLine
 10
6283.3944974515
 20
5434.5915154026
 30
0.0
 11
6283.2694990608
 21
5434.1966048286
 31
0.0
  0
LINE
  5
21B
330
1F
100
AcDbEntity
  8
0
  6
Continuous
 62
     7
100
AcDbLine
 10
6264.7694950971
 20
5434.1966495321
 30
0.0
 11
6264.6444967064
 21
5434.591560106
 31
0.0
  0
LINE
  5
21C
330
1F
100
AcDbEntity
  8
0
  6
Continuous
 62
     7
100
AcDbLine
 10
6264.6444967064
 20
5434.591560106
 30
0.0
 11
6264.7901257548
 21
5435.0175843046
 31
0.0
  0
LINE
  5
21D
330
1F
100
AcDbEntity
  8
0
  6
Continuous
 62
     7
100
AcDbLine
 10
6281.5191639635
 20
5312.7053663538
 30
0.0
 11
6279.6795522842
 21
5312.7053961561
 31
0.0
  0
LINE
  5
21E
330
1F
100
AcDbEntity
  8
0
  6
Continuous
 62
     7
100
AcDbLine
 10
6279.6795522842
 20
5312.7053961561
 30
0.0
 11
6277.8096614453
 21
5312.7053961561
 31
0.0
  0
LINE
  5
21F
330
1F
100
AcDbEntity
  8
0
  6
Continuous
 62
     7
100
AcDbLine
 10
6277.8096614453
 20
5312.7053961561
 30
0.0
 11
6275.9194938514
 21
5312.7053961561
 31
0.0
  0
LINE
  5
220
330
1F
100
AcDbEntity
  8
0
  6
Continuous
 62
     7
100
AcDbLine
 10
6275.9194938514
 20
5312.7053961561
 30
0.0
 11
6274.0191636655
 21
5312.7053961561
 31
0.0
  0
LINE
  5
221
330
1F
100
AcDbEntity
  8
0
  6
Continuous
 62
     7
100
AcDbLine
 10
6274.0191636655
 20
5312.7053961561
 30
0.0
 11
6272.1188297543
 21
5312.7053961561
 31
0.0
  0
LINE
  5
222
330
1F
100
AcDbEntity
  8
0
  6
Continuous
 62
     7
100
AcDbLine
 10
6272.1188297543
 20
5312.7053961561
 30
0.0
 11
6270.2286621603
 21
5312.7054259584
 31
0.0
  0
LINE
  5
223
330
1F
100
AcDbEntity
  8
0
  6
Continuous
 62
     7
100
AcDbLine
 10
6270.2286621603
 20
5312.7054259584
 30
0.0
 11
6268.3587750468
 21
5312.7054259584
 31
0.0
  0
LINE
  5
224
330
1F
100
AcDbEntity
  8
0
  6
Continuous
 62
     7
100
AcDbLine
 10
6268.3587750468
 20
5312.7054259584
 30
0.0
 11
6266.5191596421
 21
5312.7054259584
 31
0.0
  0
LINE
  5
225
330
1F
100
AcDbEntity
  8
0
  6
Continuous
 62
     7
100
AcDbLine
 10
6266.5191298398
 20
5301.7054185674
 30
0.0
 11
6268.3587452444
 21
5301.7054185674
 31
0.0
  0
LINE
  5
226
330
1F
100
AcDbEntity
  8
0
  6
Continuous
 62
     7
100
AcDbLine
 10
6268.3587452444
 20
5301.7054185674
 30
0.0
 11
6270.228632358
 21
5301.7054185674
 31
0.0
  0
LINE
  5
227
330
1F
100
AcDbEntity
  8
0
  6
Continuous
 62
     7
100
AcDbLine
 10
6270.228632358
 20
5301.7054185674
 30
0.0
 11
6272.118799952
 21
5301.7054185674
 31
0.0
  0
LINE
  5
228
330
1F
100
AcDbEntity
  8
0
  6
Continuous
 62
     7
100
AcDbLine
 10
6272.118799952
 20
5301.7054185674
 30
0.0
 11
6274.0191301378
 21
5301.7053887651
 31
0.0
  0
LINE
  5
229
330
1F
100
AcDbEntity
  8
0
  6
Continuous
 62
     7
100
AcDbLine
 10
6274.0191301378
 20
5301.7053887651
 30
0.0
 11
6275.919464049
 21
5301.7053887651
 31
0.0
  0
LINE
  5
22A
330
1F
100
AcDbEntity
  8
0
  6
Continuous
 62
     7
100
AcDbLine
 10
6275.919464049
 20
5301.7053887651
 30
0.0
 11
6277.809631643
 21
5301.7053887651
 31
0.0
  0
LINE
  5
22B
330
1F
100
AcDbEntity
  8
0
  6
Continuous
 62
     7
100
AcDbLine
 10
6277.809631643
 20
5301.7053887651
 30
0.0
 11
6279.6795187566
 21
5301.7053887651
 31
0.0
  0
LINE
  5
22C
330
1F
100
AcDbEntity
  8
0
  6
Continuous
 62
     7
100
AcDbLine
 10
6279.6795187566
 20
5301.7053887651
 30
0.0
 11
6281.5191304359
 21
5301.7053887651
 31
0.0
  0
LINE
  5
22D
330
1F
100
AcDbEntity
  8
0
  6
Continuous
 62
     7
100
AcDbLine
 10
6392.5740053925
 20
5470.7789406583
 30
0.0
 11
6392.7451787564
 21
5470.78473721
 31
0.0
  0
LINE
  5
22E
330
1F
100
AcDbEntity
  8
0
  6
Continuous
 62
     7
100
AcDbLine
 10
6392.7451787564
 20
5470.78473721
 30
0.0
 11
6393.2326404425
 21
5470.8012476966
 31
0.0
  0
LINE
  5
22F
330
1F
100
AcDbEntity
  8
0
  6
Continuous
 62
     7
100
AcDbLine
 10
6393.2326404425
 20
5470.8012476966
 30
0.0
 11
6393.9621752176
 21
5470.8259538219
 31
0.0
  0
LINE
  5
230
330
1F
100
AcDbEntity
  8
0
  6
Continuous
 62
     7
100
AcDbLine
 10
6393.9621752176
 20
5470.8259538219
 30
0.0
 11
6394.8227172765
 21
5470.855085592
 31
0.0
  0
LINE
  5
231
330
1F
100
AcDbEntity
  8
0
  6
Continuous
 62
     7
100
AcDbLine
 10
6394.8227172765
 20
5470.855085592
 30
0.0
 11
6395.6832593354
 21
5470.8842322633
 31
0.0
  0
LINE
  5
232
330
1F
100
AcDbEntity
  8
0
  6
Continuous
 62
     7
100
AcDbLine
 10
6395.6832593354
 20
5470.8842322633
 30
0.0
 11
6396.4127978358
 21
5470.9089234874
 31
0.0
  0
LINE
  5
233
330
1F
100
AcDbEntity
  8
0
  6
Continuous
 62
     7
100
AcDbLine
 10
6396.4127978358
 20
5470.9089234874
 30
0.0
 11
6396.9002595219
 21
5470.925433974
 31
0.0
  0
LINE
  5
234
330
1F
100
AcDbEntity
  8
0
  6
Continuous
 62
     7
100
AcDbLine
 10
6396.9002595219
 20
5470.925433974
 30
0.0
 11
6397.0714291605
 21
5470.9312305257
 31
0.0
  0
LINE
  5
235
330
1F
100
AcDbEntity
  8
0
  6
Continuous
 62
     7
100
AcDbLine
 10
6373.3850797686
 20
5437.588630657
 30
0.0
 11
6372.2700258765
 21
5437.3255059526
 31
0.0
  0
LINE
  5
236
330
1F
100
AcDbEntity
  8
0
  6
Continuous
 62
     7
100
AcDbLine
 10
6051.0187303695
 20
5158.406017761
 30
0.0
 11
6051.0179257068
 21
4860.4060098932
 31
0.0
  0
LINE
  5
237
330
1F
100
AcDbEntity
  8
0
  6
Continuous
 62
     7
100
AcDbLine
 10
6497.0187401447
 20
5158.4047958658
 30
0.0
 11
6051.0187303695
 21
5158.406017761
 31
0.0
  0
LINE
  5
238
330
1F
100
AcDbEntity
  8
0
  6
Continuous
 62
     7
100
AcDbLine
 10
6497.0179056796
 20
4860.4047581956
 30
0.0
 11
6497.0187401447
 21
5158.4047958658
 31
0.0
  0
LINE
  5
239
330
1F
100
AcDbEntity
  8
0
  6
Continuous
 62
     7
100
AcDbLine
 10
6051.0179257068
 20
4860.4060098932
 30
0.0
 11
6497.0179056796
 21
4860.4047581956
 31
0.0
  0
LINE
  5
23A
330
1F
100
AcDbEntity
  8
0
  6
Continuous
 62
     7
100
AcDbLine
 10
6051.0178959045
 20
4858.4060356424
 30
0.0
 11
6051.0179257068
 21
4860.4060098932
 31
0.0
  0
LINE
  5
23B
330
1F
100
AcDbEntity
  8
0
  6
Continuous
 62
     7
100
AcDbLine
 10
6051.0178959045
 20
4858.4060356424
 30
0.0
 11
6049.0178918514
 21
4858.4060356424
 31
0.0
  0
LINE
  5
23C
330
1F
100
AcDbEntity
  8
0
  6
Continuous
 62
     7
100
AcDbLine
 10
6049.0178918514
 20
4858.4060356424
 30
0.0
 11
6049.0179216537
 21
4860.4060098932
 31
0.0
  0
LINE
  5
23D
330
1F
100
AcDbEntity
  8
0
  6
Continuous
 62
     7
100
AcDbLine
 10
6049.0179216537
 20
4860.4060098932
 30
0.0
 11
6049.0187263164
 21
5158.406017761
 31
0.0
  0
LINE
  5
23E
330
1F
100
AcDbEntity
  8
0
  6
Continuous
 62
     7
100
AcDbLine
 10
6049.0187263164
 20
5158.406017761
 30
0.0
 11
6051.0187303695
 21
5158.406017761
 31
0.0
  0
LINE
  5
23F
330
1F
100
AcDbEntity
  8
0
  6
Continuous
 62
     7
100
AcDbLine
 10
6499.0179097327
 20
4860.4047581956
 30
0.0
 11
6499.0187292966
 21
5158.4047660635
 31
0.0
  0
LINE
  5
240
330
1F
100
AcDbEntity
  8
0
  6
Continuous
 62
     7
100
AcDbLine
 10
6499.0179097327
 20
4858.4047839449
 30
0.0
 11
6499.0179097327
 21
4860.4047581956
 31
0.0
  0
LINE
  5
241
330
1F
100
AcDbEntity
  8
0
  6
Continuous
 62
     7
100
AcDbLine
 10
6499.0179097327
 20
4858.4047839449
 30
0.0
 11
6497.0179056796
 21
4858.4047839449
 31
0.0
  0
LINE
  5
242
330
1F
100
AcDbEntity
  8
0
  6
Continuous
 62
     7
100
AcDbLine
 10
6497.0179056796
 20
4858.4047839449
 30
0.0
 11
6497.0179056796
 21
4860.4047581956
 31
0.0
  0
LINE
  5
243
330
1F
100
AcDbEntity
  8
0
  6
Continuous
 62
     7
100
AcDbLine
 10
6497.0187401447
 20
5158.4047958658
 30
0.0
 11
6497.4089121494
 21
5158.4047958658
 31
0.0
  0
LINE
  5
244
330
1F
100
AcDbEntity
  8
0
  6
Continuous
 62
     7
100
AcDbLine
 10
6497.4089121494
 20
5158.4047958658
 30
0.0
 11
6497.7841084871
 21
5158.4047958658
 31
0.0
  0
LINE
  5
245
330
1F
100
AcDbEntity
  8
0
  6
Continuous
 62
     7
100
AcDbLine
 10
6497.7841084871
 20
5158.4047958658
 30
0.0
 11
6498.1298750314
 21
5158.4047958658
 31
0.0
  0
LINE
  5
246
330
1F
100
AcDbEntity
  8
0
  6
Continuous
 62
     7
100
AcDbLine
 10
6498.1298750314
 20
5158.4047958658
 30
0.0
 11
6498.4329497489
 21
5158.4047660635
 31
0.0
  0
LINE
  5
247
330
1F
100
AcDbEntity
  8
0
  6
Continuous
 62
     7
100
AcDbLine
 10
6498.4329497489
 20
5158.4047660635
 30
0.0
 11
6498.6816799316
 21
5158.4047660635
 31
0.0
  0
LINE
  5
248
330
1F
100
AcDbEntity
  8
0
  6
Continuous
 62
     7
100
AcDbLine
 10
6498.6816799316
 20
5158.4047660635
 30
0.0
 11
6498.8664990339
 21
5158.4047660635
 31
0.0
  0
LINE
  5
249
330
1F
100
AcDbEntity
  8
0
  6
Continuous
 62
     7
100
AcDbLine
 10
6498.8664990339
 20
5158.4047660635
 30
0.0
 11
6498.9802992019
 21
5158.4047660635
 31
0.0
  0
LINE
  5
24A
330
1F
100
AcDbEntity
  8
0
  6
Continuous
 62
     7
100
AcDbLine
 10
6498.9802992019
 20
5158.4047660635
 30
0.0
 11
6499.0187292966
 21
5158.4047660635
 31
0.0
  0
LINE
  5
24B
330
1F
100
AcDbEntity
  8
0
  6
Continuous
 62
     7
100
AcDbLine
 10
6051.7250156078
 20
4858.4060356424
 30
0.0
 11
6496.3108008775
 21
4858.4047839449
 31
0.0
  0
LINE
  5
24C
330
1F
100
AcDbEntity
  8
0
  6
Continuous
 62
     7
100
AcDbLine
 10
6051.0178959045
 20
4858.4060356424
 30
0.0
 11
6051.7250156078
 21
4858.4060356424
 31
0.0
  0
LINE
  5
24D
330
1F
100
AcDbEntity
  8
0
  6
Continuous
 62
     7
100
AcDbLine
 10
6051.0178959045
 20
4859.4060227678
 30
0.0
 11
6051.2539302978
 21
4859.4060227678
 31
0.0
  0
LINE
  5
24E
330
1F
100
AcDbEntity
  8
0
  6
Continuous
 62
     7
100
AcDbLine
 10
6496.3108008775
 20
4858.4047839449
 30
0.0
 11
6497.0179056796
 21
4858.4047839449
 31
0.0
  0
LINE
  5
24F
330
1F
100
AcDbEntity
  8
0
  6
Continuous
 62
     7
100
AcDbLine
 10
6496.7783397111
 20
4859.4047710702
 30
0.0
 11
6497.0179056796
 21
4859.4047710702
 31
0.0
  0
LINE
  5
250
330
1F
100
AcDbEntity
  8
0
  6
Continuous
 62
     7
100
AcDbLine
 10
6049.0188455257
 20
5198.3560309217
 30
0.0
 11
6049.0188455257
 21
5196.7560336397
 31
0.0
  0
LINE
  5
251
330
1F
100
AcDbEntity
  8
0
  6
Continuous
 62
     7
100
AcDbLine
 10
6050.2188360366
 20
5198.3560309217
 30
0.0
 11
6049.0188455257
 21
5198.3560309217
 31
0.0
  0
LINE
  5
252
330
1F
100
AcDbEntity
  8
0
  6
Continuous
 62
     7
100
AcDbLine
 10
6050.2188360366
 20
5198.343484144
 30
0.0
 11
6050.2188360366
 21
5198.3560309217
 31
0.0
  0
LINE
  5
253
330
1F
100
AcDbEntity
  8
0
  6
Continuous
 62
     7
100
AcDbLine
 10
6049.0188455257
 20
5198.8560244844
 30
0.0
 11
6050.2188360366
 21
5198.8560244844
 31
0.0
  0
LINE
  5
254
330
1F
100
AcDbEntity
  8
0
  6
Continuous
 62
     7
100
AcDbLine
 10
6049.0188455257
 20
5198.3560309217
 30
0.0
 11
6049.0188455257
 21
5198.8560244844
 31
0.0
  0
LINE
  5
255
330
1F
100
AcDbEntity
  8
0
  6
Continuous
 62
     7
100
AcDbLine
 10
6050.2188360366
 20
5198.8560244844
 30
0.0
 11
6050.2188360366
 21
5198.3560309217
 31
0.0
  0
LINE
  5
256
330
1F
100
AcDbEntity
  8
0
  6
Continuous
 62
     7
100
AcDbLine
 10
6499.0188474993
 20
5198.3547792242
 30
0.0
 11
6497.8188430938
 21
5198.3547792242
 31
0.0
  0
LINE
  5
257
330
1F
100
AcDbEntity
  8
0
  6
Continuous
 62
     7
100
AcDbLine
 10
6499.0187441978
 20
5160.0047931478
 30
0.0
 11
6499.0187441978
 21
5160.0547716425
 31
0.0
  0
LINE
  5
258
330
1F
100
AcDbEntity
  8
0
  6
Continuous
 62
     7
100
AcDbLine
 10
6499.0188474993
 20
5196.7547819421
 30
0.0
 11
6499.0188474993
 21
5198.3547792242
 31
0.0
  0
LINE
  5
259
330
1F
100
AcDbEntity
  8
0
  6
Continuous
 62
     7
100
AcDbLine
 10
6497.8188430938
 20
5198.3547792242
 30
0.0
 11
6497.8188430938
 21
5198.3422324464
 31
0.0
  0
LINE
  5
25A
330
1F
100
AcDbEntity
  8
0
  6
Continuous
 62
     7
100
AcDbLine
 10
6497.8187387857
 20
5160.0547716425
 30
0.0
 11
6497.8187387857
 21
5160.0047931478
 31
0.0
  0
LINE
  5
25B
330
1F
100
AcDbEntity
  8
0
  6
Continuous
 62
     7
100
AcDbLine
 10
6497.8188430938
 20
5198.8547727869
 30
0.0
 11
6499.0188474993
 21
5198.8547727869
 31
0.0
  0
LINE
  5
25C
330
1F
100
AcDbEntity
  8
0
  6
Continuous
 62
     7
100
AcDbLine
 10
6499.0188474993
 20
5198.8547727869
 30
0.0
 11
6499.0188474993
 21
5198.3547792242
 31
0.0
  0
LINE
  5
25D
330
1F
100
AcDbEntity
  8
0
  6
Continuous
 62
     7
100
AcDbLine
 10
6497.8188430938
 20
5198.3547792242
 30
0.0
 11
6497.8188430938
 21
5198.8547727869
 31
0.0
  0
LINE
  5
25E
330
1F
100
AcDbEntity
  8
0
  6
Continuous
 62
     7
100
AcDbLine
 10
6281.5691610846
 20
5312.5053927705
 30
0.0
 11
6279.7177812132
 21
5312.5053927705
 31
0.0
  0
LINE
  5
25F
330
1F
100
AcDbEntity
  8
0
  6
Continuous
 62
     7
100
AcDbLine
 10
6279.7177812132
 20
5312.5053927705
 30
0.0
 11
6277.8354963335
 21
5312.5053927705
 31
0.0
  0
LINE
  5
260
330
1F
100
AcDbEntity
  8
0
  6
Continuous
 62
     7
100
AcDbLine
 10
6277.8354963335
 20
5312.5053927705
 30
0.0
 11
6275.9325174662
 21
5312.5053927705
 31
0.0
  0
LINE
  5
261
330
1F
100
AcDbEntity
  8
0
  6
Continuous
 62
     7
100
AcDbLine
 10
6275.9325174662
 20
5312.5053927705
 30
0.0
 11
6274.0191599402
 21
5312.5053927705
 31
0.0
  0
LINE
  5
262
330
1F
100
AcDbEntity
  8
0
  6
Continuous
 62
     7
100
AcDbLine
 10
6274.0191599402
 20
5312.5053927705
 30
0.0
 11
6272.1058061394
 21
5312.5053927705
 31
0.0
  0
LINE
  5
263
330
1F
100
AcDbEntity
  8
0
  6
Continuous
 62
     7
100
AcDbLine
 10
6272.1058061394
 20
5312.5053927705
 30
0.0
 11
6270.2028272721
 21
5312.5054225729
 31
0.0
  0
LINE
  5
264
330
1F
100
AcDbEntity
  8
0
  6
Continuous
 62
     7
100
AcDbLine
 10
6270.2028272721
 20
5312.5054225729
 30
0.0
 11
6268.3205386671
 21
5312.5054225729
 31
0.0
  0
LINE
  5
265
330
1F
100
AcDbEntity
  8
0
  6
Continuous
 62
     7
100
AcDbLine
 10
6268.3205386671
 20
5312.5054225729
 30
0.0
 11
6266.4691587958
 21
5312.5054225729
 31
0.0
  0
LINE
  5
266
330
1F
100
AcDbEntity
  8
0
  6
Continuous
 62
     7
100
AcDbLine
 10
6281.5691312823
 20
5301.9053921506
 30
0.0
 11
6279.7177514109
 21
5301.9053921506
 31
0.0
  0
LINE
  5
267
330
1F
100
AcDbEntity
  8
0
  6
Continuous
 62
     7
100
AcDbLine
 10
6279.7177514109
 20
5301.9053921506
 30
0.0
 11
6277.8354665312
 21
5301.9053921506
 31
0.0
  0
LINE
  5
268
330
1F
100
AcDbEntity
  8
0
  6
Continuous
 62
     7
100
AcDbLine
 10
6277.8354665312
 20
5301.9053921506
 30
0.0
 11
6275.9324876639
 21
5301.9053921506
 31
0.0
  0
LINE
  5
269
330
1F
100
AcDbEntity
  8
0
  6
Continuous
 62
     7
100
AcDbLine
 10
6275.9324876639
 20
5301.9053921506
 30
0.0
 11
6274.0191338631
 21
5301.9053921506
 31
0.0
  0
LINE
  5
26A
330
1F
100
AcDbEntity
  8
0
  6
Continuous
 62
     7
100
AcDbLine
 10
6274.0191338631
 20
5301.9053921506
 30
0.0
 11
6272.1057763371
 21
5301.9053921506
 31
0.0
  0
LINE
  5
26B
330
1F
100
AcDbEntity
  8
0
  6
Continuous
 62
     7
100
AcDbLine
 10
6272.1057763371
 20
5301.9053921506
 30
0.0
 11
6270.2027974698
 21
5301.905421953
 31
0.0
  0
LINE
  5
26C
330
1F
100
AcDbEntity
  8
0
  6
Continuous
 62
     7
100
AcDbLine
 10
6270.2027974698
 20
5301.905421953
 30
0.0
 11
6268.3205163154
 21
5301.905421953
 31
0.0
  0
LINE
  5
26D
330
1F
100
AcDbEntity
  8
0
  6
Continuous
 62
     7
100
AcDbLine
 10
6268.3205163154
 20
5301.905421953
 30
0.0
 11
6266.4691289934
 21
5301.905421953
 31
0.0
  0
LINE
  5
26E
330
1F
100
AcDbEntity
  8
0
  6
Continuous
 62
     7
100
AcDbLine
 10
6154.4157570276
 20
4786.1537024782
 30
0.0
 11
6154.4268136892
 21
4786.1537024782
 31
0.0
  0
LINE
  5
26F
330
1F
100
AcDbEntity
  8
0
  6
Continuous
 62
     7
100
AcDbLine
 10
6154.4268136892
 20
4786.1537024782
 30
0.0
 11
6154.6916669282
 21
4786.1537024782
 31
0.0
  0
LINE
  5
270
330
1F
100
AcDbEntity
  8
0
  6
Continuous
 62
     7
100
AcDbLine
 10
6154.6916669282
 20
4786.1537024782
 30
0.0
 11
6155.3062802228
 21
4786.1537024782
 31
0.0
  0
LINE
  5
271
330
1F
100
AcDbEntity
  8
0
  6
Continuous
 62
     7
100
AcDbLine
 10
6155.3062802228
 20
4786.1537024782
 30
0.0
 11
6156.2626665506
 21
4786.1537024782
 31
0.0
  0
LINE
  5
272
330
1F
100
AcDbEntity
  8
0
  6
Continuous
 62
     7
100
AcDbLine
 10
6156.2626665506
 20
4786.1537024782
 30
0.0
 11
6157.5483387384
 21
4786.1537024782
 31
0.0
  0
LINE
  5
273
330
1F
100
AcDbEntity
  8
0
  6
Continuous
 62
     7
100
AcDbLine
 10
6157.5483387384
 20
4786.1537024782
 30
0.0
 11
6159.1465478811
 21
4786.1537024782
 31
0.0
  0
LINE
  5
274
330
1F
100
AcDbEntity
  8
0
  6
Continuous
 62
     7
100
AcDbLine
 10
6159.1465478811
 20
4786.1537024782
 30
0.0
 11
6161.0364621553
 21
4786.1537024782
 31
0.0
  0
LINE
  5
275
330
1F
100
AcDbEntity
  8
0
  6
Continuous
 62
     7
100
AcDbLine
 10
6161.0364621553
 20
4786.1537024782
 30
0.0
 11
6163.1934350404
 21
4786.1536428735
 31
0.0
  0
LINE
  5
276
330
1F
100
AcDbEntity
  8
0
  6
Continuous
 62
     7
100
AcDbLine
 10
6163.1934350404
 20
4786.1536428735
 30
0.0
 11
6165.5893331441
 21
4786.1536428735
 31
0.0
  0
LINE
  5
277
330
1F
100
AcDbEntity
  8
0
  6
Continuous
 62
     7
100
AcDbLine
 10
6165.5893331441
 20
4786.1536428735
 30
0.0
 11
6168.1929534349
 21
4786.1536428735
 31
0.0
  0
LINE
  5
278
330
1F
100
AcDbEntity
  8
0
  6
Continuous
 62
     7
100
AcDbLine
 10
6168.1929534349
 20
4786.1536428735
 30
0.0
 11
6170.9703361663
 21
4786.1536428735
 31
0.0
  0
LINE
  5
279
330
1F
100
AcDbEntity
  8
0
  6
Continuous
 62
     7
100
AcDbLine
 10
6170.9703361663
 20
4786.1536428735
 30
0.0
 11
6173.8852715167
 21
4786.1536428735
 31
0.0
  0
LINE
  5
27A
330
1F
100
AcDbEntity
  8
0
  6
Continuous
 62
     7
100
AcDbLine
 10
6173.8852715167
 20
4786.1536428735
 30
0.0
 11
6176.8997615251
 21
4786.1536428735
 31
0.0
  0
LINE
  5
27B
330
1F
100
AcDbEntity
  8
0
  6
Continuous
 62
     7
100
AcDbLine
 10
6176.8997615251
 20
4786.1536428735
 30
0.0
 11
6179.9745118293
 21
4786.1536428735
 31
0.0
  0
LINE
  5
27C
330
1F
100
AcDbEntity
  8
0
  6
Continuous
 62
     7
100
AcDbLine
 10
6179.9745118293
 20
4786.1536428735
 30
0.0
 11
6183.0694383058
 21
4786.1536428735
 31
0.0
  0
LINE
  5
27D
330
1F
100
AcDbEntity
  8
0
  6
Continuous
 62
     7
100
AcDbLine
 10
6183.0694383058
 20
4786.1536428735
 30
0.0
 11
6186.14418861
 21
4786.1535832689
 31
0.0
  0
LINE
  5
27E
330
1F
100
AcDbEntity
  8
0
  6
Continuous
 62
     7
100
AcDbLine
 10
6186.14418861
 20
4786.1535832689
 30
0.0
 11
6189.1586786184
 21
4786.1535832689
 31
0.0
  0
LINE
  5
27F
330
1F
100
AcDbEntity
  8
0
  6
Continuous
 62
     7
100
AcDbLine
 10
6189.1586786184
 20
4786.1535832689
 30
0.0
 11
6192.0736139688
 21
4786.1535832689
 31
0.0
  0
LINE
  5
280
330
1F
100
AcDbEntity
  8
0
  6
Continuous
 62
     7
100
AcDbLine
 10
6192.0736139688
 20
4786.1535832689
 30
0.0
 11
6194.8509967002
 21
4786.1535832689
 31
0.0
  0
LINE
  5
281
330
1F
100
AcDbEntity
  8
0
  6
Continuous
 62
     7
100
AcDbLine
 10
6194.8509967002
 20
4786.1535832689
 30
0.0
 11
6197.4546020898
 21
4786.1535832689
 31
0.0
  0
LINE
  5
282
330
1F
100
AcDbEntity
  8
0
  6
Continuous
 62
     7
100
AcDbLine
 10
6197.4546020898
 20
4786.1535832689
 30
0.0
 11
6199.8505150947
 21
4786.1535832689
 31
0.0
  0
LINE
  5
283
330
1F
100
AcDbEntity
  8
0
  6
Continuous
 62
     7
100
AcDbLine
 10
6199.8505150947
 20
4786.1535832689
 30
0.0
 11
6202.0074879798
 21
4786.1535832689
 31
0.0
  0
LINE
  5
284
330
1F
100
AcDbEntity
  8
0
  6
Continuous
 62
     7
100
AcDbLine
 10
6202.0074879798
 20
4786.1535832689
 30
0.0
 11
6203.8973873529
 21
4786.1535832689
 31
0.0
  0
LINE
  5
285
330
1F
100
AcDbEntity
  8
0
  6
Continuous
 62
     7
100
AcDbLine
 10
6203.8973873529
 20
4786.1535832689
 30
0.0
 11
6205.4955964956
 21
4786.1535236642
 31
0.0
  0
LINE
  5
286
330
1F
100
AcDbEntity
  8
0
  6
Continuous
 62
     7
100
AcDbLine
 10
6205.4955964956
 20
4786.1535236642
 30
0.0
 11
6206.7812761339
 21
4786.1535236642
 31
0.0
  0
LINE
  5
287
330
1F
100
AcDbEntity
  8
0
  6
Continuous
 62
     7
100
AcDbLine
 10
6206.7812761339
 20
4786.1535236642
 30
0.0
 11
6207.7376624617
 21
4786.1535236642
 31
0.0
  0
LINE
  5
288
330
1F
100
AcDbEntity
  8
0
  6
Continuous
 62
     7
100
AcDbLine
 10
6207.7376624617
 20
4786.1535236642
 30
0.0
 11
6208.3522832069
 21
4786.1535236642
 31
0.0
  0
LINE
  5
289
330
1F
100
AcDbEntity
  8
0
  6
Continuous
 62
     7
100
AcDbLine
 10
6208.3522832069
 20
4786.1535236642
 30
0.0
 11
6208.6171289953
 21
4786.1535236642
 31
0.0
  0
LINE
  5
28A
330
1F
100
AcDbEntity
  8
0
  6
Continuous
 62
     7
100
AcDbLine
 10
6208.6171289953
 20
4786.1535236642
 30
0.0
 11
6208.628185657
 21
4786.1535236642
 31
0.0
  0
LINE
  5
28B
330
1F
100
AcDbEntity
  8
0
  6
Continuous
 62
     7
100
AcDbLine
 10
6398.1046980294
 20
5469.9656352804
 30
0.0
 11
6398.0603968772
 21
5469.9641451643
 31
0.0
  0
LINE
  5
28C
330
1F
100
AcDbEntity
  8
0
  6
Continuous
 62
     7
100
AcDbLine
 10
6398.0603968772
 20
5469.9641451643
 30
0.0
 11
6397.713207272
 21
5469.9523881481
 31
0.0
  0
LINE
  5
28D
330
1F
100
AcDbEntity
  8
0
  6
Continuous
 62
     7
100
AcDbLine
 10
6397.713207272
 20
5469.9523881481
 30
0.0
 11
6397.0564609441
 21
5469.9301407144
 31
0.0
  0
LINE
  5
28E
330
1F
100
AcDbEntity
  8
0
  6
Continuous
 62
     7
100
AcDbLine
 10
6397.0564609441
 20
5469.9301407144
 30
0.0
 11
6396.1613183889
 21
5469.8998317525
 31
0.0
  0
LINE
  5
28F
330
1F
100
AcDbEntity
  8
0
  6
Continuous
 62
     7
100
AcDbLine
 10
6396.1613183889
 20
5469.8998317525
 30
0.0
 11
6395.1247861656
 21
5469.8647395179
 31
0.0
  0
LINE
  5
290
330
1F
100
AcDbEntity
  8
0
  6
Continuous
 62
     7
100
AcDbLine
 10
6395.1247861656
 20
5469.8647395179
 30
0.0
 11
6394.0591892275
 21
5469.8286638067
 31
0.0
  0
LINE
  5
291
330
1F
100
AcDbEntity
  8
0
  6
Continuous
 62
     7
100
AcDbLine
 10
6394.0591892275
 20
5469.8286638067
 30
0.0
 11
6393.0799929473
 21
5469.795508723
 31
0.0
  0
LINE
  5
292
330
1F
100
AcDbEntity
  8
0
  6
Continuous
 62
     7
100
AcDbLine
 10
6393.0799929473
 20
5469.795508723
 30
0.0
 11
6392.2933196697
 21
5469.7688654468
 31
0.0
  0
LINE
  5
293
330
1F
100
AcDbEntity
  8
0
  6
Continuous
 62
     7
100
AcDbLine
 10
6392.2933196697
 20
5469.7688654468
 30
0.0
 11
6391.7844114873
 21
5469.7516397045
 31
0.0
  0
LINE
  5
294
330
1F
100
AcDbEntity
  8
0
  6
Continuous
 62
     7
100
AcDbLine
 10
6391.7844114873
 20
5469.7516397045
 30
0.0
 11
6391.6084175977
 21
5469.74567924
 31
0.0
  0
LINE
  5
295
330
1F
100
AcDbEntity
  8
0
  6
Continuous
 62
     7
100
AcDbLine
 10
6969.1736599306
 20
4851.4592931078
 30
0.0
 11
6984.1736642519
 21
4851.4592931078
 31
0.0
  0
LINE
  5
296
330
1F
100
AcDbEntity
  8
0
  6
Continuous
 62
     7
100
AcDbLine
 10
7105.1736598709
 20
4853.4592673585
 30
0.0
 11
7112.0674511293
 21
4786.1536428735
 31
0.0
  0
LINE
  5
297
330
1F
100
AcDbEntity
  8
0
  6
Continuous
 62
     7
100
AcDbLine
 10
7166.2798723081
 20
4786.1536428735
 30
0.0
 11
7173.1736561159
 21
4853.4592673585
 31
0.0
  0
LINE
  5
298
330
1F
100
AcDbEntity
  8
0
  6
Continuous
 62
     7
100
AcDbLine
 10
7173.1736561159
 20
4853.4592673585
 30
0.0
 11
7172.5965639451
 21
4858.4059164331
 31
0.0
  0
LINE
  5
299
330
1F
100
AcDbEntity
  8
0
  6
Continuous
 62
     7
100
AcDbLine
 10
7105.7507669428
 20
4858.4059164331
 30
0.0
 11
7105.1736598709
 21
4853.4592673585
 31
0.0
  0
LINE
  5
29A
330
1F
100
AcDbEntity
  8
0
  6
Continuous
 62
     7
100
AcDbLine
 10
6956.0416912535
 20
4893.9699097008
 30
0.0
 11
6956.3969349364
 21
4893.9699097008
 31
0.0
  0
LINE
  5
29B
330
1F
100
AcDbEntity
  8
0
  6
Continuous
 62
     7
100
AcDbLine
 10
6956.3969349364
 20
4914.3699095056
 30
0.0
 11
6956.0416912535
 21
4914.3699095056
 31
0.0
  0
LINE
  5
29C
330
1F
100
AcDbEntity
  8
0
  6
Continuous
 62
     7
100
AcDbLine
 10
6954.5214822391
 20
4894.169909361
 30
0.0
 11
6956.0416912535
 21
4894.169909361
 31
0.0
  0
LINE
  5
29D
330
1F
100
AcDbEntity
  8
0
  6
Continuous
 62
     7
100
AcDbLine
 10
6952.5676345328
 20
4894.169909361
 30
0.0
 11
6952.8121476868
 21
4894.169909361
 31
0.0
  0
LINE
  5
29E
330
1F
100
AcDbEntity
  8
0
  6
Continuous
 62
     7
100
AcDbLine
 10
6950.6137868265
 20
4894.169909361
 30
0.0
 11
6950.8582999805
 21
4894.169909361
 31
0.0
  0
LINE
  5
29F
330
1F
100
AcDbEntity
  8
0
  6
Continuous
 62
     7
100
AcDbLine
 10
6948.6599391201
 20
4894.169909361
 30
0.0
 11
6948.9044597247
 21
4894.169909361
 31
0.0
  0
LINE
  5
2A0
330
1F
100
AcDbEntity
  8
0
  6
Continuous
 62
     7
100
AcDbLine
 10
6946.7060914138
 20
4894.169909361
 30
0.0
 11
6946.9506120184
 21
4894.169909361
 31
0.0
  0
LINE
  5
2A1
330
1F
100
AcDbEntity
  8
0
  6
Continuous
 62
     7
100
AcDbLine
 10
6945.9732299546
 20
4914.1699094961
 30
0.0
 11
6945.7293426493
 21
4914.1699094961
 31
0.0
  0
LINE
  5
2A2
330
1F
100
AcDbEntity
  8
0
  6
Continuous
 62
     7
100
AcDbLine
 10
6947.9270702103
 20
4914.1699094961
 30
0.0
 11
6947.6831903556
 21
4914.1699094961
 31
0.0
  0
LINE
  5
2A3
330
1F
100
AcDbEntity
  8
0
  6
Continuous
 62
     7
100
AcDbLine
 10
6949.8809179166
 20
4914.1699094961
 30
0.0
 11
6949.6370380619
 21
4914.1699094961
 31
0.0
  0
LINE
  5
2A4
330
1F
100
AcDbEntity
  8
0
  6
Continuous
 62
     7
100
AcDbLine
 10
6951.8347656229
 20
4914.1699094961
 30
0.0
 11
6951.5908857683
 21
4914.1699094961
 31
0.0
  0
LINE
  5
2A5
330
1F
100
AcDbEntity
  8
0
  6
Continuous
 62
     7
100
AcDbLine
 10
6956.0416912535
 20
4914.1699094961
 30
0.0
 11
6953.544726024
 21
4914.1699094961
 31
0.0
  0
LINE
  5
2A6
330
1F
100
AcDbEntity
  8
0
  6
Continuous
 62
     7
100
AcDbLine
 10
6944.5182880262
 20
4913.146505778
 30
0.0
 11
6944.0416892866
 21
4912.6699095995
 31
0.0
  0
LINE
  5
2A7
330
1F
100
AcDbEntity
  8
0
  6
Continuous
 62
     7
100
AcDbLine
 10
6944.0416892866
 20
4895.6699086756
 30
0.0
 11
6945.1284682253
 21
4894.5831353248
 31
0.0
  0
LINE
  5
2A8
330
1F
100
AcDbEntity
  8
0
  6
Continuous
 62
     7
100
AcDbLine
 10
6947.5607549647
 20
4895.2274596721
 30
0.0
 11
6948.0396559337
 21
4895.2274596721
 31
0.0
  0
LINE
  5
2A9
330
1F
100
AcDbEntity
  8
0
  6
Continuous
 62
     7
100
AcDbLine
 10
6949.5145952204
 20
4895.2274596721
 30
0.0
 11
6949.99350364
 21
4895.2274596721
 31
0.0
  0
LINE
  5
2AA
330
1F
100
AcDbEntity
  8
0
  6
Continuous
 62
     7
100
AcDbLine
 10
6951.4684429267
 20
4895.2274596721
 30
0.0
 11
6951.9473513463
 21
4895.2274596721
 31
0.0
  0
LINE
  5
2AB
330
1F
100
AcDbEntity
  8
0
  6
Continuous
 62
     7
100
AcDbLine
 10
6953.422290633
 20
4895.2274596721
 30
0.0
 11
6953.9011916021
 21
4895.2274596721
 31
0.0
  0
LINE
  5
2AC
330
1F
100
AcDbEntity
  8
0
  6
Continuous
 62
     7
100
AcDbLine
 10
6947.0722874502
 20
4913.1123590686
 30
0.0
 11
6946.5935280422
 21
4913.1123590686
 31
0.0
  0
LINE
  5
2AD
330
1F
100
AcDbEntity
  8
0
  6
Continuous
 62
     7
100
AcDbLine
 10
6949.0261351565
 20
4913.1123590686
 30
0.0
 11
6948.5473757485
 21
4913.1123590686
 31
0.0
  0
LINE
  5
2AE
330
1F
100
AcDbEntity
  8
0
  6
Continuous
 62
     7
100
AcDbLine
 10
6950.9799828628
 20
4913.1123590686
 30
0.0
 11
6950.5012160042
 21
4913.1123590686
 31
0.0
  0
LINE
  5
2AF
330
1F
100
AcDbEntity
  8
0
  6
Continuous
 62
     7
100
AcDbLine
 10
6952.9338305691
 20
4913.1123590686
 30
0.0
 11
6952.4550637105
 21
4913.1123590686
 31
0.0
  0
LINE
  5
2B0
330
1F
100
AcDbEntity
  8
0
  6
Continuous
 62
     7
100
AcDbLine
 10
6945.1184471944
 20
4913.1123590686
 30
0.0
 11
6944.6299796799
 21
4913.1123590686
 31
0.0
  0
LINE
  5
2B1
330
1F
100
AcDbEntity
  8
0
  6
Continuous
 62
     7
100
AcDbLine
 10
6945.6069072584
 20
4895.2274596721
 30
0.0
 11
6946.0858082274
 21
4895.2274596721
 31
0.0
  0
LINE
  5
2B2
330
1F
100
AcDbEntity
  8
0
  6
Continuous
 62
     7
100
AcDbLine
 10
6956.0416912535
 20
4893.9699097008
 30
0.0
 11
6956.0416912535
 21
4914.3699095056
 31
0.0
  0
LINE
  5
2B3
330
1F
100
AcDbEntity
  8
0
  6
Continuous
 62
     7
100
AcDbLine
 10
6944.0416892866
 20
4912.6650404122
 30
0.0
 11
6944.0416892866
 21
4912.6699095995
 31
0.0
  0
LINE
  5
2B4
330
1F
100
AcDbEntity
  8
0
  6
Continuous
 62
     7
100
AcDbLine
 10
6944.0416892866
 20
4895.6699086756
 30
0.0
 11
6944.0416892866
 21
4912.6650404122
 31
0.0
  0
LINE
  5
2B5
330
1F
100
AcDbEntity
  8
0
  6
Continuous
 62
     7
100
AcDbLine
 10
6956.2456285456
 20
5060.2209851549
 30
0.0
 11
6956.3969349364
 21
5060.885100107
 31
0.0
  0
LINE
  5
2B6
330
1F
100
AcDbEntity
  8
0
  6
Continuous
 62
     7
100
AcDbLine
 10
7001.4066411057
 20
5470.3790530965
 30
0.0
 11
7001.3969367245
 21
5470.3957423971
 31
0.0
  0
LINE
  5
2B7
330
1F
100
AcDbEntity
  8
0
  6
Continuous
 62
     7
100
AcDbLine
 10
7001.4066411057
 20
5418.5749575899
 30
0.0
 11
7001.3969367245
 21
5418.5916617916
 31
0.0
  0
LINE
  5
2B8
330
1F
100
AcDbEntity
  8
0
  6
Continuous
 62
     7
100
AcDbLine
 10
7003.8969380656
 20
5472.8714660213
 30
0.0
 11
7001.3969367245
 21
5472.8714660213
 31
0.0
  0
LINE
  5
2B9
330
1F
100
AcDbEntity
  8
0
  6
Continuous
 62
     7
100
AcDbLine
 10
7001.3969367245
 20
5412.8714636371
 30
0.0
 11
7003.8969380656
 21
5412.8714636371
 31
0.0
  0
LINE
  5
2BA
330
1F
100
AcDbEntity
  8
0
  6
Continuous
 62
     7
100
AcDbLine
 10
7003.8969380656
 20
5412.8714636371
 30
0.0
 11
7004.3969353536
 21
5413.3714571998
 31
0.0
  0
LINE
  5
2BB
330
1F
100
AcDbEntity
  8
0
  6
Continuous
 62
     7
100
AcDbLine
 10
7004.3969353536
 20
5472.3714575574
 30
0.0
 11
7003.8969380656
 21
5472.8714660213
 31
0.0
  0
LINE
  5
2BC
330
1F
100
AcDbEntity
  8
0
  6
Continuous
 62
     7
100
AcDbLine
 10
7015.8969363073
 20
5428.8714662597
 30
0.0
 11
7135.3969400624
 21
5428.8714662597
 31
0.0
  0
LINE
  5
2BD
330
1F
100
AcDbEntity
  8
0
  6
Continuous
 62
     7
100
AcDbLine
 10
7004.3969353536
 20
5428.8714662597
 30
0.0
 11
7009.7676249096
 21
5428.8714662597
 31
0.0
  0
LINE
  5
2BE
330
1F
100
AcDbEntity
  8
0
  6
Continuous
 62
     7
100
AcDbLine
 10
7169.3969419101
 20
5456.8714633987
 30
0.0
 11
7004.3969353536
 21
5456.8714633987
 31
0.0
  0
LINE
  5
2BF
330
1F
100
AcDbEntity
  8
0
  6
Continuous
 62
     7
100
AcDbLine
 10
7170.3969439367
 20
5455.8714613721
 30
0.0
 11
7169.3969419101
 21
5456.8714633987
 31
0.0
  0
LINE
  5
2C0
330
1F
100
AcDbEntity
  8
0
  6
Continuous
 62
     7
100
AcDbLine
 10
7001.3969367245
 20
5288.4053871439
 30
0.0
 11
7003.3969370523
 21
5288.4053871439
 31
0.0
  0
LINE
  5
2C1
330
1F
100
AcDbEntity
  8
0
  6
Continuous
 62
     7
100
AcDbLine
 10
7003.3969370523
 20
5328.4054086015
 30
0.0
 11
7001.3969367245
 21
5328.4054086015
 31
0.0
  0
LINE
  5
2C2
330
1F
100
AcDbEntity
  8
0
  6
Continuous
 62
     7
100
AcDbLine
 10
7010.7969375202
 20
5312.7053961561
 30
0.0
 11
7010.7969375202
 21
5315.847782831
 31
0.0
  0
LINE
  5
2C3
330
1F
100
AcDbEntity
  8
0
  6
Continuous
 62
     7
100
AcDbLine
 10
7010.7969375202
 20
5300.9630427167
 30
0.0
 11
7010.7969375202
 21
5301.7053887651
 31
0.0
  0
LINE
  5
2C4
330
1F
100
AcDbEntity
  8
0
  6
Continuous
 62
     7
100
AcDbLine
 10
7001.3969367245
 20
5412.8714636371
 30
0.0
 11
7004.3969353536
 21
5412.8711209104
 31
0.0
  0
LINE
  5
2C5
330
1F
100
AcDbEntity
  8
0
  6
Continuous
 62
     7
100
AcDbLine
 10
7004.3969353536
 20
5472.8711232946
 30
0.0
 11
7003.8969380656
 21
5472.8714660213
 31
0.0
  0
LINE
  5
2C6
330
1F
100
AcDbEntity
  8
0
  6
Continuous
 62
     7
100
AcDbLine
 10
7006.3969356814
 20
5419.8711201952
 30
0.0
 11
7033.1703232476
 21
5419.8711201952
 31
0.0
  0
LINE
  5
2C7
330
1F
100
AcDbEntity
  8
0
  6
Continuous
 62
     7
100
AcDbLine
 10
7033.1703232476
 20
5465.8711240099
 30
0.0
 11
7007.154812465
 21
5465.8711240099
 31
0.0
  0
LINE
  5
2C8
330
1F
100
AcDbEntity
  8
0
  6
Continuous
 62
     7
100
AcDbLine
 10
7033.1703232476
 20
5419.9211284921
 30
0.0
 11
7047.9703232521
 21
5419.9211284921
 31
0.0
  0
LINE
  5
2C9
330
1F
100
AcDbEntity
  8
0
  6
Continuous
 62
     7
100
AcDbLine
 10
7047.9703232521
 20
5465.821130614
 30
0.0
 11
7033.1703232476
 21
5465.821130614
 31
0.0
  0
LINE
  5
2CA
330
1F
100
AcDbEntity
  8
0
  6
Continuous
 62
     7
100
AcDbLine
 10
7048.1703229124
 20
5419.9211284921
 30
0.0
 11
7053.1703228006
 21
5419.9211284921
 31
0.0
  0
LINE
  5
2CB
330
1F
100
AcDbEntity
  8
0
  6
Continuous
 62
     7
100
AcDbLine
 10
7053.1703228006
 20
5465.821130614
 30
0.0
 11
7048.1703229124
 21
5465.821130614
 31
0.0
  0
LINE
  5
2CC
330
1F
100
AcDbEntity
  8
0
  6
Continuous
 62
     7
100
AcDbLine
 10
7053.1703228006
 20
5420.1711252735
 30
0.0
 11
7091.1703234414
 21
5420.1711252735
 31
0.0
  0
LINE
  5
2CD
330
1F
100
AcDbEntity
  8
0
  6
Continuous
 62
     7
100
AcDbLine
 10
7073.9129384855
 20
5465.5711189315
 30
0.0
 11
7053.1703228006
 21
5465.5711189315
 31
0.0
  0
LINE
  5
2CE
330
1F
100
AcDbEntity
  8
0
  6
Continuous
 62
     7
100
AcDbLine
 10
7091.1703234414
 20
5465.5711189315
 30
0.0
 11
7080.4203240076
 21
5465.5711189315
 31
0.0
  0
LINE
  5
2CF
330
1F
100
AcDbEntity
  8
0
  6
Continuous
 62
     7
100
AcDbLine
 10
7048.1703229124
 20
5464.8711219833
 30
0.0
 11
7047.9703232521
 21
5464.8711219833
 31
0.0
  0
LINE
  5
2D0
330
1F
100
AcDbEntity
  8
0
  6
Continuous
 62
     7
100
AcDbLine
 10
7047.9703232521
 20
5420.8711222217
 30
0.0
 11
7048.1703229124
 21
5420.8711222217
 31
0.0
  0
LINE
  5
2D1
330
1F
100
AcDbEntity
  8
0
  6
Continuous
 62
     7
100
AcDbLine
 10
7080.4203240076
 20
5465.5239716575
 30
0.0
 11
7080.4203240076
 21
5469.8556647108
 31
0.0
  0
LINE
  5
2D2
330
1F
100
AcDbEntity
  8
0
  6
Continuous
 62
     7
100
AcDbLine
 10
7073.9203220108
 20
5469.8556647108
 30
0.0
 11
7073.9203220108
 21
5465.5220047042
 31
0.0
  0
LINE
  5
2D3
330
1F
100
AcDbEntity
  8
0
  6
Continuous
 62
     7
100
AcDbLine
 10
6957.5722118715
 20
5159.5560297773
 30
0.0
 11
6957.617645512
 21
5159.5560297773
 31
0.0
  0
LINE
  5
2D4
330
1F
100
AcDbEntity
  8
0
  6
Continuous
 62
     7
100
AcDbLine
 10
7010.7969375202
 20
5301.9053921506
 30
0.0
 11
7010.7969375202
 21
5312.5053927705
 31
0.0
  0
LINE
  5
2D5
330
1F
100
AcDbEntity
  8
0
  6
Continuous
 62
     7
100
AcDbLine
 10
7431.3969513276
 20
5160.05602334
 30
0.0
 11
7430.1969310144
 21
5160.05602334
 31
0.0
  0
LINE
  5
2D6
330
1F
100
AcDbEntity
  8
0
  6
Continuous
 62
     7
100
AcDbLine
 10
7431.3969513276
 20
5196.7560336397
 30
0.0
 11
7431.3969513276
 21
5160.05602334
 31
0.0
  0
LINE
  5
2D7
330
1F
100
AcDbEntity
  8
0
  6
Continuous
 62
     7
100
AcDbLine
 10
7431.3969513276
 20
5196.7560336397
 30
0.0
 11
7430.1969310144
 21
5196.7560336397
 31
0.0
  0
LINE
  5
2D8
330
1F
100
AcDbEntity
  8
0
  6
Continuous
 62
     7
100
AcDbLine
 10
7430.1969310144
 20
5196.7560336397
 30
0.0
 11
7430.1969310144
 21
5160.05602334
 31
0.0
  0
LINE
  5
2D9
330
1F
100
AcDbEntity
  8
0
  6
Continuous
 62
     7
100
AcDbLine
 10
7001.8469368914
 20
5160.05602334
 30
0.0
 11
7429.7469457487
 21
5160.05602334
 31
0.0
  0
LINE
  5
2DA
330
1F
100
AcDbEntity
  8
0
  6
Continuous
 62
     7
100
AcDbLine
 10
7429.7469457487
 20
5158.4265217588
 30
0.0
 11
7429.7469457487
 21
5160.05602334
 31
0.0
  0
LINE
  5
2DB
330
1F
100
AcDbEntity
  8
0
  6
Continuous
 62
     7
100
AcDbLine
 10
7001.8469368914
 20
5160.05602334
 30
0.0
 11
7001.8469368914
 21
5158.406017761
 31
0.0
  0
LINE
  5
2DC
330
1F
100
AcDbEntity
  8
0
  6
Continuous
 62
     7
100
AcDbLine
 10
7001.8469368914
 20
5196.7560336397
 30
0.0
 11
7429.7469457487
 21
5196.7560336397
 31
0.0
  0
LINE
  5
2DD
330
1F
100
AcDbEntity
  8
0
  6
Continuous
 62
     7
100
AcDbLine
 10
7429.7469457487
 20
5160.05602334
 30
0.0
 11
7429.7469457487
 21
5196.7560336397
 31
0.0
  0
LINE
  5
2DE
330
1F
100
AcDbEntity
  8
0
  6
Continuous
 62
     7
100
AcDbLine
 10
7001.8469368914
 20
5196.7560336397
 30
0.0
 11
7001.8469368914
 21
5160.05602334
 31
0.0
  0
LINE
  5
2DF
330
1F
100
AcDbEntity
  8
0
  6
Continuous
 62
     7
100
AcDbLine
 10
6999.7469385961
 20
5198.8560244844
 30
0.0
 11
6958.0469405154
 21
5198.8560244844
 31
0.0
  0
LINE
  5
2E0
330
1F
100
AcDbEntity
  8
0
  6
Continuous
 62
     7
100
AcDbLine
 10
6958.0469405154
 20
5198.8560244844
 30
0.0
 11
6958.0469405154
 21
5642.1571359441
 31
0.0
  0
LINE
  5
2E1
330
1F
100
AcDbEntity
  8
0
  6
Continuous
 62
     7
100
AcDbLine
 10
6958.0469405154
 20
5642.1571359441
 30
0.0
 11
6958.0469405154
 21
5642.631870176
 31
0.0
  0
LINE
  5
2E2
330
1F
100
AcDbEntity
  8
0
  6
Continuous
 62
     7
100
AcDbLine
 10
6958.0469405154
 20
5642.631870176
 30
0.0
 11
6999.7469385961
 21
5627.4543119997
 31
0.0
  0
LINE
  5
2E3
330
1F
100
AcDbEntity
  8
0
  6
Continuous
 62
     7
100
AcDbLine
 10
6999.7469385961
 20
5627.4543119997
 30
0.0
 11
6999.7469385961
 21
5198.8560244844
 31
0.0
  0
LINE
  5
2E4
330
1F
100
AcDbEntity
  8
0
  6
Continuous
 62
     7
100
AcDbLine
 10
7000.0145597258
 20
5627.4124355458
 30
0.0
 11
7000.1105455557
 21
5627.3972060934
 31
0.0
  0
LINE
  5
2E5
330
1F
100
AcDbEntity
  8
0
  6
Continuous
 62
     7
100
AcDbLine
 10
7001.3969367245
 20
5627.0506758646
 30
0.0
 11
7001.3343891004
 21
5627.1216566146
 31
0.0
  0
LINE
  5
2E6
330
1F
100
AcDbEntity
  8
0
  6
Continuous
 62
     7
100
AcDbLine
 10
7001.3969367245
 20
5627.0506758646
 30
0.0
 11
7001.3969367245
 21
5198.8560244844
 31
0.0
  0
LINE
  5
2E7
330
1F
100
AcDbEntity
  8
0
  6
Continuous
 62
     7
100
AcDbLine
 10
7001.3469358781
 20
5198.8560244844
 30
0.0
 11
7001.3969367245
 21
5198.8560244844
 31
0.0
  0
LINE
  5
2E8
330
1F
100
AcDbEntity
  8
0
  6
Continuous
 62
     7
100
AcDbLine
 10
7000.0145597258
 20
5627.4124355458
 30
0.0
 11
6999.7469385961
 21
5627.4543119997
 31
0.0
  0
LINE
  5
2E9
330
1F
100
AcDbEntity
  8
0
  6
Continuous
 62
     7
100
AcDbLine
 10
7001.8469368914
 20
5198.4060094163
 30
0.0
 11
7429.7469457487
 21
5198.4060094163
 31
0.0
  0
LINE
  5
2EA
330
1F
100
AcDbEntity
  8
0
  6
Continuous
 62
     7
100
AcDbLine
 10
7429.7469457487
 20
5196.7560336397
 30
0.0
 11
7429.7469457487
 21
5198.4060094163
 31
0.0
  0
LINE
  5
2EB
330
1F
100
AcDbEntity
  8
0
  6
Continuous
 62
     7
100
AcDbLine
 10
7001.3469358781
 20
5198.8560244844
 30
0.0
 11
7001.3969367245
 21
5198.8560244844
 31
0.0
  0
LINE
  5
2EC
330
1F
100
AcDbEntity
  8
0
  6
Continuous
 62
     7
100
AcDbLine
 10
6958.0469405154
 20
5198.8560244844
 30
0.0
 11
6956.3969349364
 21
5198.8560244844
 31
0.0
  0
LINE
  5
2ED
330
1F
100
AcDbEntity
  8
0
  6
Continuous
 62
     7
100
AcDbLine
 10
6956.3969349364
 20
5642.1571322188
 30
0.0
 11
6956.3969349364
 21
5198.8560244844
 31
0.0
  0
LINE
  5
2EE
330
1F
100
AcDbEntity
  8
0
  6
Continuous
 62
     7
100
AcDbLine
 10
6958.0469405154
 20
5642.1571359441
 30
0.0
 11
6957.7250381807
 21
5642.1571359441
 31
0.0
  0
LINE
  5
2EF
330
1F
100
AcDbEntity
  8
0
  6
Continuous
 62
     7
100
AcDbLine
 10
6957.7250381807
 20
5642.1571359441
 30
0.0
 11
6957.4155112604
 21
5642.1571359441
 31
0.0
  0
LINE
  5
2F0
330
1F
100
AcDbEntity
  8
0
  6
Continuous
 62
     7
100
AcDbLine
 10
6957.4155112604
 20
5642.1571359441
 30
0.0
 11
6957.1302434305
 21
5642.1571359441
 31
0.0
  0
LINE
  5
2F1
330
1F
100
AcDbEntity
  8
0
  6
Continuous
 62
     7
100
AcDbLine
 10
6957.1302434305
 20
5642.1571359441
 30
0.0
 11
6956.8802093962
 21
5642.1571340815
 31
0.0
  0
LINE
  5
2F2
330
1F
100
AcDbEntity
  8
0
  6
Continuous
 62
     7
100
AcDbLine
 10
6956.8802093962
 20
5642.1571340815
 30
0.0
 11
6956.675012956
 21
5642.1571340815
 31
0.0
  0
LINE
  5
2F3
330
1F
100
AcDbEntity
  8
0
  6
Continuous
 62
     7
100
AcDbLine
 10
6956.675012956
 20
5642.1571340815
 30
0.0
 11
6956.5225368241
 21
5642.1571322188
 31
0.0
  0
LINE
  5
2F4
330
1F
100
AcDbEntity
  8
0
  6
Continuous
 62
     7
100
AcDbLine
 10
6956.5225368241
 20
5642.1571322188
 30
0.0
 11
6956.4286446074
 21
5642.1571322188
 31
0.0
  0
LINE
  5
2F5
330
1F
100
AcDbEntity
  8
0
  6
Continuous
 62
     7
100
AcDbLine
 10
6956.4286446074
 20
5642.1571322188
 30
0.0
 11
6956.3969349364
 21
5642.1571322188
 31
0.0
  0
LINE
  5
2F6
330
1F
100
AcDbEntity
  8
0
  6
Continuous
 62
     7
100
AcDbLine
 10
7431.3969513276
 20
5160.05602334
 30
0.0
 11
7431.3969513276
 21
5160.0547716425
 31
0.0
  0
LINE
  5
2F7
330
1F
100
AcDbEntity
  8
0
  6
Continuous
 62
     7
100
AcDbLine
 10
6999.9008452395
 20
5627.4723014266
 30
0.0
 11
6999.9008452395
 21
5627.4735386886
 31
0.0
  0
LINE
  5
2F8
330
1F
100
AcDbEntity
  8
0
  6
Continuous
 62
     7
100
AcDbLine
 10
6999.9008452395
 20
5627.4735386886
 30
0.0
 11
7000.0178379813
 21
5627.4003530324
 31
0.0
  0
LINE
  5
2F9
330
1F
100
AcDbEntity
  8
0
  6
Continuous
 62
     7
100
AcDbLine
 10
6999.9972147742
 20
5627.4139051729
 30
0.0
 11
6999.9008452395
 21
5627.4723014266
 31
0.0
  0
LINE
  5
2FA
330
1F
100
AcDbEntity
  8
0
  6
Continuous
 62
     7
100
AcDbLine
 10
6958.2177599767
 20
5642.644940357
 30
0.0
 11
6958.2177599767
 21
5642.6437035606
 31
0.0
  0
LINE
  5
2FB
330
1F
100
AcDbEntity
  8
0
  6
Continuous
 62
     7
100
AcDbLine
 10
6958.2177599767
 20
5642.6437035606
 30
0.0
 11
6999.9008452395
 21
5627.4723014266
 31
0.0
  0
LINE
  5
2FC
330
1F
100
AcDbEntity
  8
0
  6
Continuous
 62
     7
100
AcDbLine
 10
6958.2177599767
 20
5642.644940357
 30
0.0
 11
6999.9008452395
 21
5627.4735386886
 31
0.0
  0
LINE
  5
2FD
330
1F
100
AcDbEntity
  8
0
  6
Continuous
 62
     7
100
AcDbLine
 10
6958.6281826595
 20
5643.7725726918
 30
0.0
 11
6958.2177599767
 21
5642.644940357
 31
0.0
  0
LINE
  5
2FE
330
1F
100
AcDbEntity
  8
0
  6
Continuous
 62
     7
100
AcDbLine
 10
6958.6281826595
 20
5643.7725726918
 30
0.0
 11
7000.3112716475
 21
5628.6011700921
 31
0.0
  0
LINE
  5
2FF
330
1F
100
AcDbEntity
  8
0
  6
Continuous
 62
     7
100
AcDbLine
 10
6999.9008452395
 20
5627.4735386886
 30
0.0
 11
7000.3112716475
 21
5628.6011700921
 31
0.0
  0
LINE
  5
300
330
1F
100
AcDbEntity
  8
0
  6
Continuous
 62
     7
100
AcDbLine
 10
6957.6138531664
 20
5642.2220789299
 30
0.0
 11
6957.5969403485
 21
5642.2220789299
 31
0.0
  0
LINE
  5
301
330
1F
100
AcDbEntity
  8
0
  6
Continuous
 62
     7
100
AcDbLine
 10
6957.5969328979
 20
5642.3813090131
 30
0.0
 11
6957.5969403485
 21
5642.2220789299
 31
0.0
  0
LINE
  5
302
330
1F
100
AcDbEntity
  8
0
  6
Continuous
 62
     7
100
AcDbLine
 10
6957.6649641493
 20
5643.8231379197
 30
0.0
 11
6957.5969328979
 21
5642.3813090131
 31
0.0
  0
LINE
  5
303
330
1F
100
AcDbEntity
  8
0
  6
Continuous
 62
     7
100
AcDbLine
 10
7429.7469457487
 20
5158.406017761
 30
0.0
 11
7429.7469457487
 21
5158.4265217588
 31
0.0
  0
LINE
  5
304
330
1F
100
AcDbEntity
  8
0
  6
Continuous
 62
     7
100
AcDbLine
 10
6957.5969403485
 20
5642.2220789299
 30
0.0
 11
6956.4138477543
 21
5642.2220789299
 31
0.0
  0
LINE
  5
305
330
1F
100
AcDbEntity
  8
0
  6
Continuous
 62
     7
100
AcDbLine
 10
6956.4138477543
 20
5642.1571322188
 30
0.0
 11
6956.4138477543
 21
5642.2220789299
 31
0.0
  0
LINE
  5
306
330
1F
100
AcDbEntity
  8
0
  6
Continuous
 62
     7
100
AcDbLine
 10
6957.6138531664
 20
5642.1571359441
 30
0.0
 11
6957.6138531664
 21
5642.2220789299
 31
0.0
  0
LINE
  5
307
330
1F
100
AcDbEntity
  8
0
  6
Continuous
 62
     7
100
AcDbLine
 10
7430.1262399057
 20
5160.0547716425
 30
0.0
 11
7430.1150044301
 21
5159.8050877855
 31
0.0
  0
LINE
  5
308
330
1F
100
AcDbEntity
  8
0
  6
Continuous
 62
     7
100
AcDbLine
 10
7430.1969310144
 20
5196.7547819421
 30
0.0
 11
7429.7469457487
 21
5196.7547819421
 31
0.0
  0
LINE
  5
309
330
1F
100
AcDbEntity
  8
0
  6
Continuous
 62
     7
100
AcDbLine
 10
7430.1262399057
 20
5160.0547716425
 30
0.0
 11
7430.1967820028
 21
5160.0547716425
 31
0.0
  0
LINE
  5
30A
330
1F
100
AcDbEntity
  8
0
  6
Continuous
 62
     7
100
AcDbLine
 10
6969.1736599306
 20
4858.4047839449
 30
0.0
 11
6969.1736599306
 21
4851.4592931078
 31
0.0
  0
LINE
  5
30B
330
1F
100
AcDbEntity
  8
0
  6
Continuous
 62
     7
100
AcDbLine
 10
7105.1736598709
 20
4853.4592673585
 30
0.0
 11
7105.3538670638
 21
4853.4593269632
 31
0.0
  0
LINE
  5
30C
330
1F
100
AcDbEntity
  8
0
  6
Continuous
 62
     7
100
AcDbLine
 10
7105.3538670638
 20
4853.4593269632
 30
0.0
 11
7105.8925663927
 21
4853.4593269632
 31
0.0
  0
LINE
  5
30D
330
1F
100
AcDbEntity
  8
0
  6
Continuous
 62
     7
100
AcDbLine
 10
7105.8925663927
 20
4853.4593269632
 30
0.0
 11
7106.7840581635
 21
4853.4593269632
 31
0.0
  0
LINE
  5
30E
330
1F
100
AcDbEntity
  8
0
  6
Continuous
 62
     7
100
AcDbLine
 10
7106.7840581635
 20
4853.4593269632
 30
0.0
 11
7108.0188875893
 21
4853.4593269632
 31
0.0
  0
LINE
  5
30F
330
1F
100
AcDbEntity
  8
0
  6
Continuous
 62
     7
100
AcDbLine
 10
7108.0188875893
 20
4853.4593269632
 30
0.0
 11
7109.5839640001
 21
4853.4593269632
 31
0.0
  0
LINE
  5
310
330
1F
100
AcDbEntity
  8
0
  6
Continuous
 62
     7
100
AcDbLine
 10
7109.5839640001
 20
4853.4593269632
 30
0.0
 11
7111.4627024034
 21
4853.4593269632
 31
0.0
  0
LINE
  5
311
330
1F
100
AcDbEntity
  8
0
  6
Continuous
 62
     7
100
AcDbLine
 10
7111.4627024034
 20
4853.4593269632
 30
0.0
 11
7113.6351799467
 21
4853.4593269632
 31
0.0
  0
LINE
  5
312
330
1F
100
AcDbEntity
  8
0
  6
Continuous
 62
     7
100
AcDbLine
 10
7113.6351799467
 20
4853.4593269632
 30
0.0
 11
7116.0783668855
 21
4853.4593865678
 31
0.0
  0
LINE
  5
313
330
1F
100
AcDbEntity
  8
0
  6
Continuous
 62
     7
100
AcDbLine
 10
7116.0783668855
 20
4853.4593865678
 30
0.0
 11
7118.7663799027
 21
4853.4593865678
 31
0.0
  0
LINE
  5
314
330
1F
100
AcDbEntity
  8
0
  6
Continuous
 62
     7
100
AcDbLine
 10
7118.7663799027
 20
4853.4593865678
 30
0.0
 11
7121.6707056263
 21
4853.4593865678
 31
0.0
  0
LINE
  5
315
330
1F
100
AcDbEntity
  8
0
  6
Continuous
 62
     7
100
AcDbLine
 10
7121.6707056263
 20
4853.4593865678
 30
0.0
 11
7124.7605731586
 21
4853.4593865678
 31
0.0
  0
LINE
  5
316
330
1F
100
AcDbEntity
  8
0
  6
Continuous
 62
     7
100
AcDbLine
 10
7124.7605731586
 20
4853.4593865678
 30
0.0
 11
7128.0032222966
 21
4853.4593865678
 31
0.0
  0
LINE
  5
317
330
1F
100
AcDbEntity
  8
0
  6
Continuous
 62
     7
100
AcDbLine
 10
7128.0032222966
 20
4853.4593865678
 30
0.0
 11
7131.364283512
 21
4853.4593865678
 31
0.0
  0
LINE
  5
318
330
1F
100
AcDbEntity
  8
0
  6
Continuous
 62
     7
100
AcDbLine
 10
7131.364283512
 20
4853.4593865678
 30
0.0
 11
7134.8081206778
 21
4853.4593865678
 31
0.0
  0
LINE
  5
319
330
1F
100
AcDbEntity
  8
0
  6
Continuous
 62
     7
100
AcDbLine
 10
7134.8081206778
 20
4853.4593865678
 30
0.0
 11
7138.2982333997
 21
4853.4593865678
 31
0.0
  0
LINE
  5
31A
330
1F
100
AcDbEntity
  8
0
  6
Continuous
 62
     7
100
AcDbLine
 10
7138.2982333997
 20
4853.4593865678
 30
0.0
 11
7141.7976295451
 21
4853.4593865678
 31
0.0
  0
LINE
  5
31B
330
1F
100
AcDbEntity
  8
0
  6
Continuous
 62
     7
100
AcDbLine
 10
7141.7976295451
 20
4853.4593865678
 30
0.0
 11
7145.269212673
 21
4853.4593865678
 31
0.0
  0
LINE
  5
31C
330
1F
100
AcDbEntity
  8
0
  6
Continuous
 62
     7
100
AcDbLine
 10
7145.269212673
 20
4853.4593865678
 30
0.0
 11
7148.6761769155
 21
4853.4593865678
 31
0.0
  0
LINE
  5
31D
330
1F
100
AcDbEntity
  8
0
  6
Continuous
 62
     7
100
AcDbLine
 10
7148.6761769155
 20
4853.4593865678
 30
0.0
 11
7151.9824093083
 21
4853.4593865678
 31
0.0
  0
LINE
  5
31E
330
1F
100
AcDbEntity
  8
0
  6
Continuous
 62
     7
100
AcDbLine
 10
7151.9824093083
 20
4853.4593865678
 30
0.0
 11
7155.1528697709
 21
4853.4593865678
 31
0.0
  0
LINE
  5
31F
330
1F
100
AcDbEntity
  8
0
  6
Continuous
 62
     7
100
AcDbLine
 10
7155.1528697709
 20
4853.4593865678
 30
0.0
 11
7158.1539487341
 21
4853.4593865678
 31
0.0
  0
LINE
  5
320
330
1F
100
AcDbEntity
  8
0
  6
Continuous
 62
     7
100
AcDbLine
 10
7158.1539487341
 20
4853.4593865678
 30
0.0
 11
7160.953832219
 21
4853.4593865678
 31
0.0
  0
LINE
  5
321
330
1F
100
AcDbEntity
  8
0
  6
Continuous
 62
     7
100
AcDbLine
 10
7160.953832219
 20
4853.4593865678
 30
0.0
 11
7163.5228371123
 21
4853.4593865678
 31
0.0
  0
LINE
  5
322
330
1F
100
AcDbEntity
  8
0
  6
Continuous
 62
     7
100
AcDbLine
 10
7163.5228371123
 20
4853.4593865678
 30
0.0
 11
7165.833731542
 21
4853.4593269632
 31
0.0
  0
LINE
  5
323
330
1F
100
AcDbEntity
  8
0
  6
Continuous
 62
     7
100
AcDbLine
 10
7165.833731542
 20
4853.4593269632
 30
0.0
 11
7167.8620329002
 21
4853.4593269632
 31
0.0
  0
LINE
  5
324
330
1F
100
AcDbEntity
  8
0
  6
Continuous
 62
     7
100
AcDbLine
 10
7167.8620329002
 20
4853.4593269632
 30
0.0
 11
7169.5862313608
 21
4853.4593269632
 31
0.0
  0
LINE
  5
325
330
1F
100
AcDbEntity
  8
0
  6
Continuous
 62
     7
100
AcDbLine
 10
7169.5862313608
 20
4853.4593269632
 30
0.0
 11
7170.9880282977
 21
4853.4593269632
 31
0.0
  0
LINE
  5
326
330
1F
100
AcDbEntity
  8
0
  6
Continuous
 62
     7
100
AcDbLine
 10
7170.9880282977
 20
4853.4593269632
 30
0.0
 11
7172.0526119569
 21
4853.4593269632
 31
0.0
  0
LINE
  5
327
330
1F
100
AcDbEntity
  8
0
  6
Continuous
 62
     7
100
AcDbLine
 10
7172.0526119569
 20
4853.4593269632
 30
0.0
 11
7172.7686574558
 21
4853.4593269632
 31
0.0
  0
LINE
  5
328
330
1F
100
AcDbEntity
  8
0
  6
Continuous
 62
     7
100
AcDbLine
 10
7172.7686574558
 20
4853.4593269632
 30
0.0
 11
7173.1285801032
 21
4853.4593269632
 31
0.0
  0
LINE
  5
329
330
1F
100
AcDbEntity
  8
0
  6
Continuous
 62
     7
100
AcDbLine
 10
7173.1285801032
 20
4853.4593269632
 30
0.0
 11
7173.1736561159
 21
4853.4592673585
 31
0.0
  0
LINE
  5
32A
330
1F
100
AcDbEntity
  8
0
  6
Continuous
 62
     7
100
AcDbLine
 10
7115.0518333414
 20
4783.4592745111
 30
0.0
 11
7115.227711747
 21
4783.4592745111
 31
0.0
  0
LINE
  5
32B
330
1F
100
AcDbEntity
  8
0
  6
Continuous
 62
     7
100
AcDbLine
 10
7115.227711747
 20
4783.4592745111
 30
0.0
 11
7115.7527690628
 21
4783.4593341157
 31
0.0
  0
LINE
  5
32C
330
1F
100
AcDbEntity
  8
0
  6
Continuous
 62
     7
100
AcDbLine
 10
7115.7527690628
 20
4783.4593341157
 30
0.0
 11
7116.6193609932
 21
4783.4593341157
 31
0.0
  0
LINE
  5
32D
330
1F
100
AcDbEntity
  8
0
  6
Continuous
 62
     7
100
AcDbLine
 10
7116.6193609932
 20
4783.4593341157
 30
0.0
 11
7117.8148439029
 21
4783.4593341157
 31
0.0
  0
LINE
  5
32E
330
1F
100
AcDbEntity
  8
0
  6
Continuous
 62
     7
100
AcDbLine
 10
7117.8148439029
 20
4783.4593341157
 30
0.0
 11
7119.3217908839
 21
4783.4593341157
 31
0.0
  0
LINE
  5
32F
330
1F
100
AcDbEntity
  8
0
  6
Continuous
 62
     7
100
AcDbLine
 10
7119.3217908839
 20
4783.4593341157
 30
0.0
 11
7121.1182152728
 21
4783.4593341157
 31
0.0
  0
LINE
  5
330
330
1F
100
AcDbEntity
  8
0
  6
Continuous
 62
     7
100
AcDbLine
 10
7121.1182152728
 20
4783.4593341157
 30
0.0
 11
7123.1779357294
 21
4783.4593341157
 31
0.0
  0
LINE
  5
331
330
1F
100
AcDbEntity
  8
0
  6
Continuous
 62
     7
100
AcDbLine
 10
7123.1779357294
 20
4783.4593341157
 30
0.0
 11
7125.4709040621
 21
4783.4593341157
 31
0.0
  0
LINE
  5
332
330
1F
100
AcDbEntity
  8
0
  6
Continuous
 62
     7
100
AcDbLine
 10
7125.4709040621
 20
4783.4593341157
 30
0.0
 11
7127.9636895159
 21
4783.4593341157
 31
0.0
  0
LINE
  5
333
330
1F
100
AcDbEntity
  8
0
  6
Continuous
 62
     7
100
AcDbLine
 10
7127.9636895159
 20
4783.4593341157
 30
0.0
 11
7130.6199481586
 21
4783.4593341157
 31
0.0
  0
LINE
  5
334
330
1F
100
AcDbEntity
  8
0
  6
Continuous
 62
     7
100
AcDbLine
 10
7130.6199481586
 20
4783.4593341157
 30
0.0
 11
7133.4009295205
 21
4783.4593341157
 31
0.0
  0
LINE
  5
335
330
1F
100
AcDbEntity
  8
0
  6
Continuous
 62
     7
100
AcDbLine
 10
7133.4009295205
 20
4783.4593341157
 30
0.0
 11
7136.2660949925
 21
4783.4593341157
 31
0.0
  0
LINE
  5
336
330
1F
100
AcDbEntity
  8
0
  6
Continuous
 62
     7
100
AcDbLine
 10
7136.2660949925
 20
4783.4593341157
 30
0.0
 11
7139.1736617187
 21
4783.4593341157
 31
0.0
  0
LINE
  5
337
330
1F
100
AcDbEntity
  8
0
  6
Continuous
 62
     7
100
AcDbLine
 10
7139.1736617187
 20
4783.4593341157
 30
0.0
 11
7142.0812284449
 21
4783.4593341157
 31
0.0
  0
LINE
  5
338
330
1F
100
AcDbEntity
  8
0
  6
Continuous
 62
     7
100
AcDbLine
 10
7142.0812284449
 20
4783.4593341157
 30
0.0
 11
7144.9463939169
 21
4783.4593341157
 31
0.0
  0
LINE
  5
339
330
1F
100
AcDbEntity
  8
0
  6
Continuous
 62
     7
100
AcDbLine
 10
7144.9463939169
 20
4783.4593341157
 30
0.0
 11
7147.7273827294
 21
4783.4593341157
 31
0.0
  0
LINE
  5
33A
330
1F
100
AcDbEntity
  8
0
  6
Continuous
 62
     7
100
AcDbLine
 10
7147.7273827294
 20
4783.4593341157
 30
0.0
 11
7150.3836339215
 21
4783.4593341157
 31
0.0
  0
LINE
  5
33B
330
1F
100
AcDbEntity
  8
0
  6
Continuous
 62
     7
100
AcDbLine
 10
7150.3836339215
 20
4783.4593341157
 30
0.0
 11
7152.8764268258
 21
4783.4593341157
 31
0.0
  0
LINE
  5
33C
330
1F
100
AcDbEntity
  8
0
  6
Continuous
 62
     7
100
AcDbLine
 10
7152.8764268258
 20
4783.4593341157
 30
0.0
 11
7155.1693951586
 21
4783.4593341157
 31
0.0
  0
LINE
  5
33D
330
1F
100
AcDbEntity
  8
0
  6
Continuous
 62
     7
100
AcDbLine
 10
7155.1693951586
 20
4783.4593341157
 30
0.0
 11
7157.2291081646
 21
4783.4593341157
 31
0.0
  0
LINE
  5
33E
330
1F
100
AcDbEntity
  8
0
  6
Continuous
 62
     7
100
AcDbLine
 10
7157.2291081646
 20
4783.4593341157
 30
0.0
 11
7159.0255400041
 21
4783.4593341157
 31
0.0
  0
LINE
  5
33F
330
1F
100
AcDbEntity
  8
0
  6
Continuous
 62
     7
100
AcDbLine
 10
7159.0255400041
 20
4783.4593341157
 30
0.0
 11
7160.5324795345
 21
4783.4593341157
 31
0.0
  0
LINE
  5
340
330
1F
100
AcDbEntity
  8
0
  6
Continuous
 62
     7
100
AcDbLine
 10
7160.5324795345
 20
4783.4593341157
 30
0.0
 11
7161.7279624442
 21
4783.4593341157
 31
0.0
  0
LINE
  5
341
330
1F
100
AcDbEntity
  8
0
  6
Continuous
 62
     7
100
AcDbLine
 10
7161.7279624442
 20
4783.4593341157
 30
0.0
 11
7162.5945543745
 21
4783.4593341157
 31
0.0
  0
LINE
  5
342
330
1F
100
AcDbEntity
  8
0
  6
Continuous
 62
     7
100
AcDbLine
 10
7162.5945543745
 20
4783.4593341157
 30
0.0
 11
7163.1196191409
 21
4783.4592745111
 31
0.0
  0
LINE
  5
343
330
1F
100
AcDbEntity
  8
0
  6
Continuous
 62
     7
100
AcDbLine
 10
7163.1196191409
 20
4783.4592745111
 30
0.0
 11
7163.2954900959
 21
4783.4592745111
 31
0.0
  0
LINE
  5
344
330
1F
100
AcDbEntity
  8
0
  6
Continuous
 62
     7
100
AcDbLine
 10
7163.2954900959
 20
4783.4592745111
 30
0.0
 11
7163.1196191409
 21
4783.4592745111
 31
0.0
  0
LINE
  5
345
330
1F
100
AcDbEntity
  8
0
  6
Continuous
 62
     7
100
AcDbLine
 10
7163.1196191409
 20
4783.4592745111
 30
0.0
 11
7162.5945543745
 21
4783.4592745111
 31
0.0
  0
LINE
  5
346
330
1F
100
AcDbEntity
  8
0
  6
Continuous
 62
     7
100
AcDbLine
 10
7162.5945543745
 20
4783.4592745111
 30
0.0
 11
7161.7279624442
 21
4783.4592745111
 31
0.0
  0
LINE
  5
347
330
1F
100
AcDbEntity
  8
0
  6
Continuous
 62
     7
100
AcDbLine
 10
7161.7279624442
 20
4783.4592745111
 30
0.0
 11
7160.5324795345
 21
4783.4592745111
 31
0.0
  0
LINE
  5
348
330
1F
100
AcDbEntity
  8
0
  6
Continuous
 62
     7
100
AcDbLine
 10
7160.5324795345
 20
4783.4592745111
 30
0.0
 11
7159.0255400041
 21
4783.4592745111
 31
0.0
  0
LINE
  5
349
330
1F
100
AcDbEntity
  8
0
  6
Continuous
 62
     7
100
AcDbLine
 10
7159.0255400041
 20
4783.4592745111
 30
0.0
 11
7157.2291081646
 21
4783.4592745111
 31
0.0
  0
LINE
  5
34A
330
1F
100
AcDbEntity
  8
0
  6
Continuous
 62
     7
100
AcDbLine
 10
7157.2291081646
 20
4783.4592745111
 30
0.0
 11
7155.1693951586
 21
4783.4592149065
 31
0.0
  0
LINE
  5
34B
330
1F
100
AcDbEntity
  8
0
  6
Continuous
 62
     7
100
AcDbLine
 10
7155.1693951586
 20
4783.4592149065
 30
0.0
 11
7152.8764268258
 21
4783.4592149065
 31
0.0
  0
LINE
  5
34C
330
1F
100
AcDbEntity
  8
0
  6
Continuous
 62
     7
100
AcDbLine
 10
7152.8764268258
 20
4783.4592149065
 30
0.0
 11
7150.3836339215
 21
4783.4592149065
 31
0.0
  0
LINE
  5
34D
330
1F
100
AcDbEntity
  8
0
  6
Continuous
 62
     7
100
AcDbLine
 10
7150.3836339215
 20
4783.4592149065
 30
0.0
 11
7147.7273827294
 21
4783.4592149065
 31
0.0
  0
LINE
  5
34E
330
1F
100
AcDbEntity
  8
0
  6
Continuous
 62
     7
100
AcDbLine
 10
7147.7273827294
 20
4783.4592149065
 30
0.0
 11
7144.9463939169
 21
4783.4592149065
 31
0.0
  0
LINE
  5
34F
330
1F
100
AcDbEntity
  8
0
  6
Continuous
 62
     7
100
AcDbLine
 10
7144.9463939169
 20
4783.4592149065
 30
0.0
 11
7142.0812284449
 21
4783.4592149065
 31
0.0
  0
LINE
  5
350
330
1F
100
AcDbEntity
  8
0
  6
Continuous
 62
     7
100
AcDbLine
 10
7142.0812284449
 20
4783.4592149065
 30
0.0
 11
7139.1736617187
 21
4783.4592149065
 31
0.0
  0
LINE
  5
351
330
1F
100
AcDbEntity
  8
0
  6
Continuous
 62
     7
100
AcDbLine
 10
7139.1736617187
 20
4783.4592149065
 30
0.0
 11
7136.2660949925
 21
4783.4592149065
 31
0.0
  0
LINE
  5
352
330
1F
100
AcDbEntity
  8
0
  6
Continuous
 62
     7
100
AcDbLine
 10
7136.2660949925
 20
4783.4592149065
 30
0.0
 11
7133.4009295205
 21
4783.4592149065
 31
0.0
  0
LINE
  5
353
330
1F
100
AcDbEntity
  8
0
  6
Continuous
 62
     7
100
AcDbLine
 10
7133.4009295205
 20
4783.4592149065
 30
0.0
 11
7130.6199481586
 21
4783.4592149065
 31
0.0
  0
LINE
  5
354
330
1F
100
AcDbEntity
  8
0
  6
Continuous
 62
     7
100
AcDbLine
 10
7130.6199481586
 20
4783.4592149065
 30
0.0
 11
7127.9636895159
 21
4783.4592149065
 31
0.0
  0
LINE
  5
355
330
1F
100
AcDbEntity
  8
0
  6
Continuous
 62
     7
100
AcDbLine
 10
7127.9636895159
 20
4783.4592149065
 30
0.0
 11
7125.4709040621
 21
4783.4592149065
 31
0.0
  0
LINE
  5
356
330
1F
100
AcDbEntity
  8
0
  6
Continuous
 62
     7
100
AcDbLine
 10
7125.4709040621
 20
4783.4592149065
 30
0.0
 11
7123.1779357294
 21
4783.4592149065
 31
0.0
  0
LINE
  5
357
330
1F
100
AcDbEntity
  8
0
  6
Continuous
 62
     7
100
AcDbLine
 10
7123.1779357294
 20
4783.4592149065
 30
0.0
 11
7121.1182152728
 21
4783.4592745111
 31
0.0
  0
LINE
  5
358
330
1F
100
AcDbEntity
  8
0
  6
Continuous
 62
     7
100
AcDbLine
 10
7121.1182152728
 20
4783.4592745111
 30
0.0
 11
7119.3217908839
 21
4783.4592745111
 31
0.0
  0
LINE
  5
359
330
1F
100
AcDbEntity
  8
0
  6
Continuous
 62
     7
100
AcDbLine
 10
7119.3217908839
 20
4783.4592745111
 30
0.0
 11
7117.8148439029
 21
4783.4592745111
 31
0.0
  0
LINE
  5
35A
330
1F
100
AcDbEntity
  8
0
  6
Continuous
 62
     7
100
AcDbLine
 10
7117.8148439029
 20
4783.4592745111
 30
0.0
 11
7116.6193609932
 21
4783.4592745111
 31
0.0
  0
LINE
  5
35B
330
1F
100
AcDbEntity
  8
0
  6
Continuous
 62
     7
100
AcDbLine
 10
7116.6193609932
 20
4783.4592745111
 30
0.0
 11
7115.7527690628
 21
4783.4592745111
 31
0.0
  0
LINE
  5
35C
330
1F
100
AcDbEntity
  8
0
  6
Continuous
 62
     7
100
AcDbLine
 10
7115.7527690628
 20
4783.4592745111
 30
0.0
 11
7115.227711747
 21
4783.4592745111
 31
0.0
  0
LINE
  5
35D
330
1F
100
AcDbEntity
  8
0
  6
Continuous
 62
     7
100
AcDbLine
 10
7115.227711747
 20
4783.4592745111
 30
0.0
 11
7115.0518333414
 21
4783.4592745111
 31
0.0
  0
LINE
  5
35E
330
1F
100
AcDbEntity
  8
0
  6
Continuous
 62
     7
100
AcDbLine
 10
6955.8969339231
 20
5588.1916866109
 30
0.0
 11
6956.3969349364
 21
5588.1916866109
 31
0.0
  0
LINE
  5
35F
330
1F
100
AcDbEntity
  8
0
  6
Continuous
 62
     7
100
AcDbLine
 10
6955.8969339231
 20
5588.1916866109
 30
0.0
 11
6956.3969349364
 21
5588.1916866109
 31
0.0
  0
LINE
  5
360
330
1F
100
AcDbEntity
  8
0
  6
Continuous
 62
     7
100
AcDbLine
 10
6955.8969339231
 20
5588.1916866109
 30
0.0
 11
6955.8969339231
 21
5637.98121963
 31
0.0
  0
LINE
  5
361
330
1F
100
AcDbEntity
  8
0
  6
Continuous
 62
     7
100
AcDbLine
 10
6956.3969349364
 20
5637.98121963
 30
0.0
 11
6955.8969339231
 21
5637.98121963
 31
0.0
  0
LINE
  5
362
330
1F
100
AcDbEntity
  8
0
  6
Continuous
 62
     7
100
AcDbLine
 10
7015.8969363073
 20
5428.8714662597
 30
0.0
 11
7015.7827561596
 21
5428.8714662597
 31
0.0
  0
LINE
  5
363
330
1F
100
AcDbEntity
  8
0
  6
Continuous
 62
     7
100
AcDbLine
 10
7015.7827561596
 20
5428.8714662597
 30
0.0
 11
7015.4575979212
 21
5428.8714662597
 31
0.0
  0
LINE
  5
364
330
1F
100
AcDbEntity
  8
0
  6
Continuous
 62
     7
100
AcDbLine
 10
7015.4575979212
 20
5428.8714662597
 30
0.0
 11
7014.9709613869
 21
5428.8714662597
 31
0.0
  0
LINE
  5
365
330
1F
100
AcDbEntity
  8
0
  6
Continuous
 62
     7
100
AcDbLine
 10
7014.9709613869
 20
5428.8714662597
 30
0.0
 11
7014.3969369927
 21
5428.8714662597
 31
0.0
  0
LINE
  5
366
330
1F
100
AcDbEntity
  8
0
  6
Continuous
 62
     7
100
AcDbLine
 10
7014.3969369927
 20
5428.8714662597
 30
0.0
 11
7013.8229125986
 21
5428.8714662597
 31
0.0
  0
LINE
  5
367
330
1F
100
AcDbEntity
  8
0
  6
Continuous
 62
     7
100
AcDbLine
 10
7013.8229125986
 20
5428.8714662597
 30
0.0
 11
7013.3362760642
 21
5428.8714662597
 31
0.0
  0
LINE
  5
368
330
1F
100
AcDbEntity
  8
0
  6
Continuous
 62
     7
100
AcDbLine
 10
7013.3362760642
 20
5428.8714662597
 30
0.0
 11
7013.0111178258
 21
5428.8714662597
 31
0.0
  0
LINE
  5
369
330
1F
100
AcDbEntity
  8
0
  6
Continuous
 62
     7
100
AcDbLine
 10
7013.0111178258
 20
5428.8714662597
 30
0.0
 11
7012.8969376782
 21
5428.8714662597
 31
0.0
  0
LINE
  5
36A
330
1F
100
AcDbEntity
  8
0
  6
Continuous
 62
     7
100
AcDbLine
 10
7012.8969376782
 20
5428.8714662597
 30
0.0
 11
7013.0111178258
 21
5428.8714662597
 31
0.0
  0
LINE
  5
36B
330
1F
100
AcDbEntity
  8
0
  6
Continuous
 62
     7
100
AcDbLine
 10
7013.0111178258
 20
5428.8714662597
 30
0.0
 11
7013.3362760642
 21
5428.8714513586
 31
0.0
  0
LINE
  5
36C
330
1F
100
AcDbEntity
  8
0
  6
Continuous
 62
     7
100
AcDbLine
 10
7013.3362760642
 20
5428.8714513586
 30
0.0
 11
7013.8229125986
 21
5428.8714513586
 31
0.0
  0
LINE
  5
36D
330
1F
100
AcDbEntity
  8
0
  6
Continuous
 62
     7
100
AcDbLine
 10
7013.8229125986
 20
5428.8714513586
 30
0.0
 11
7014.3969369927
 21
5428.8714513586
 31
0.0
  0
LINE
  5
36E
330
1F
100
AcDbEntity
  8
0
  6
Continuous
 62
     7
100
AcDbLine
 10
7014.3969369927
 20
5428.8714513586
 30
0.0
 11
7014.9709613869
 21
5428.8714513586
 31
0.0
  0
LINE
  5
36F
330
1F
100
AcDbEntity
  8
0
  6
Continuous
 62
     7
100
AcDbLine
 10
7014.9709613869
 20
5428.8714513586
 30
0.0
 11
7015.4575979212
 21
5428.8714513586
 31
0.0
  0
LINE
  5
370
330
1F
100
AcDbEntity
  8
0
  6
Continuous
 62
     7
100
AcDbLine
 10
7015.4575979212
 20
5428.8714513586
 30
0.0
 11
7015.7827561596
 21
5428.8714662597
 31
0.0
  0
LINE
  5
371
330
1F
100
AcDbEntity
  8
0
  6
Continuous
 62
     7
100
AcDbLine
 10
7015.7827561596
 20
5428.8714662597
 30
0.0
 11
7015.8969363073
 21
5428.8714662597
 31
0.0
  0
LINE
  5
372
330
1F
100
AcDbEntity
  8
0
  6
Continuous
 62
     7
100
AcDbLine
 10
7013.2809182504
 20
5428.8714662597
 30
0.0
 11
7013.5822644332
 21
5428.8714513586
 31
0.0
  0
LINE
  5
373
330
1F
100
AcDbEntity
  8
0
  6
Continuous
 62
     7
100
AcDbLine
 10
7013.5822644332
 20
5428.8714513586
 30
0.0
 11
7014.6982831756
 21
5428.8714513586
 31
0.0
  0
LINE
  5
374
330
1F
100
AcDbEntity
  8
0
  6
Continuous
 62
     7
100
AcDbLine
 10
7014.6982831756
 20
5428.8714513586
 30
0.0
 11
7015.5129557351
 21
5428.8714662597
 31
0.0
  0
LINE
  5
375
330
1F
100
AcDbEntity
  8
0
  6
Continuous
 62
     7
100
AcDbLine
 10
7015.5129557351
 20
5428.8714662597
 30
0.0
 11
7015.2116095522
 21
5428.8714662597
 31
0.0
  0
LINE
  5
376
330
1F
100
AcDbEntity
  8
0
  6
Continuous
 62
     7
100
AcDbLine
 10
7015.2116095522
 20
5428.8714662597
 30
0.0
 11
7014.0955908099
 21
5428.8714662597
 31
0.0
  0
LINE
  5
377
330
1F
100
AcDbEntity
  8
0
  6
Continuous
 62
     7
100
AcDbLine
 10
7014.0955908099
 20
5428.8714662597
 30
0.0
 11
7013.2809182504
 21
5428.8714662597
 31
0.0
  0
LINE
  5
378
330
1F
100
AcDbEntity
  8
0
  6
Continuous
 62
     7
100
AcDbLine
 10
7163.7586777905
 20
5436.4709690616
 30
0.0
 11
7163.8103550175
 21
5436.4848122404
 31
0.0
  0
LINE
  5
379
330
1F
100
AcDbEntity
  8
0
  6
Continuous
 62
     7
100
AcDbLine
 10
7163.8103550175
 20
5436.4848122404
 30
0.0
 11
7163.8473247984
 21
5436.4947215126
 31
0.0
  0
LINE
  5
37A
330
1F
100
AcDbEntity
  8
0
  6
Continuous
 62
     7
100
AcDbLine
 10
7163.8473247984
 20
5436.4947215126
 30
0.0
 11
7163.8695275286
 21
5436.5006670759
 31
0.0
  0
LINE
  5
37B
330
1F
100
AcDbEntity
  8
0
  6
Continuous
 62
     7
100
AcDbLine
 10
7163.8695275286
 20
5436.5006670759
 30
0.0
 11
7163.8769408563
 21
5436.5026489303
 31
0.0
  0
LINE
  5
37C
330
1F
100
AcDbEntity
  8
0
  6
Continuous
 62
     7
100
AcDbLine
 10
7163.8769408563
 20
5436.5026489303
 30
0.0
 11
7163.8695275286
 21
5436.5006670759
 31
0.0
  0
LINE
  5
37D
330
1F
100
AcDbEntity
  8
0
  6
Continuous
 62
     7
100
AcDbLine
 10
7163.8695275286
 20
5436.5006670759
 30
0.0
 11
7163.8473247984
 21
5436.4947215126
 31
0.0
  0
LINE
  5
37E
330
1F
100
AcDbEntity
  8
0
  6
Continuous
 62
     7
100
AcDbLine
 10
7163.8473247984
 20
5436.4947215126
 30
0.0
 11
7163.8103550175
 21
5436.4848122404
 31
0.0
  0
LINE
  5
37F
330
1F
100
AcDbEntity
  8
0
  6
Continuous
 62
     7
100
AcDbLine
 10
7163.8103550175
 20
5436.4848122404
 30
0.0
 11
7163.7586777905
 21
5436.4709690616
 31
0.0
  0
LINE
  5
380
330
1F
100
AcDbEntity
  8
0
  6
Continuous
 62
     7
100
AcDbLine
 10
7160.1518517235
 20
5435.5045393512
 30
0.0
 11
7160.4430278638
 21
5435.5825618312
 31
0.0
  0
LINE
  5
381
330
1F
100
AcDbEntity
  8
0
  6
Continuous
 62
     7
100
AcDbLine
 10
7160.4430278638
 20
5435.5825618312
 30
0.0
 11
7160.7250844935
 21
5435.6581405208
 31
0.0
  0
LINE
  5
382
330
1F
100
AcDbEntity
  8
0
  6
Continuous
 62
     7
100
AcDbLine
 10
7160.7250844935
 20
5435.6581405208
 30
0.0
 11
7160.9975596765
 21
5435.7311413095
 31
0.0
  0
LINE
  5
383
330
1F
100
AcDbEntity
  8
0
  6
Continuous
 62
     7
100
AcDbLine
 10
7160.9975596765
 20
5435.7311413095
 30
0.0
 11
7161.2599914769
 21
5435.8014598892
 31
0.0
  0
LINE
  5
384
330
1F
100
AcDbEntity
  8
0
  6
Continuous
 62
     7
100
AcDbLine
 10
7161.2599914769
 20
5435.8014598892
 30
0.0
 11
7161.5119477609
 21
5435.8689770505
 31
0.0
  0
LINE
  5
385
330
1F
100
AcDbEntity
  8
0
  6
Continuous
 62
     7
100
AcDbLine
 10
7161.5119477609
 20
5435.8689770505
 30
0.0
 11
7161.7530112961
 21
5435.9335735843
 31
0.0
  0
LINE
  5
386
330
1F
100
AcDbEntity
  8
0
  6
Continuous
 62
     7
100
AcDbLine
 10
7161.7530112961
 20
5435.9335735843
 30
0.0
 11
7161.9827872017
 21
5435.9951302812
 31
0.0
  0
LINE
  5
387
330
1F
100
AcDbEntity
  8
0
  6
Continuous
 62
     7
100
AcDbLine
 10
7161.9827872017
 20
5435.9951302812
 30
0.0
 11
7162.2008880475
 21
5436.0535726354
 31
0.0
  0
LINE
  5
388
330
1F
100
AcDbEntity
  8
0
  6
Continuous
 62
     7
100
AcDbLine
 10
7147.6833572486
 20
5432.1636096046
 30
0.0
 11
7147.9014580944
 21
5432.2220519588
 31
0.0
  0
LINE
  5
389
330
1F
100
AcDbEntity
  8
0
  6
Continuous
 62
     7
100
AcDbLine
 10
7147.9014580944
 20
5432.2220519588
 30
0.0
 11
7148.1312340001
 21
5432.2836235569
 31
0.0
  0
LINE
  5
38A
330
1F
100
AcDbEntity
  8
0
  6
Continuous
 62
     7
100
AcDbLine
 10
7148.1312340001
 20
5432.2836235569
 30
0.0
 11
7148.3722975353
 21
5432.3482200906
 31
0.0
  0
LINE
  5
38B
330
1F
100
AcDbEntity
  8
0
  6
Continuous
 62
     7
100
AcDbLine
 10
7148.3722975353
 20
5432.3482200906
 30
0.0
 11
7148.6242538193
 21
5432.4157223508
 31
0.0
  0
LINE
  5
38C
330
1F
100
AcDbEntity
  8
0
  6
Continuous
 62
     7
100
AcDbLine
 10
7148.6242538193
 20
5432.4157223508
 30
0.0
 11
7148.8866856197
 21
5432.4860409305
 31
0.0
  0
LINE
  5
38D
330
1F
100
AcDbEntity
  8
0
  6
Continuous
 62
     7
100
AcDbLine
 10
7148.8866856197
 20
5432.4860409305
 30
0.0
 11
7149.1591608027
 21
5432.5590566204
 31
0.0
  0
LINE
  5
38E
330
1F
100
AcDbEntity
  8
0
  6
Continuous
 62
     7
100
AcDbLine
 10
7149.1591608027
 20
5432.5590566204
 30
0.0
 11
7149.4412174323
 21
5432.6346353099
 31
0.0
  0
LINE
  5
38F
330
1F
100
AcDbEntity
  8
0
  6
Continuous
 62
     7
100
AcDbLine
 10
7149.4412174323
 20
5432.6346353099
 30
0.0
 11
7149.7324010232
 21
5432.7126130865
 31
0.0
  0
LINE
  5
390
330
1F
100
AcDbEntity
  8
0
  6
Continuous
 62
     7
100
AcDbLine
 10
7146.1255675057
 20
5431.7461833761
 30
0.0
 11
7146.0738977292
 21
5431.7323401973
 31
0.0
  0
LINE
  5
391
330
1F
100
AcDbEntity
  8
0
  6
Continuous
 62
     7
100
AcDbLine
 10
7146.0738977292
 20
5431.7323401973
 30
0.0
 11
7146.0369204977
 21
5431.7224309251
 31
0.0
  0
LINE
  5
392
330
1F
100
AcDbEntity
  8
0
  6
Continuous
 62
     7
100
AcDbLine
 10
7146.0369204977
 20
5431.7224309251
 30
0.0
 11
7146.0147177676
 21
5431.7164853618
 31
0.0
  0
LINE
  5
393
330
1F
100
AcDbEntity
  8
0
  6
Continuous
 62
     7
100
AcDbLine
 10
7146.0147177676
 20
5431.7164853618
 30
0.0
 11
7146.0073118905
 21
5431.7145035074
 31
0.0
  0
LINE
  5
394
330
1F
100
AcDbEntity
  8
0
  6
Continuous
 62
     7
100
AcDbLine
 10
7146.0073118905
 20
5431.7145035074
 30
0.0
 11
7146.0147177676
 21
5431.7164853618
 31
0.0
  0
LINE
  5
395
330
1F
100
AcDbEntity
  8
0
  6
Continuous
 62
     7
100
AcDbLine
 10
7146.0147177676
 20
5431.7164853618
 30
0.0
 11
7146.0369204977
 21
5431.7224458263
 31
0.0
  0
LINE
  5
396
330
1F
100
AcDbEntity
  8
0
  6
Continuous
 62
     7
100
AcDbLine
 10
7146.0369204977
 20
5431.7224458263
 30
0.0
 11
7146.0738977292
 21
5431.7323401973
 31
0.0
  0
LINE
  5
397
330
1F
100
AcDbEntity
  8
0
  6
Continuous
 62
     7
100
AcDbLine
 10
7146.0738977292
 20
5431.7323401973
 30
0.0
 11
7146.1255675057
 21
5431.7461982772
 31
0.0
  0
LINE
  5
398
330
1F
100
AcDbEntity
  8
0
  6
Continuous
 62
     7
100
AcDbLine
 10
7149.7324010232
 20
5432.7126130865
 30
0.0
 11
7149.4412174323
 21
5432.6345906065
 31
0.0
  0
LINE
  5
399
330
1F
100
AcDbEntity
  8
0
  6
Continuous
 62
     7
100
AcDbLine
 10
7149.4412174323
 20
5432.6345906065
 30
0.0
 11
7149.1591608027
 21
5432.5590119169
 31
0.0
  0
LINE
  5
39A
330
1F
100
AcDbEntity
  8
0
  6
Continuous
 62
     7
100
AcDbLine
 10
7149.1591608027
 20
5432.5590119169
 30
0.0
 11
7148.8866856197
 21
5432.4860111282
 31
0.0
  0
LINE
  5
39B
330
1F
100
AcDbEntity
  8
0
  6
Continuous
 62
     7
100
AcDbLine
 10
7148.8866856197
 20
5432.4860111282
 30
0.0
 11
7148.6242538193
 21
5432.4156925485
 31
0.0
  0
LINE
  5
39C
330
1F
100
AcDbEntity
  8
0
  6
Continuous
 62
     7
100
AcDbLine
 10
7148.6242538193
 20
5432.4156925485
 30
0.0
 11
7148.3722975353
 21
5432.3481753872
 31
0.0
  0
LINE
  5
39D
330
1F
100
AcDbEntity
  8
0
  6
Continuous
 62
     7
100
AcDbLine
 10
7148.3722975353
 20
5432.3481753872
 30
0.0
 11
7148.1312340001
 21
5432.2835937545
 31
0.0
  0
LINE
  5
39E
330
1F
100
AcDbEntity
  8
0
  6
Continuous
 62
     7
100
AcDbLine
 10
7148.1312340001
 20
5432.2835937545
 30
0.0
 11
7147.9014580944
 21
5432.2220221565
 31
0.0
  0
LINE
  5
39F
330
1F
100
AcDbEntity
  8
0
  6
Continuous
 62
     7
100
AcDbLine
 10
7147.9014580944
 20
5432.2220221565
 30
0.0
 11
7147.6833572486
 21
5432.1635798023
 31
0.0
  0
LINE
  5
3A0
330
1F
100
AcDbEntity
  8
0
  6
Continuous
 62
     7
100
AcDbLine
 10
7162.2008880475
 20
5436.0535428331
 30
0.0
 11
7161.9827872017
 21
5435.9951004789
 31
0.0
  0
LINE
  5
3A1
330
1F
100
AcDbEntity
  8
0
  6
Continuous
 62
     7
100
AcDbLine
 10
7161.9827872017
 20
5435.9951004789
 30
0.0
 11
7161.7530112961
 21
5435.9335288808
 31
0.0
  0
LINE
  5
3A2
330
1F
100
AcDbEntity
  8
0
  6
Continuous
 62
     7
100
AcDbLine
 10
7161.7530112961
 20
5435.9335288808
 30
0.0
 11
7161.5119477609
 21
5435.8689472482
 31
0.0
  0
LINE
  5
3A3
330
1F
100
AcDbEntity
  8
0
  6
Continuous
 62
     7
100
AcDbLine
 10
7161.5119477609
 20
5435.8689472482
 30
0.0
 11
7161.2599914769
 21
5435.8014300869
 31
0.0
  0
LINE
  5
3A4
330
1F
100
AcDbEntity
  8
0
  6
Continuous
 62
     7
100
AcDbLine
 10
7161.2599914769
 20
5435.8014300869
 30
0.0
 11
7160.9975596765
 21
5435.7311115072
 31
0.0
  0
LINE
  5
3A5
330
1F
100
AcDbEntity
  8
0
  6
Continuous
 62
     7
100
AcDbLine
 10
7160.9975596765
 20
5435.7311115072
 30
0.0
 11
7160.7250844935
 21
5435.6580958173
 31
0.0
  0
LINE
  5
3A6
330
1F
100
AcDbEntity
  8
0
  6
Continuous
 62
     7
100
AcDbLine
 10
7160.7250844935
 20
5435.6580958173
 30
0.0
 11
7160.4430278638
 21
5435.5825171278
 31
0.0
  0
LINE
  5
3A7
330
1F
100
AcDbEntity
  8
0
  6
Continuous
 62
     7
100
AcDbLine
 10
7160.4430278638
 20
5435.5825171278
 30
0.0
 11
7160.1518517235
 21
5435.5044946477
 31
0.0
  0
LINE
  5
3A8
330
1F
100
AcDbEntity
  8
0
  6
Continuous
 62
     7
100
AcDbLine
 10
7148.0297123888
 20
5432.2564140365
 30
0.0
 11
7148.2455259064
 21
5432.3142454431
 31
0.0
  0
LINE
  5
3A9
330
1F
100
AcDbEntity
  8
0
  6
Continuous
 62
     7
100
AcDbLine
 10
7148.2455259064
 20
5432.3142454431
 30
0.0
 11
7148.4737520913
 21
5432.3753998087
 31
0.0
  0
LINE
  5
3AA
330
1F
100
AcDbEntity
  8
0
  6
Continuous
 62
     7
100
AcDbLine
 10
7148.4737520913
 20
5432.3753998087
 30
0.0
 11
7148.7139811614
 21
5432.439772825
 31
0.0
  0
LINE
  5
3AB
330
1F
100
AcDbEntity
  8
0
  6
Continuous
 62
     7
100
AcDbLine
 10
7148.7139811614
 20
5432.439772825
 30
0.0
 11
7148.9657660821
 21
5432.5072303817
 31
0.0
  0
LINE
  5
3AC
330
1F
100
AcDbEntity
  8
0
  6
Continuous
 62
     7
100
AcDbLine
 10
7148.9657660821
 20
5432.5072303817
 30
0.0
 11
7149.2286300162
 21
5432.5776681707
 31
0.0
  0
LINE
  5
3AD
330
1F
100
AcDbEntity
  8
0
  6
Continuous
 62
     7
100
AcDbLine
 10
7149.2286300162
 20
5432.5776681707
 30
0.0
 11
7149.5020886758
 21
5432.6509371803
 31
0.0
  0
LINE
  5
3AE
330
1F
100
AcDbEntity
  8
0
  6
Continuous
 62
     7
100
AcDbLine
 10
7149.5020886758
 20
5432.6509371803
 30
0.0
 11
7149.7856354216
 21
5432.7269182012
 31
0.0
  0
LINE
  5
3AF
330
1F
100
AcDbEntity
  8
0
  6
Continuous
 62
     7
100
AcDbLine
 10
7149.7856354216
 20
5432.7269182012
 30
0.0
 11
7150.0787487129
 21
5432.8054175184
 31
0.0
  0
LINE
  5
3B0
330
1F
100
AcDbEntity
  8
0
  6
Continuous
 62
     7
100
AcDbLine
 10
7148.0297123888
 20
5432.2564140365
 30
0.0
 11
7147.6833572486
 21
5432.1636096046
 31
0.0
  0
LINE
  5
3B1
330
1F
100
AcDbEntity
  8
0
  6
Continuous
 62
     7
100
AcDbLine
 10
7159.8054965833
 20
5435.4117349193
 30
0.0
 11
7160.1518517235
 21
5435.5045393512
 31
0.0
  0
LINE
  5
3B2
330
1F
100
AcDbEntity
  8
0
  6
Continuous
 62
     7
100
AcDbLine
 10
7159.8054965833
 20
5435.4117349193
 30
0.0
 11
7160.0986098746
 21
5435.49027894
 31
0.0
  0
LINE
  5
3B3
330
1F
100
AcDbEntity
  8
0
  6
Continuous
 62
     7
100
AcDbLine
 10
7160.0986098746
 20
5435.49027894
 30
0.0
 11
7160.3821566204
 21
5435.5662450597
 31
0.0
  0
LINE
  5
3B4
330
1F
100
AcDbEntity
  8
0
  6
Continuous
 62
     7
100
AcDbLine
 10
7160.3821566204
 20
5435.5662450597
 30
0.0
 11
7160.6556227306
 21
5435.6395289705
 31
0.0
  0
LINE
  5
3B5
330
1F
100
AcDbEntity
  8
0
  6
Continuous
 62
     7
100
AcDbLine
 10
7160.6556227306
 20
5435.6395289705
 30
0.0
 11
7160.9184866646
 21
5435.7099518583
 31
0.0
  0
LINE
  5
3B6
330
1F
100
AcDbEntity
  8
0
  6
Continuous
 62
     7
100
AcDbLine
 10
7160.9184866646
 20
5435.7099518583
 30
0.0
 11
7161.1702641347
 21
5435.7774243162
 31
0.0
  0
LINE
  5
3B7
330
1F
100
AcDbEntity
  8
0
  6
Continuous
 62
     7
100
AcDbLine
 10
7161.1702641347
 20
5435.7774243162
 30
0.0
 11
7161.4104932049
 21
5435.8417824314
 31
0.0
  0
LINE
  5
3B8
330
1F
100
AcDbEntity
  8
0
  6
Continuous
 62
     7
100
AcDbLine
 10
7161.4104932049
 20
5435.8417824314
 30
0.0
 11
7161.6387193898
 21
5435.9029367969
 31
0.0
  0
LINE
  5
3B9
330
1F
100
AcDbEntity
  8
0
  6
Continuous
 62
     7
100
AcDbLine
 10
7161.6387193898
 20
5435.9029367969
 30
0.0
 11
7161.8545329073
 21
5435.9607682035
 31
0.0
  0
LINE
  5
3BA
330
1F
100
AcDbEntity
  8
0
  6
Continuous
 62
     7
100
AcDbLine
 10
7161.8545329073
 20
5435.9607682035
 30
0.0
 11
7162.2008880475
 21
5436.0535726354
 31
0.0
  0
LINE
  5
3BB
330
1F
100
AcDbEntity
  8
0
  6
Continuous
 62
     7
100
AcDbLine
 10
7146.1255675057
 20
5431.7461982772
 30
0.0
 11
7146.6153910259
 21
5431.8774328039
 31
0.0
  0
LINE
  5
3BC
330
1F
100
AcDbEntity
  8
0
  6
Continuous
 62
     7
100
AcDbLine
 10
7146.6153910259
 20
5431.8774328039
 30
0.0
 11
7146.560726116
 21
5431.8627849624
 31
0.0
  0
LINE
  5
3BD
330
1F
100
AcDbEntity
  8
0
  6
Continuous
 62
     7
100
AcDbLine
 10
7146.560726116
 20
5431.8627849624
 30
0.0
 11
7146.5216105679
 21
5431.8523094461
 31
0.0
  0
LINE
  5
3BE
330
1F
100
AcDbEntity
  8
0
  6
Continuous
 62
     7
100
AcDbLine
 10
7146.5216105679
 20
5431.8523094461
 30
0.0
 11
7146.4981114367
 21
5431.8460062549
 31
0.0
  0
LINE
  5
3BF
330
1F
100
AcDbEntity
  8
0
  6
Continuous
 62
     7
100
AcDbLine
 10
7146.4981114367
 20
5431.8460062549
 30
0.0
 11
7146.4902734259
 21
5431.8439051912
 31
0.0
  0
LINE
  5
3C0
330
1F
100
AcDbEntity
  8
0
  6
Continuous
 62
     7
100
AcDbLine
 10
7146.4902734259
 20
5431.8439051912
 30
0.0
 11
7146.4981114367
 21
5431.8460062549
 31
0.0
  0
LINE
  5
3C1
330
1F
100
AcDbEntity
  8
0
  6
Continuous
 62
     7
100
AcDbLine
 10
7146.4981114367
 20
5431.8460062549
 30
0.0
 11
7146.5216105679
 21
5431.8523094461
 31
0.0
  0
LINE
  5
3C2
330
1F
100
AcDbEntity
  8
0
  6
Continuous
 62
     7
100
AcDbLine
 10
7146.5216105679
 20
5431.8523094461
 30
0.0
 11
7146.560726116
 21
5431.8627998636
 31
0.0
  0
LINE
  5
3C3
330
1F
100
AcDbEntity
  8
0
  6
Continuous
 62
     7
100
AcDbLine
 10
7146.560726116
 20
5431.8627998636
 30
0.0
 11
7146.6153910259
 21
5431.8774328039
 31
0.0
  0
LINE
  5
3C4
330
1F
100
AcDbEntity
  8
0
  6
Continuous
 62
     7
100
AcDbLine
 10
7146.1255675057
 20
5431.7461833761
 30
0.0
 11
7146.6153910259
 21
5431.8774328039
 31
0.0
  0
LINE
  5
3C5
330
1F
100
AcDbEntity
  8
0
  6
Continuous
 62
     7
100
AcDbLine
 10
7163.7586777905
 20
5436.4709690616
 30
0.0
 11
7163.2688617209
 21
5436.3397196338
 31
0.0
  0
LINE
  5
3C6
330
1F
100
AcDbEntity
  8
0
  6
Continuous
 62
     7
100
AcDbLine
 10
7163.2688617209
 20
5436.3397196338
 30
0.0
 11
7163.3235191801
 21
5436.3543674753
 31
0.0
  0
LINE
  5
3C7
330
1F
100
AcDbEntity
  8
0
  6
Continuous
 62
     7
100
AcDbLine
 10
7163.3235191801
 20
5436.3543674753
 30
0.0
 11
7163.3626347283
 21
5436.3648429916
 31
0.0
  0
LINE
  5
3C8
330
1F
100
AcDbEntity
  8
0
  6
Continuous
 62
     7
100
AcDbLine
 10
7163.3626347283
 20
5436.3648429916
 30
0.0
 11
7163.3861338595
 21
5436.3711461828
 31
0.0
  0
LINE
  5
3C9
330
1F
100
AcDbEntity
  8
0
  6
Continuous
 62
     7
100
AcDbLine
 10
7163.3861338595
 20
5436.3711461828
 30
0.0
 11
7163.3939718703
 21
5436.3732472465
 31
0.0
  0
LINE
  5
3CA
330
1F
100
AcDbEntity
  8
0
  6
Continuous
 62
     7
100
AcDbLine
 10
7163.3939718703
 20
5436.3732472465
 30
0.0
 11
7163.3861338595
 21
5436.3711461828
 31
0.0
  0
LINE
  5
3CB
330
1F
100
AcDbEntity
  8
0
  6
Continuous
 62
     7
100
AcDbLine
 10
7163.3861338595
 20
5436.3711461828
 30
0.0
 11
7163.3626347283
 21
5436.3648429916
 31
0.0
  0
LINE
  5
3CC
330
1F
100
AcDbEntity
  8
0
  6
Continuous
 62
     7
100
AcDbLine
 10
7163.3626347283
 20
5436.3648429916
 30
0.0
 11
7163.3235191801
 21
5436.3543674753
 31
0.0
  0
LINE
  5
3CD
330
1F
100
AcDbEntity
  8
0
  6
Continuous
 62
     7
100
AcDbLine
 10
7163.3235191801
 20
5436.3543674753
 30
0.0
 11
7163.2688617209
 21
5436.3397196338
 31
0.0
  0
LINE
  5
3CE
330
1F
100
AcDbEntity
  8
0
  6
Continuous
 62
     7
100
AcDbLine
 10
7148.0297123888
 20
5432.2563842342
 30
0.0
 11
7147.6833572486
 21
5432.1635798023
 31
0.0
  0
LINE
  5
3CF
330
1F
100
AcDbEntity
  8
0
  6
Continuous
 62
     7
100
AcDbLine
 10
7150.0787487129
 20
5432.8054175184
 30
0.0
 11
7149.7856354216
 21
5432.7268883989
 31
0.0
  0
LINE
  5
3D0
330
1F
100
AcDbEntity
  8
0
  6
Continuous
 62
     7
100
AcDbLine
 10
7149.7856354216
 20
5432.7268883989
 30
0.0
 11
7149.5020886758
 21
5432.650907378
 31
0.0
  0
LINE
  5
3D1
330
1F
100
AcDbEntity
  8
0
  6
Continuous
 62
     7
100
AcDbLine
 10
7149.5020886758
 20
5432.650907378
 30
0.0
 11
7149.2286300162
 21
5432.5776383684
 31
0.0
  0
LINE
  5
3D2
330
1F
100
AcDbEntity
  8
0
  6
Continuous
 62
     7
100
AcDbLine
 10
7149.2286300162
 20
5432.5776383684
 30
0.0
 11
7148.9657660821
 21
5432.5072005794
 31
0.0
  0
LINE
  5
3D3
330
1F
100
AcDbEntity
  8
0
  6
Continuous
 62
     7
100
AcDbLine
 10
7148.9657660821
 20
5432.5072005794
 30
0.0
 11
7148.7139811614
 21
5432.4397430227
 31
0.0
  0
LINE
  5
3D4
330
1F
100
AcDbEntity
  8
0
  6
Continuous
 62
     7
100
AcDbLine
 10
7148.7139811614
 20
5432.4397430227
 30
0.0
 11
7148.4737520913
 21
5432.3753700063
 31
0.0
  0
LINE
  5
3D5
330
1F
100
AcDbEntity
  8
0
  6
Continuous
 62
     7
100
AcDbLine
 10
7148.4737520913
 20
5432.3753700063
 30
0.0
 11
7148.2455259064
 21
5432.3142156408
 31
0.0
  0
LINE
  5
3D6
330
1F
100
AcDbEntity
  8
0
  6
Continuous
 62
     7
100
AcDbLine
 10
7148.2455259064
 20
5432.3142156408
 30
0.0
 11
7148.0297123888
 21
5432.2563842342
 31
0.0
  0
LINE
  5
3D7
330
1F
100
AcDbEntity
  8
0
  6
Continuous
 62
     7
100
AcDbLine
 10
7150.0787487129
 20
5432.8054175184
 30
0.0
 11
7149.7324010232
 21
5432.7126130865
 31
0.0
  0
LINE
  5
3D8
330
1F
100
AcDbEntity
  8
0
  6
Continuous
 62
     7
100
AcDbLine
 10
7159.8054965833
 20
5435.4116902158
 30
0.0
 11
7160.1518517235
 21
5435.5044946477
 31
0.0
  0
LINE
  5
3D9
330
1F
100
AcDbEntity
  8
0
  6
Continuous
 62
     7
100
AcDbLine
 10
7161.8545329073
 20
5435.9607384012
 30
0.0
 11
7161.6387193898
 21
5435.9029069946
 31
0.0
  0
LINE
  5
3DA
330
1F
100
AcDbEntity
  8
0
  6
Continuous
 62
     7
100
AcDbLine
 10
7161.6387193898
 20
5435.9029069946
 30
0.0
 11
7161.4104932049
 21
5435.841752629
 31
0.0
  0
LINE
  5
3DB
330
1F
100
AcDbEntity
  8
0
  6
Continuous
 62
     7
100
AcDbLine
 10
7161.4104932049
 20
5435.841752629
 30
0.0
 11
7161.1702641347
 21
5435.7773796127
 31
0.0
  0
LINE
  5
3DC
330
1F
100
AcDbEntity
  8
0
  6
Continuous
 62
     7
100
AcDbLine
 10
7161.1702641347
 20
5435.7773796127
 30
0.0
 11
7160.9184866646
 21
5435.709922056
 31
0.0
  0
LINE
  5
3DD
330
1F
100
AcDbEntity
  8
0
  6
Continuous
 62
     7
100
AcDbLine
 10
7160.9184866646
 20
5435.709922056
 30
0.0
 11
7160.6556227306
 21
5435.639484267
 31
0.0
  0
LINE
  5
3DE
330
1F
100
AcDbEntity
  8
0
  6
Continuous
 62
     7
100
AcDbLine
 10
7160.6556227306
 20
5435.639484267
 30
0.0
 11
7160.3821566204
 21
5435.5662152574
 31
0.0
  0
LINE
  5
3DF
330
1F
100
AcDbEntity
  8
0
  6
Continuous
 62
     7
100
AcDbLine
 10
7160.3821566204
 20
5435.5662152574
 30
0.0
 11
7160.0986098746
 21
5435.4902342365
 31
0.0
  0
LINE
  5
3E0
330
1F
100
AcDbEntity
  8
0
  6
Continuous
 62
     7
100
AcDbLine
 10
7160.0986098746
 20
5435.4902342365
 30
0.0
 11
7159.8054965833
 21
5435.4116902158
 31
0.0
  0
LINE
  5
3E1
330
1F
100
AcDbEntity
  8
0
  6
Continuous
 62
     7
100
AcDbLine
 10
7161.8545329073
 20
5435.9607384012
 30
0.0
 11
7162.2008880475
 21
5436.0535428331
 31
0.0
  0
LINE
  5
3E2
330
1F
100
AcDbEntity
  8
0
  6
Continuous
 62
     7
100
AcDbLine
 10
7156.391014705
 20
5434.4967738197
 30
0.0
 11
7156.0311516622
 21
5434.4003633068
 31
0.0
  0
LINE
  5
3E3
330
1F
100
AcDbEntity
  8
0
  6
Continuous
 62
     7
100
AcDbLine
 10
7156.0311516622
 20
5434.4003633068
 30
0.0
 11
7155.6692620614
 21
5434.3033865497
 31
0.0
  0
LINE
  5
3E4
330
1F
100
AcDbEntity
  8
0
  6
Continuous
 62
     7
100
AcDbLine
 10
7155.6692620614
 20
5434.3033865497
 30
0.0
 11
7155.3060313562
 21
5434.206067066
 31
0.0
  0
LINE
  5
3E5
330
1F
100
AcDbEntity
  8
0
  6
Continuous
 62
     7
100
AcDbLine
 10
7155.3060313562
 20
5434.206067066
 30
0.0
 11
7154.9421226481
 21
5434.1085538671
 31
0.0
  0
LINE
  5
3E6
330
1F
100
AcDbEntity
  8
0
  6
Continuous
 62
     7
100
AcDbLine
 10
7154.9421226481
 20
5434.1085538671
 30
0.0
 11
7154.57821394
 21
5434.0110406683
 31
0.0
  0
LINE
  5
3E7
330
1F
100
AcDbEntity
  8
0
  6
Continuous
 62
     7
100
AcDbLine
 10
7154.57821394
 20
5434.0110406683
 30
0.0
 11
7154.2149832347
 21
5433.9137211845
 31
0.0
  0
LINE
  5
3E8
330
1F
100
AcDbEntity
  8
0
  6
Continuous
 62
     7
100
AcDbLine
 10
7154.2149832347
 20
5433.9137211845
 30
0.0
 11
7153.8531010846
 21
5433.8167444274
 31
0.0
  0
LINE
  5
3E9
330
1F
100
AcDbEntity
  8
0
  6
Continuous
 62
     7
100
AcDbLine
 10
7153.8531010846
 20
5433.8167444274
 30
0.0
 11
7153.4932380417
 21
5433.7203190134
 31
0.0
  0
LINE
  5
3EA
330
1F
100
AcDbEntity
  8
0
  6
Continuous
 62
     7
100
AcDbLine
 10
7003.8969380656
 20
5412.8714636371
 30
0.0
 11
7003.8969380656
 21
5472.8714660213
 31
0.0
  0
LINE
  5
3EB
330
1F
100
AcDbEntity
  8
0
  6
Continuous
 62
     7
100
AcDbLine
 10
7004.3969353536
 20
5472.3714575574
 30
0.0
 11
7004.3969353536
 21
5413.3714571998
 31
0.0
  0
LINE
  5
3EC
330
1F
100
AcDbEntity
  8
0
  6
Continuous
 62
     7
100
AcDbLine
 10
7169.3969419101
 20
5437.9817679927
 30
0.0
 11
7169.3969419101
 21
5456.8714633987
 31
0.0
  0
LINE
  5
3ED
330
1F
100
AcDbEntity
  8
0
  6
Continuous
 62
     7
100
AcDbLine
 10
7169.3969419101
 20
5437.9816934869
 30
0.0
 11
7165.4986193279
 21
5436.9371518896
 31
0.0
  0
LINE
  5
3EE
330
1F
100
AcDbEntity
  8
0
  6
Continuous
 62
     7
100
AcDbLine
 10
7165.4986193279
 20
5436.9371518896
 30
0.0
 11
7161.7452775935
 21
5435.9314427183
 31
0.0
  0
LINE
  5
3EF
330
1F
100
AcDbEntity
  8
0
  6
Continuous
 62
     7
100
AcDbLine
 10
7161.7452775935
 20
5435.9314427183
 30
0.0
 11
7158.1615036229
 21
5434.9711820886
 31
0.0
  0
LINE
  5
3F0
330
1F
100
AcDbEntity
  8
0
  6
Continuous
 62
     7
100
AcDbLine
 10
7158.1615036229
 20
5434.9711820886
 30
0.0
 11
7156.391014705
 21
5434.4967738197
 31
0.0
  0
LINE
  5
3F1
330
1F
100
AcDbEntity
  8
0
  6
Continuous
 62
     7
100
AcDbLine
 10
7153.4932380417
 20
5433.7203190134
 30
0.0
 11
7151.595232437
 21
5433.211757283
 31
0.0
  0
LINE
  5
3F2
330
1F
100
AcDbEntity
  8
0
  6
Continuous
 62
     7
100
AcDbLine
 10
7151.595232437
 20
5433.211757283
 30
0.0
 11
7150.0787487129
 21
5432.8054175184
 31
0.0
  0
LINE
  5
3F3
330
1F
100
AcDbEntity
  8
0
  6
Continuous
 62
     7
100
AcDbLine
 10
7147.6833572486
 20
5432.1636096046
 30
0.0
 11
7145.9714671472
 21
5431.7048773573
 31
0.0
  0
LINE
  5
3F4
330
1F
100
AcDbEntity
  8
0
  6
Continuous
 62
     7
100
AcDbLine
 10
7145.9714671472
 20
5431.7048773573
 30
0.0
 11
7143.5600420335
 21
5431.0587332056
 31
0.0
  0
LINE
  5
3F5
330
1F
100
AcDbEntity
  8
0
  6
Continuous
 62
     7
100
AcDbLine
 10
7143.5600420335
 20
5431.0587332056
 30
0.0
 11
7141.4372300604
 21
5430.4899409816
 31
0.0
  0
LINE
  5
3F6
330
1F
100
AcDbEntity
  8
0
  6
Continuous
 62
     7
100
AcDbLine
 10
7141.4372300604
 20
5430.4899409816
 30
0.0
 11
7139.6169340113
 21
5430.0021961734
 31
0.0
  0
LINE
  5
3F7
330
1F
100
AcDbEntity
  8
0
  6
Continuous
 62
     7
100
AcDbLine
 10
7139.6169340113
 20
5430.0021961734
 30
0.0
 11
7138.111059914
 21
5429.5987025306
 31
0.0
  0
LINE
  5
3F8
330
1F
100
AcDbEntity
  8
0
  6
Continuous
 62
     7
100
AcDbLine
 10
7138.111059914
 20
5429.5987025306
 30
0.0
 11
7136.9294872383
 21
5429.2820975587
 31
0.0
  0
LINE
  5
3F9
330
1F
100
AcDbEntity
  8
0
  6
Continuous
 62
     7
100
AcDbLine
 10
7136.9294872383
 20
5429.2820975587
 30
0.0
 11
7136.0799347857
 21
5429.0544674203
 31
0.0
  0
LINE
  5
3FA
330
1F
100
AcDbEntity
  8
0
  6
Continuous
 62
     7
100
AcDbLine
 10
7136.0799347857
 20
5429.0544674203
 30
0.0
 11
7135.56796814
 21
5428.9172873304
 31
0.0
  0
LINE
  5
3FB
330
1F
100
AcDbEntity
  8
0
  6
Continuous
 62
     7
100
AcDbLine
 10
7135.56796814
 20
5428.9172873304
 30
0.0
 11
7135.3969400624
 21
5428.8714662597
 31
0.0
  0
LINE
  5
3FC
330
1F
100
AcDbEntity
  8
0
  6
Continuous
 62
     7
100
AcDbLine
 10
7135.3969400624
 20
5428.8714662597
 30
0.0
 11
7135.56796814
 21
5428.9172873304
 31
0.0
  0
LINE
  5
3FD
330
1F
100
AcDbEntity
  8
0
  6
Continuous
 62
     7
100
AcDbLine
 10
7135.56796814
 20
5428.9172873304
 30
0.0
 11
7136.0799347857
 21
5429.0544823215
 31
0.0
  0
LINE
  5
3FE
330
1F
100
AcDbEntity
  8
0
  6
Continuous
 62
     7
100
AcDbLine
 10
7136.0799347857
 20
5429.0544823215
 30
0.0
 11
7136.9294872383
 21
5429.2821124599
 31
0.0
  0
LINE
  5
3FF
330
1F
100
AcDbEntity
  8
0
  6
Continuous
 62
     7
100
AcDbLine
 10
7136.9294872383
 20
5429.2821124599
 30
0.0
 11
7138.111059914
 21
5429.5987174318
 31
0.0
  0
LINE
  5
400
330
1F
100
AcDbEntity
  8
0
  6
Continuous
 62
     7
100
AcDbLine
 10
7138.111059914
 20
5429.5987174318
 30
0.0
 11
7139.6169340113
 21
5430.0022259758
 31
0.0
  0
LINE
  5
401
330
1F
100
AcDbEntity
  8
0
  6
Continuous
 62
     7
100
AcDbLine
 10
7139.6169340113
 20
5430.0022259758
 30
0.0
 11
7141.4372300604
 21
5430.489970784
 31
0.0
  0
LINE
  5
402
330
1F
100
AcDbEntity
  8
0
  6
Continuous
 62
     7
100
AcDbLine
 10
7141.4372300604
 20
5430.489970784
 30
0.0
 11
7143.5600420335
 21
5431.058777909
 31
0.0
  0
LINE
  5
403
330
1F
100
AcDbEntity
  8
0
  6
Continuous
 62
     7
100
AcDbLine
 10
7143.5600420335
 20
5431.058777909
 30
0.0
 11
7145.9714671472
 21
5431.7049220607
 31
0.0
  0
LINE
  5
404
330
1F
100
AcDbEntity
  8
0
  6
Continuous
 62
     7
100
AcDbLine
 10
7145.9714671472
 20
5431.7049220607
 30
0.0
 11
7148.6557250718
 21
5432.4241713092
 31
0.0
  0
LINE
  5
405
330
1F
100
AcDbEntity
  8
0
  6
Continuous
 62
     7
100
AcDbLine
 10
7148.6557250718
 20
5432.4241713092
 30
0.0
 11
7151.595232437
 21
5433.2118168876
 31
0.0
  0
LINE
  5
406
330
1F
100
AcDbEntity
  8
0
  6
Continuous
 62
     7
100
AcDbLine
 10
7151.595232437
 20
5433.2118168876
 30
0.0
 11
7154.7707592944
 21
5434.062688093
 31
0.0
  0
LINE
  5
407
330
1F
100
AcDbEntity
  8
0
  6
Continuous
 62
     7
100
AcDbLine
 10
7154.7707592944
 20
5434.062688093
 30
0.0
 11
7158.1615036229
 21
5434.9712416933
 31
0.0
  0
LINE
  5
408
330
1F
100
AcDbEntity
  8
0
  6
Continuous
 62
     7
100
AcDbLine
 10
7158.1615036229
 20
5434.9712416933
 30
0.0
 11
7161.7452775935
 21
5435.9315172241
 31
0.0
  0
LINE
  5
409
330
1F
100
AcDbEntity
  8
0
  6
Continuous
 62
     7
100
AcDbLine
 10
7161.7452775935
 20
5435.9315172241
 30
0.0
 11
7165.4986193279
 21
5436.9372114942
 31
0.0
  0
LINE
  5
40A
330
1F
100
AcDbEntity
  8
0
  6
Continuous
 62
     7
100
AcDbLine
 10
7165.4986193279
 20
5436.9372114942
 30
0.0
 11
7169.3969419101
 21
5437.9817679927
 31
0.0
  0
LINE
  5
40B
330
1F
100
AcDbEntity
  8
0
  6
Continuous
 62
     7
100
AcDbLine
 10
7169.3969419101
 20
5437.9816934869
 30
0.0
 11
7170.3969439367
 21
5438.2497206733
 31
0.0
  0
LINE
  5
40C
330
1F
100
AcDbEntity
  8
0
  6
Continuous
 62
     7
100
AcDbLine
 10
7170.3969439367
 20
5455.8714613721
 30
0.0
 11
7170.3969439367
 21
5438.2497206733
 31
0.0
  0
LINE
  5
40D
330
1F
100
AcDbEntity
  8
0
  6
Continuous
 62
     7
100
AcDbLine
 10
7170.3969439367
 20
5438.2497206733
 30
0.0
 11
7169.3969419101
 21
5437.9817679927
 31
0.0
  0
LINE
  5
40E
330
1F
100
AcDbEntity
  8
0
  6
Continuous
 62
     7
100
AcDbLine
 10
7164.4806465009
 20
5436.6644159362
 30
0.0
 11
7164.3082698682
 21
5436.6182223365
 31
0.0
  0
LINE
  5
40F
330
1F
100
AcDbEntity
  8
0
  6
Continuous
 62
     7
100
AcDbLine
 10
7164.3082698682
 20
5436.6182223365
 30
0.0
 11
7163.7973761061
 21
5436.4813253686
 31
0.0
  0
LINE
  5
410
330
1F
100
AcDbEntity
  8
0
  6
Continuous
 62
     7
100
AcDbLine
 10
7163.7973761061
 20
5436.4813253686
 30
0.0
 11
7163.3861338595
 21
5436.3711461828
 31
0.0
  0
LINE
  5
411
330
1F
100
AcDbEntity
  8
0
  6
Continuous
 62
     7
100
AcDbLine
 10
7163.2688617209
 20
5436.3397196338
 30
0.0
 11
7162.9664352039
 21
5436.2586722181
 31
0.0
  0
LINE
  5
412
330
1F
100
AcDbEntity
  8
0
  6
Continuous
 62
     7
100
AcDbLine
 10
7162.9664352039
 20
5436.2586722181
 30
0.0
 11
7162.2008880475
 21
5436.0535428331
 31
0.0
  0
LINE
  5
413
330
1F
100
AcDbEntity
  8
0
  6
Continuous
 62
     7
100
AcDbLine
 10
7159.8054965833
 20
5435.4116902158
 30
0.0
 11
7158.9045649269
 21
5435.1702914045
 31
0.0
  0
LINE
  5
414
330
1F
100
AcDbEntity
  8
0
  6
Continuous
 62
     7
100
AcDbLine
 10
7158.9045649269
 20
5435.1702914045
 30
0.0
 11
7157.1909164885
 21
5434.7111121223
 31
0.0
  0
LINE
  5
415
330
1F
100
AcDbEntity
  8
0
  6
Continuous
 62
     7
100
AcDbLine
 10
7157.1909164885
 20
5434.7111121223
 30
0.0
 11
7156.391014705
 21
5434.4967738197
 31
0.0
  0
LINE
  5
416
330
1F
100
AcDbEntity
  8
0
  6
Continuous
 62
     7
100
AcDbLine
 10
7153.4932380417
 20
5433.7203190134
 30
0.0
 11
7151.8223782876
 21
5433.2726136253
 31
0.0
  0
LINE
  5
417
330
1F
100
AcDbEntity
  8
0
  6
Continuous
 62
     7
100
AcDbLine
 10
7151.8223782876
 20
5433.2726136253
 30
0.0
 11
7150.172864447
 21
5432.8306302831
 31
0.0
  0
LINE
  5
418
330
1F
100
AcDbEntity
  8
0
  6
Continuous
 62
     7
100
AcDbLine
 10
7150.172864447
 20
5432.8306302831
 30
0.0
 11
7150.0787487129
 21
5432.8054175184
 31
0.0
  0
LINE
  5
419
330
1F
100
AcDbEntity
  8
0
  6
Continuous
 62
     7
100
AcDbLine
 10
7147.6833572486
 20
5432.1635798023
 30
0.0
 11
7147.4443426231
 21
5432.0995346115
 31
0.0
  0
LINE
  5
41A
330
1F
100
AcDbEntity
  8
0
  6
Continuous
 62
     7
100
AcDbLine
 10
7147.4443426231
 20
5432.0995346115
 30
0.0
 11
7146.4639505247
 21
5431.8368420408
 31
0.0
  0
LINE
  5
41B
330
1F
100
AcDbEntity
  8
0
  6
Continuous
 62
     7
100
AcDbLine
 10
7146.4639505247
 20
5431.8368420408
 30
0.0
 11
7145.789985905
 21
5431.6562548683
 31
0.0
  0
LINE
  5
41C
330
1F
100
AcDbEntity
  8
0
  6
Continuous
 62
     7
100
AcDbLine
 10
7145.789985905
 20
5431.6562548683
 30
0.0
 11
7145.4467972616
 21
5431.5643147037
 31
0.0
  0
LINE
  5
41D
330
1F
100
AcDbEntity
  8
0
  6
Continuous
 62
     7
100
AcDbLine
 10
7145.4467972616
 20
5431.5643147037
 30
0.0
 11
7145.789985905
 21
5431.6562697694
 31
0.0
  0
LINE
  5
41E
330
1F
100
AcDbEntity
  8
0
  6
Continuous
 62
     7
100
AcDbLine
 10
7145.789985905
 20
5431.6562697694
 30
0.0
 11
7146.4639505247
 21
5431.8368718431
 31
0.0
  0
LINE
  5
41F
330
1F
100
AcDbEntity
  8
0
  6
Continuous
 62
     7
100
AcDbLine
 10
7146.4639505247
 20
5431.8368718431
 30
0.0
 11
7147.4443426231
 21
5432.0995644138
 31
0.0
  0
LINE
  5
420
330
1F
100
AcDbEntity
  8
0
  6
Continuous
 62
     7
100
AcDbLine
 10
7147.4443426231
 20
5432.0995644138
 30
0.0
 11
7148.6957197884
 21
5432.4348852441
 31
0.0
  0
LINE
  5
421
330
1F
100
AcDbEntity
  8
0
  6
Continuous
 62
     7
100
AcDbLine
 10
7148.6957197884
 20
5432.4348852441
 30
0.0
 11
7150.172864447
 21
5432.8306898878
 31
0.0
  0
LINE
  5
422
330
1F
100
AcDbEntity
  8
0
  6
Continuous
 62
     7
100
AcDbLine
 10
7150.172864447
 20
5432.8306898878
 30
0.0
 11
7151.8223782876
 21
5433.2726732299
 31
0.0
  0
LINE
  5
423
330
1F
100
AcDbEntity
  8
0
  6
Continuous
 62
     7
100
AcDbLine
 10
7151.8223782876
 20
5433.2726732299
 30
0.0
 11
7153.5846492151
 21
5433.744876127
 31
0.0
  0
LINE
  5
424
330
1F
100
AcDbEntity
  8
0
  6
Continuous
 62
     7
100
AcDbLine
 10
7153.5846492151
 20
5433.744876127
 30
0.0
 11
7155.3959822157
 21
5434.2302218483
 31
0.0
  0
LINE
  5
425
330
1F
100
AcDbEntity
  8
0
  6
Continuous
 62
     7
100
AcDbLine
 10
7155.3959822157
 20
5434.2302218483
 30
0.0
 11
7157.1909164885
 21
5434.7111717269
 31
0.0
  0
LINE
  5
426
330
1F
100
AcDbEntity
  8
0
  6
Continuous
 62
     7
100
AcDbLine
 10
7157.1909164885
 20
5434.7111717269
 30
0.0
 11
7158.9045649269
 21
5435.170336108
 31
0.0
  0
LINE
  5
427
330
1F
100
AcDbEntity
  8
0
  6
Continuous
 62
     7
100
AcDbLine
 10
7158.9045649269
 20
5435.170336108
 30
0.0
 11
7160.4750057557
 21
5435.5911299989
 31
0.0
  0
LINE
  5
428
330
1F
100
AcDbEntity
  8
0
  6
Continuous
 62
     7
100
AcDbLine
 10
7160.4750057557
 20
5435.5911299989
 30
0.0
 11
7161.8454730013
 21
5435.9583393142
 31
0.0
  0
LINE
  5
429
330
1F
100
AcDbEntity
  8
0
  6
Continuous
 62
     7
100
AcDbLine
 10
7161.8454730013
 20
5435.9583393142
 30
0.0
 11
7162.9664352039
 21
5436.2587020204
 31
0.0
  0
LINE
  5
42A
330
1F
100
AcDbEntity
  8
0
  6
Continuous
 62
     7
100
AcDbLine
 10
7162.9664352039
 20
5436.2587020204
 30
0.0
 11
7163.7973761061
 21
5436.4813402698
 31
0.0
  0
LINE
  5
42B
330
1F
100
AcDbEntity
  8
0
  6
Continuous
 62
     7
100
AcDbLine
 10
7163.7973761061
 20
5436.4813402698
 30
0.0
 11
7164.3082698682
 21
5436.6182372377
 31
0.0
  0
LINE
  5
42C
330
1F
100
AcDbEntity
  8
0
  6
Continuous
 62
     7
100
AcDbLine
 10
7164.3082698682
 20
5436.6182372377
 30
0.0
 11
7164.4806465009
 21
5436.6644159362
 31
0.0
  0
LINE
  5
42D
330
1F
100
AcDbEntity
  8
0
  6
Continuous
 62
     7
100
AcDbLine
 10
7003.3969370523
 20
5300.041227083
 30
0.0
 11
7003.3969370523
 21
5288.4053871439
 31
0.0
  0
LINE
  5
42E
330
1F
100
AcDbEntity
  8
0
  6
Continuous
 62
     7
100
AcDbLine
 10
7003.3969370523
 20
5328.4054086015
 30
0.0
 11
7003.3969370523
 21
5316.7696580694
 31
0.0
  0
LINE
  5
42F
330
1F
100
AcDbEntity
  8
0
  6
Continuous
 62
     7
100
AcDbLine
 10
7009.6917146692
 20
5312.7053663538
 30
0.0
 11
7010.1733034352
 21
5312.7053961561
 31
0.0
  0
LINE
  5
430
330
1F
100
AcDbEntity
  8
0
  6
Continuous
 62
     7
100
AcDbLine
 10
7010.1733034352
 20
5312.7053961561
 30
0.0
 11
7010.5191482106
 21
5312.7053961561
 31
0.0
  0
LINE
  5
431
330
1F
100
AcDbEntity
  8
0
  6
Continuous
 62
     7
100
AcDbLine
 10
7010.5191482106
 20
5312.7053961561
 30
0.0
 11
7010.7273956636
 21
5312.7053961561
 31
0.0
  0
LINE
  5
432
330
1F
100
AcDbEntity
  8
0
  6
Continuous
 62
     7
100
AcDbLine
 10
7010.7273956636
 20
5312.7053961561
 30
0.0
 11
7010.7969375202
 21
5312.7053961561
 31
0.0
  0
LINE
  5
433
330
1F
100
AcDbEntity
  8
0
  6
Continuous
 62
     7
100
AcDbLine
 10
7010.7969375202
 20
5312.7053961561
 30
0.0
 11
7010.7273956636
 21
5312.7053961561
 31
0.0
  0
LINE
  5
434
330
1F
100
AcDbEntity
  8
0
  6
Continuous
 62
     7
100
AcDbLine
 10
7010.7273956636
 20
5312.7053961561
 30
0.0
 11
7010.5191482106
 21
5312.7054259584
 31
0.0
  0
LINE
  5
435
330
1F
100
AcDbEntity
  8
0
  6
Continuous
 62
     7
100
AcDbLine
 10
7010.5191482106
 20
5312.7054259584
 30
0.0
 11
7010.1733034352
 21
5312.7054259584
 31
0.0
  0
LINE
  5
436
330
1F
100
AcDbEntity
  8
0
  6
Continuous
 62
     7
100
AcDbLine
 10
7010.1733034352
 20
5312.7054259584
 30
0.0
 11
7009.6917146692
 21
5312.7053663538
 31
0.0
  0
LINE
  5
437
330
1F
100
AcDbEntity
  8
0
  6
Continuous
 62
     7
100
AcDbLine
 10
7009.6917146692
 20
5301.7054185674
 30
0.0
 11
7010.1733034352
 21
5301.7054185674
 31
0.0
  0
LINE
  5
438
330
1F
100
AcDbEntity
  8
0
  6
Continuous
 62
     7
100
AcDbLine
 10
7010.1733034352
 20
5301.7054185674
 30
0.0
 11
7010.5191482106
 21
5301.7054185674
 31
0.0
  0
LINE
  5
439
330
1F
100
AcDbEntity
  8
0
  6
Continuous
 62
     7
100
AcDbLine
 10
7010.5191482106
 20
5301.7054185674
 30
0.0
 11
7010.7273956636
 21
5301.7054185674
 31
0.0
  0
LINE
  5
43A
330
1F
100
AcDbEntity
  8
0
  6
Continuous
 62
     7
100
AcDbLine
 10
7010.7273956636
 20
5301.7054185674
 30
0.0
 11
7010.7969375202
 21
5301.7053887651
 31
0.0
  0
LINE
  5
43B
330
1F
100
AcDbEntity
  8
0
  6
Continuous
 62
     7
100
AcDbLine
 10
7006.3969356814
 20
5421.0638836429
 30
0.0
 11
7006.3969356814
 21
5414.8711249635
 31
0.0
  0
LINE
  5
43C
330
1F
100
AcDbEntity
  8
0
  6
Continuous
 62
     7
100
AcDbLine
 10
7006.3969356814
 20
5470.8711192415
 30
0.0
 11
7006.3969356814
 21
5456.8714633987
 31
0.0
  0
LINE
  5
43D
330
1F
100
AcDbEntity
  8
0
  6
Continuous
 62
     7
100
AcDbLine
 10
7006.3969356814
 20
5428.8714662597
 30
0.0
 11
7006.3969356814
 21
5421.0638836429
 31
0.0
  0
LINE
  5
43E
330
1F
100
AcDbEntity
  8
0
  6
Continuous
 62
     7
100
AcDbLine
 10
7033.1703232476
 20
5465.8579513834
 30
0.0
 11
7033.1703232476
 21
5456.8714633987
 31
0.0
  0
LINE
  5
43F
330
1F
100
AcDbEntity
  8
0
  6
Continuous
 62
     7
100
AcDbLine
 10
7033.1703232476
 20
5428.8714662597
 30
0.0
 11
7033.1703232476
 21
5419.8711201952
 31
0.0
  0
LINE
  5
440
330
1F
100
AcDbEntity
  8
0
  6
Continuous
 62
     7
100
AcDbLine
 10
7033.1703232476
 20
5465.8711240099
 30
0.0
 11
7033.1703232476
 21
5465.8579513834
 31
0.0
  0
LINE
  5
441
330
1F
100
AcDbEntity
  8
0
  6
Continuous
 62
     7
100
AcDbLine
 10
7047.9703232521
 20
5419.9211284921
 30
0.0
 11
7047.9703232521
 21
5428.8714662597
 31
0.0
  0
LINE
  5
442
330
1F
100
AcDbEntity
  8
0
  6
Continuous
 62
     7
100
AcDbLine
 10
7047.9703232521
 20
5456.8714633987
 30
0.0
 11
7047.9703232521
 21
5465.821130614
 31
0.0
  0
LINE
  5
443
330
1F
100
AcDbEntity
  8
0
  6
Continuous
 62
     7
100
AcDbLine
 10
7053.1703228006
 20
5465.8079728887
 30
0.0
 11
7053.1703228006
 21
5456.8714633987
 31
0.0
  0
LINE
  5
444
330
1F
100
AcDbEntity
  8
0
  6
Continuous
 62
     7
100
AcDbLine
 10
7053.1703228006
 20
5428.8714662597
 30
0.0
 11
7053.1703228006
 21
5419.9211284921
 31
0.0
  0
LINE
  5
445
330
1F
100
AcDbEntity
  8
0
  6
Continuous
 62
     7
100
AcDbLine
 10
7053.1703228006
 20
5465.821130614
 30
0.0
 11
7053.1703228006
 21
5465.8079728887
 31
0.0
  0
LINE
  5
446
330
1F
100
AcDbEntity
  8
0
  6
Continuous
 62
     7
100
AcDbLine
 10
7048.1703229124
 20
5465.8079728887
 30
0.0
 11
7048.1703229124
 21
5456.8714633987
 31
0.0
  0
LINE
  5
447
330
1F
100
AcDbEntity
  8
0
  6
Continuous
 62
     7
100
AcDbLine
 10
7048.1703229124
 20
5428.8714662597
 30
0.0
 11
7048.1703229124
 21
5419.9211284921
 31
0.0
  0
LINE
  5
448
330
1F
100
AcDbEntity
  8
0
  6
Continuous
 62
     7
100
AcDbLine
 10
7048.1703229124
 20
5465.821130614
 30
0.0
 11
7048.1703229124
 21
5465.8079728887
 31
0.0
  0
LINE
  5
449
330
1F
100
AcDbEntity
  8
0
  6
Continuous
 62
     7
100
AcDbLine
 10
7091.1703234414
 20
5465.558125119
 30
0.0
 11
7091.1703234414
 21
5456.8714633987
 31
0.0
  0
LINE
  5
44A
330
1F
100
AcDbEntity
  8
0
  6
Continuous
 62
     7
100
AcDbLine
 10
7091.1703234414
 20
5428.8714662597
 30
0.0
 11
7091.1703234414
 21
5420.1711252735
 31
0.0
  0
LINE
  5
44B
330
1F
100
AcDbEntity
  8
0
  6
Continuous
 62
     7
100
AcDbLine
 10
7091.1703234414
 20
5465.5711189315
 30
0.0
 11
7091.1703234414
 21
5465.558125119
 31
0.0
  0
LINE
  5
44C
330
1F
100
AcDbEntity
  8
0
  6
Continuous
 62
     7
100
AcDbLine
 10
7077.1703248719
 20
5470.7789406583
 30
0.0
 11
7078.0313623944
 21
5470.78473721
 31
0.0
  0
LINE
  5
44D
330
1F
100
AcDbEntity
  8
0
  6
Continuous
 62
     7
100
AcDbLine
 10
7078.0313623944
 20
5470.78473721
 30
0.0
 11
7078.761314402
 21
5470.8012476966
 31
0.0
  0
LINE
  5
44E
330
1F
100
AcDbEntity
  8
0
  6
Continuous
 62
     7
100
AcDbLine
 10
7078.761314402
 20
5470.8012476966
 30
0.0
 11
7079.2490517596
 21
5470.8259538219
 31
0.0
  0
LINE
  5
44F
330
1F
100
AcDbEntity
  8
0
  6
Continuous
 62
     7
100
AcDbLine
 10
7079.2490517596
 20
5470.8259538219
 30
0.0
 11
7079.420321981
 21
5470.855085592
 31
0.0
  0
LINE
  5
450
330
1F
100
AcDbEntity
  8
0
  6
Continuous
 62
     7
100
AcDbLine
 10
7079.420321981
 20
5470.855085592
 30
0.0
 11
7079.2490517596
 21
5470.8842322633
 31
0.0
  0
LINE
  5
451
330
1F
100
AcDbEntity
  8
0
  6
Continuous
 62
     7
100
AcDbLine
 10
7079.2490517596
 20
5470.8842322633
 30
0.0
 11
7078.761314402
 21
5470.9089234874
 31
0.0
  0
LINE
  5
452
330
1F
100
AcDbEntity
  8
0
  6
Continuous
 62
     7
100
AcDbLine
 10
7078.761314402
 20
5470.9089234874
 30
0.0
 11
7078.0313623944
 21
5470.925433974
 31
0.0
  0
LINE
  5
453
330
1F
100
AcDbEntity
  8
0
  6
Continuous
 62
     7
100
AcDbLine
 10
7078.0313623944
 20
5470.925433974
 30
0.0
 11
7077.1703248719
 21
5470.9312305257
 31
0.0
  0
LINE
  5
454
330
1F
100
AcDbEntity
  8
0
  6
Continuous
 62
     7
100
AcDbLine
 10
7077.1703248719
 20
5470.9312305257
 30
0.0
 11
7076.309283624
 21
5470.925433974
 31
0.0
  0
LINE
  5
455
330
1F
100
AcDbEntity
  8
0
  6
Continuous
 62
     7
100
AcDbLine
 10
7076.309283624
 20
5470.925433974
 30
0.0
 11
7075.5793316165
 21
5470.9089234874
 31
0.0
  0
LINE
  5
456
330
1F
100
AcDbEntity
  8
0
  6
Continuous
 62
     7
100
AcDbLine
 10
7075.5793316165
 20
5470.9089234874
 30
0.0
 11
7075.0915942589
 21
5470.8842322633
 31
0.0
  0
LINE
  5
457
330
1F
100
AcDbEntity
  8
0
  6
Continuous
 62
     7
100
AcDbLine
 10
7075.0915942589
 20
5470.8842322633
 30
0.0
 11
7074.9203240374
 21
5470.855085592
 31
0.0
  0
LINE
  5
458
330
1F
100
AcDbEntity
  8
0
  6
Continuous
 62
     7
100
AcDbLine
 10
7074.9203240374
 20
5470.855085592
 30
0.0
 11
7075.0915942589
 21
5470.8259538219
 31
0.0
  0
LINE
  5
459
330
1F
100
AcDbEntity
  8
0
  6
Continuous
 62
     7
100
AcDbLine
 10
7075.0915942589
 20
5470.8259538219
 30
0.0
 11
7075.5793316165
 21
5470.8012476966
 31
0.0
  0
LINE
  5
45A
330
1F
100
AcDbEntity
  8
0
  6
Continuous
 62
     7
100
AcDbLine
 10
7075.5793316165
 20
5470.8012476966
 30
0.0
 11
7076.309283624
 21
5470.78473721
 31
0.0
  0
LINE
  5
45B
330
1F
100
AcDbEntity
  8
0
  6
Continuous
 62
     7
100
AcDbLine
 10
7076.309283624
 20
5470.78473721
 30
0.0
 11
7077.1703248719
 21
5470.7789406583
 31
0.0
  0
LINE
  5
45C
330
1F
100
AcDbEntity
  8
0
  6
Continuous
 62
     7
100
AcDbLine
 10
6958.1040417651
 20
4858.4060356424
 30
0.0
 11
7428.6898275712
 21
4858.4060356424
 31
0.0
  0
LINE
  5
45D
330
1F
100
AcDbEntity
  8
0
  6
Continuous
 62
     7
100
AcDbLine
 10
6958.3969389895
 20
4860.4060098932
 30
0.0
 11
7429.3969472745
 21
4860.4060098932
 31
0.0
  0
LINE
  5
45E
330
1F
100
AcDbEntity
  8
0
  6
Continuous
 62
     7
100
AcDbLine
 10
6958.1040417651
 20
4858.4060356424
 30
0.0
 11
6958.1040417651
 21
4859.4060227678
 31
0.0
  0
LINE
  5
45F
330
1F
100
AcDbEntity
  8
0
  6
Continuous
 62
     7
100
AcDbLine
 10
7431.3969513276
 20
4858.4060356424
 30
0.0
 11
7431.3969513276
 21
4860.4060098932
 31
0.0
  0
LINE
  5
460
330
1F
100
AcDbEntity
  8
0
  6
Continuous
 62
     7
100
AcDbLine
 10
7431.3969513276
 20
4858.4060356424
 30
0.0
 11
7429.3969472745
 21
4858.4060356424
 31
0.0
  0
LINE
  5
461
330
1F
100
AcDbEntity
  8
0
  6
Continuous
 62
     7
100
AcDbLine
 10
7429.3969472745
 20
4858.4060356424
 30
0.0
 11
7429.3969472745
 21
4860.4060098932
 31
0.0
  0
LINE
  5
462
330
1F
100
AcDbEntity
  8
0
  6
Continuous
 62
     7
100
AcDbLine
 10
7429.3969472745
 20
4860.4060098932
 30
0.0
 11
7429.3969472745
 21
5158.406017761
 31
0.0
  0
LINE
  5
463
330
1F
100
AcDbEntity
  8
0
  6
Continuous
 62
     7
100
AcDbLine
 10
7429.3969472745
 20
5158.406017761
 30
0.0
 11
7431.3969513276
 21
5158.406017761
 31
0.0
  0
LINE
  5
464
330
1F
100
AcDbEntity
  8
0
  6
Continuous
 62
     7
100
AcDbLine
 10
7431.3969513276
 20
5158.406017761
 30
0.0
 11
7431.3969513276
 21
4860.4060098932
 31
0.0
  0
LINE
  5
465
330
1F
100
AcDbEntity
  8
0
  6
Continuous
 62
     7
100
AcDbLine
 10
7430.3969343999
 20
4858.4060356424
 30
0.0
 11
7431.3969513276
 21
4858.4060356424
 31
0.0
  0
LINE
  5
466
330
1F
100
AcDbEntity
  8
0
  6
Continuous
 62
     7
100
AcDbLine
 10
7430.3969343999
 20
4858.4060356424
 30
0.0
 11
7429.3969472745
 21
4858.4060356424
 31
0.0
  0
LINE
  5
467
330
1F
100
AcDbEntity
  8
0
  6
Continuous
 62
     7
100
AcDbLine
 10
6956.3969349364
 20
4860.1131126688
 30
0.0
 11
6957.3969369629
 21
4860.1131126688
 31
0.0
  0
LINE
  5
468
330
1F
100
AcDbEntity
  8
0
  6
Continuous
 62
     7
100
AcDbLine
 10
6956.3969349364
 20
5158.406017761
 30
0.0
 11
6956.3969349364
 21
4860.1131126688
 31
0.0
  0
LINE
  5
469
330
1F
100
AcDbEntity
  8
0
  6
Continuous
 62
     7
100
AcDbLine
 10
6956.3969349364
 20
5158.406017761
 30
0.0
 11
6958.3969389895
 21
5158.406017761
 31
0.0
  0
LINE
  5
46A
330
1F
100
AcDbEntity
  8
0
  6
Continuous
 62
     7
100
AcDbLine
 10
6958.3969389895
 20
5158.406017761
 30
0.0
 11
6958.3969389895
 21
4860.4060098932
 31
0.0
  0
LINE
  5
46B
330
1F
100
AcDbEntity
  8
0
  6
Continuous
 62
     7
100
AcDbLine
 10
6958.3969389895
 20
5158.406017761
 30
0.0
 11
7429.3969472745
 21
5158.406017761
 31
0.0
  0
LINE
  5
46C
330
1F
100
AcDbEntity
  8
0
  6
Continuous
 62
     7
100
AcDbLine
 10
7429.3969472745
 20
4858.4060356424
 30
0.0
 11
7429.3969472745
 21
4858.4047839449
 31
0.0
  0
LINE
  5
46D
330
1F
100
AcDbEntity
  8
0
  6
Continuous
 62
     7
100
AcDbLine
 10
6958.1040417651
 20
4858.4059164331
 30
0.0
 11
7390.689839969
 21
4858.4059164331
 31
0.0
  0
LINE
  5
46E
330
1F
100
AcDbEntity
  8
0
  6
Continuous
 62
     7
100
AcDbLine
 10
7428.6898275712
 20
4858.4060356424
 30
0.0
 11
7390.689839969
 21
4858.4059164331
 31
0.0
  0
LINE
  5
46F
330
1F
100
AcDbEntity
  8
0
  6
Continuous
 62
     7
100
AcDbLine
 10
6958.1040417651
 20
4858.4060356424
 30
0.0
 11
6958.1040417651
 21
4858.4059164331
 31
0.0
  0
LINE
  5
470
330
1F
100
AcDbEntity
  8
0
  6
Continuous
 62
     7
100
AcDbLine
 10
6957.3969369629
 20
4860.1131126688
 30
0.0
 11
6957.3969369629
 21
4860.1129934595
 31
0.0
  0
LINE
  5
471
330
1F
100
AcDbEntity
  8
0
  6
Continuous
 62
     7
100
AcDbLine
 10
6956.3969349364
 20
4860.1129934595
 30
0.0
 11
6957.3969369629
 21
4860.1129934595
 31
0.0
  0
LINE
  5
472
330
1F
100
AcDbEntity
  8
0
  6
Continuous
 62
     7
100
AcDbLine
 10
6956.3969349364
 20
4860.1131126688
 30
0.0
 11
6956.3969349364
 21
4860.1129934595
 31
0.0
  0
LINE
  5
473
330
1F
100
AcDbEntity
  8
0
  6
Continuous
 62
     7
100
AcDbLine
 10
7428.6898275712
 20
4858.4060356424
 30
0.0
 11
7429.3969472745
 21
4858.4060356424
 31
0.0
  0
LINE
  5
474
330
1F
100
AcDbEntity
  8
0
  6
Continuous
 62
     7
100
AcDbLine
 10
7429.1573664049
 20
4859.4060227678
 30
0.0
 11
7429.3969472745
 21
4859.4060227678
 31
0.0
  0
LINE
  5
475
330
1F
100
AcDbEntity
  8
0
  6
Continuous
 62
     7
100
AcDbLine
 10
7391.39692987
 20
4858.4059164331
 30
0.0
 11
7391.39692987
 21
4858.4049031541
 31
0.0
  0
LINE
  5
476
330
1F
100
AcDbEntity
  8
0
  6
Continuous
 62
     7
100
AcDbLine
 10
7429.3969472745
 20
4858.4047839449
 30
0.0
 11
7391.39692987
 21
4858.4049031541
 31
0.0
  0
LINE
  5
477
330
1F
100
AcDbEntity
  8
0
  6
Continuous
 62
     7
100
AcDbLine
 10
7390.689839969
 20
4858.4049031541
 30
0.0
 11
7172.5966831544
 21
4858.4049031541
 31
0.0
  0
LINE
  5
478
330
1F
100
AcDbEntity
  8
0
  6
Continuous
 62
     7
100
AcDbLine
 10
7105.750640283
 20
4858.4049031541
 30
0.0
 11
6999.325552384
 21
4858.4047839449
 31
0.0
  0
LINE
  5
479
330
1F
100
AcDbEntity
  8
0
  6
Continuous
 62
     7
100
AcDbLine
 10
6969.1736599306
 20
4858.4047839449
 30
0.0
 11
6958.1040417651
 21
4858.4049031541
 31
0.0
  0
LINE
  5
47A
330
1F
100
AcDbEntity
  8
0
  6
Continuous
 62
     7
100
AcDbLine
 10
6958.1040417651
 20
4858.4049031541
 30
0.0
 11
6958.1040417651
 21
4858.4059164331
 31
0.0
  0
LINE
  5
47B
330
1F
100
AcDbEntity
  8
0
  6
Continuous
 62
     7
100
AcDbLine
 10
7390.689839969
 20
4858.4059164331
 30
0.0
 11
7390.689839969
 21
4858.4049031541
 31
0.0
  0
LINE
  5
47C
330
1F
100
AcDbEntity
  8
0
  6
Continuous
 62
     7
100
AcDbLine
 10
7428.6898275712
 20
4858.4047839449
 30
0.0
 11
7172.5966831544
 21
4858.4049031541
 31
0.0
  0
LINE
  5
47D
330
1F
100
AcDbEntity
  8
0
  6
Continuous
 62
     7
100
AcDbLine
 10
7105.750640283
 20
4858.4049031541
 30
0.0
 11
6999.325552384
 21
4858.4047839449
 31
0.0
  0
LINE
  5
47E
330
1F
100
AcDbEntity
  8
0
  6
Continuous
 62
     7
100
AcDbLine
 10
6969.1736599306
 20
4858.4047839449
 30
0.0
 11
6958.1040417651
 21
4858.4047839449
 31
0.0
  0
LINE
  5
47F
330
1F
100
AcDbEntity
  8
0
  6
Continuous
 62
     7
100
AcDbLine
 10
6958.1040417651
 20
4858.4047839449
 30
0.0
 11
6958.1040417651
 21
4858.4049031541
 31
0.0
  0
LINE
  5
480
330
1F
100
AcDbEntity
  8
0
  6
Continuous
 62
     7
100
AcDbLine
 10
7390.689839969
 20
4858.4049031541
 30
0.0
 11
7391.39692987
 21
4858.4049031541
 31
0.0
  0
LINE
  5
481
330
1F
100
AcDbEntity
  8
0
  6
Continuous
 62
     7
100
AcDbLine
 10
6956.3969349364
 20
4860.1119801805
 30
0.0
 11
6957.3969369629
 21
4860.1119801805
 31
0.0
  0
LINE
  5
482
330
1F
100
AcDbEntity
  8
0
  6
Continuous
 62
     7
100
AcDbLine
 10
6956.3969349364
 20
4860.1119801805
 30
0.0
 11
6957.3969369629
 21
4860.1119801805
 31
0.0
  0
LINE
  5
483
330
1F
100
AcDbEntity
  8
0
  6
Continuous
 62
     7
100
AcDbLine
 10
6956.3969349364
 20
4860.1119801805
 30
0.0
 11
6956.3969349364
 21
4860.1129934595
 31
0.0
  0
LINE
  5
484
330
1F
100
AcDbEntity
  8
0
  6
Continuous
 62
     7
100
AcDbLine
 10
6957.3969369629
 20
4860.1119801805
 30
0.0
 11
6957.3969369629
 21
4860.1129934595
 31
0.0
  0
LINE
  5
485
330
1F
100
AcDbEntity
  8
0
  6
Continuous
 62
     7
100
AcDbLine
 10
7430.3969343999
 20
4858.4047839449
 30
0.0
 11
7431.3969513276
 21
4858.4047839449
 31
0.0
  0
LINE
  5
486
330
1F
100
AcDbEntity
  8
0
  6
Continuous
 62
     7
100
AcDbLine
 10
7430.3969343999
 20
4858.4047839449
 30
0.0
 11
7430.3969343999
 21
4858.4060356424
 31
0.0
  0
LINE
  5
487
330
1F
100
AcDbEntity
  8
0
  6
Continuous
 62
     7
100
AcDbLine
 10
7431.3969513276
 20
4858.4047839449
 30
0.0
 11
7431.3969513276
 21
4858.4060356424
 31
0.0
  0
LINE
  5
488
330
1F
100
AcDbEntity
  8
0
  6
Continuous
 62
     7
100
AcDbLine
 10
7429.3969472745
 20
4858.4047839449
 30
0.0
 11
7431.3969513276
 21
4858.4047839449
 31
0.0
  0
LINE
  5
489
330
1F
100
AcDbEntity
  8
0
  6
Continuous
 62
     7
100
AcDbLine
 10
7429.3969472745
 20
4858.4047839449
 30
0.0
 11
7430.3969343999
 21
4858.4047839449
 31
0.0
  0
LINE
  5
48A
330
1F
100
AcDbEntity
  8
0
  6
Continuous
 62
     7
100
AcDbLine
 10
6957.617645512
 20
5159.5560297773
 30
0.0
 11
6957.617645512
 21
5158.406017761
 31
0.0
  0
LINE
  5
48B
330
1F
100
AcDbEntity
  8
0
  6
Continuous
 62
     7
100
AcDbLine
 10
6957.5469395021
 20
5159.6266612814
 30
0.0
 11
6956.34693409
 21
5159.626720886
 31
0.0
  0
LINE
  5
48C
330
1F
100
AcDbEntity
  8
0
  6
Continuous
 62
     7
100
AcDbLine
 10
6956.34693409
 20
5159.626720886
 30
0.0
 11
6956.3745086888
 21
5159.6709177301
 31
0.0
  0
LINE
  5
48D
330
1F
100
AcDbEntity
  8
0
  6
Continuous
 62
     7
100
AcDbLine
 10
6957.996939669
 20
5160.006015043
 30
0.0
 11
6957.996939669
 21
5198.8560244844
 31
0.0
  0
LINE
  5
48E
330
1F
100
AcDbEntity
  8
0
  6
Continuous
 62
     7
100
AcDbLine
 10
6956.34693409
 20
5198.8560244844
 30
0.0
 11
6956.34693409
 21
5159.626720886
 31
0.0
  0
LINE
  5
48F
330
1F
100
AcDbEntity
  8
0
  6
Continuous
 62
     7
100
AcDbLine
 10
6957.996939669
 20
5198.8560244844
 30
0.0
 11
6956.34693409
 21
5198.8560244844
 31
0.0
  0
LINE
  5
490
330
1F
100
AcDbEntity
  8
0
  6
Continuous
 62
     7
100
AcDbLine
 10
7001.8469368914
 20
5160.006015043
 30
0.0
 11
6957.996939669
 21
5160.006015043
 31
0.0
  0
LINE
  5
491
330
1F
100
AcDbEntity
  8
0
  6
Continuous
 62
     7
100
AcDbLine
 10
7001.8469368914
 20
5158.406017761
 30
0.0
 11
7001.8469368914
 21
5160.006015043
 31
0.0
  0
LINE
  5
492
330
1F
100
AcDbEntity
  8
0
  6
Continuous
 62
     7
100
AcDbLine
 10
6957.996939669
 20
5198.8560244844
 30
0.0
 11
7001.3469358781
 21
5198.8560244844
 31
0.0
  0
LINE
  5
493
330
1F
100
AcDbEntity
  8
0
  6
Continuous
 62
     7
100
AcDbLine
 10
7001.8469368914
 20
5198.3560309217
 30
0.0
 11
7001.8469368914
 21
5160.006015043
 31
0.0
  0
LINE
  5
494
330
1F
100
AcDbEntity
  8
0
  6
Continuous
 62
     7
100
AcDbLine
 10
6956.34693409
 20
5159.6266612814
 30
0.0
 11
6957.5469395021
 21
5159.6266612814
 31
0.0
  0
LINE
  5
495
330
1F
100
AcDbEntity
  8
0
  6
Continuous
 62
     7
100
AcDbLine
 10
6957.5469395021
 20
5159.6255585954
 30
0.0
 11
6957.5469395021
 21
5159.6266612814
 31
0.0
  0
LINE
  5
496
330
1F
100
AcDbEntity
  8
0
  6
Continuous
 62
     7
100
AcDbLine
 10
6956.34693409
 20
5159.6266612814
 30
0.0
 11
6956.34693409
 21
5159.6255585954
 31
0.0
  0
LINE
  5
497
330
1F
100
AcDbEntity
  8
0
  6
Continuous
 62
     7
100
AcDbLine
 10
7009.6765974412
 20
5301.905421953
 30
0.0
 11
7009.2834917704
 21
5301.905421953
 31
0.0
  0
LINE
  5
498
330
1F
100
AcDbEntity
  8
0
  6
Continuous
 62
     7
100
AcDbLine
 10
7009.6765974412
 20
5301.9053921506
 30
0.0
 11
7010.1647464434
 21
5301.9053921506
 31
0.0
  0
LINE
  5
499
330
1F
100
AcDbEntity
  8
0
  6
Continuous
 62
     7
100
AcDbLine
 10
7010.1647464434
 20
5301.9053921506
 30
0.0
 11
7010.5153260628
 21
5301.9053921506
 31
0.0
  0
LINE
  5
49A
330
1F
100
AcDbEntity
  8
0
  6
Continuous
 62
     7
100
AcDbLine
 10
7010.5153260628
 20
5301.9053921506
 30
0.0
 11
7010.726438264
 21
5301.9053921506
 31
0.0
  0
LINE
  5
49B
330
1F
100
AcDbEntity
  8
0
  6
Continuous
 62
     7
100
AcDbLine
 10
7010.726438264
 20
5301.9053921506
 30
0.0
 11
7010.7969375202
 21
5301.9053921506
 31
0.0
  0
LINE
  5
49C
330
1F
100
AcDbEntity
  8
0
  6
Continuous
 62
     7
100
AcDbLine
 10
7010.7969375202
 20
5301.9053921506
 30
0.0
 11
7010.726438264
 21
5301.9053921506
 31
0.0
  0
LINE
  5
49D
330
1F
100
AcDbEntity
  8
0
  6
Continuous
 62
     7
100
AcDbLine
 10
7010.726438264
 20
5301.9053921506
 30
0.0
 11
7010.5153260628
 21
5301.905421953
 31
0.0
  0
LINE
  5
49E
330
1F
100
AcDbEntity
  8
0
  6
Continuous
 62
     7
100
AcDbLine
 10
7010.5153260628
 20
5301.905421953
 30
0.0
 11
7010.1647464434
 21
5301.905421953
 31
0.0
  0
LINE
  5
49F
330
1F
100
AcDbEntity
  8
0
  6
Continuous
 62
     7
100
AcDbLine
 10
7010.1647464434
 20
5301.905421953
 30
0.0
 11
7009.6765974412
 21
5301.905421953
 31
0.0
  0
LINE
  5
4A0
330
1F
100
AcDbEntity
  8
0
  6
Continuous
 62
     7
100
AcDbLine
 10
7009.6765974412
 20
5301.9053921506
 30
0.0
 11
7009.2834917704
 21
5301.905421953
 31
0.0
  0
LINE
  5
4A1
330
1F
100
AcDbEntity
  8
0
  6
Continuous
 62
     7
100
AcDbLine
 10
7009.6765974412
 20
5312.5054225729
 30
0.0
 11
7009.3070337424
 21
5312.5054225729
 31
0.0
  0
LINE
  5
4A2
330
1F
100
AcDbEntity
  8
0
  6
Continuous
 62
     7
100
AcDbLine
 10
7010.7969375202
 20
5312.5053927705
 30
0.0
 11
7010.726438264
 21
5312.5053927705
 31
0.0
  0
LINE
  5
4A3
330
1F
100
AcDbEntity
  8
0
  6
Continuous
 62
     7
100
AcDbLine
 10
7010.726438264
 20
5312.5053927705
 30
0.0
 11
7010.5153260628
 21
5312.5054225729
 31
0.0
  0
LINE
  5
4A4
330
1F
100
AcDbEntity
  8
0
  6
Continuous
 62
     7
100
AcDbLine
 10
7010.5153260628
 20
5312.5054225729
 30
0.0
 11
7010.1647464434
 21
5312.5054225729
 31
0.0
  0
LINE
  5
4A5
330
1F
100
AcDbEntity
  8
0
  6
Continuous
 62
     7
100
AcDbLine
 10
7010.1647464434
 20
5312.5054225729
 30
0.0
 11
7009.6765974412
 21
5312.5054225729
 31
0.0
  0
LINE
  5
4A6
330
1F
100
AcDbEntity
  8
0
  6
Continuous
 62
     7
100
AcDbLine
 10
7430.1262399057
 20
5160.0547716425
 30
0.0
 11
7429.7469457487
 21
5160.0547716425
 31
0.0
  0
LINE
  5
4A7
330
1F
100
AcDbEntity
  8
0
  6
Continuous
 62
     7
100
AcDbLine
 10
6984.1736642519
 20
4858.4059164331
 30
0.0
 11
6984.1736642519
 21
4851.4592931078
 31
0.0
  0
LINE
  5
4A8
330
1F
100
AcDbEntity
  8
0
  6
Continuous
 62
     7
100
AcDbLine
 10
7112.0674511293
 20
4786.1536428735
 30
0.0
 11
7112.2441341976
 21
4786.1536428735
 31
0.0
  0
LINE
  5
4A9
330
1F
100
AcDbEntity
  8
0
  6
Continuous
 62
     7
100
AcDbLine
 10
7112.2441341976
 20
4786.1536428735
 30
0.0
 11
7112.7718886236
 21
4786.1536428735
 31
0.0
  0
LINE
  5
4AA
330
1F
100
AcDbEntity
  8
0
  6
Continuous
 62
     7
100
AcDbLine
 10
7112.7718886236
 20
4786.1536428735
 30
0.0
 11
7113.6438300708
 21
4786.1536428735
 31
0.0
  0
LINE
  5
4AB
330
1F
100
AcDbEntity
  8
0
  6
Continuous
 62
     7
100
AcDbLine
 10
7113.6438300708
 20
4786.1536428735
 30
0.0
 11
7114.8485889533
 21
4786.1536428735
 31
0.0
  0
LINE
  5
4AC
330
1F
100
AcDbEntity
  8
0
  6
Continuous
 62
     7
100
AcDbLine
 10
7114.8485889533
 20
4786.1536428735
 30
0.0
 11
7116.3704668978
 21
4786.1536428735
 31
0.0
  0
LINE
  5
4AD
330
1F
100
AcDbEntity
  8
0
  6
Continuous
 62
     7
100
AcDbLine
 10
7116.3704668978
 20
4786.1536428735
 30
0.0
 11
7118.1896155575
 21
4786.1536428735
 31
0.0
  0
LINE
  5
4AE
330
1F
100
AcDbEntity
  8
0
  6
Continuous
 62
     7
100
AcDbLine
 10
7118.1896155575
 20
4786.1536428735
 30
0.0
 11
7120.282327185
 21
4786.1536428735
 31
0.0
  0
LINE
  5
4AF
330
1F
100
AcDbEntity
  8
0
  6
Continuous
 62
     7
100
AcDbLine
 10
7120.282327185
 20
4786.1536428735
 30
0.0
 11
7122.6213103035
 21
4786.1537024782
 31
0.0
  0
LINE
  5
4B0
330
1F
100
AcDbEntity
  8
0
  6
Continuous
 62
     7
100
AcDbLine
 10
7122.6213103035
 20
4786.1537024782
 30
0.0
 11
7125.1760845879
 21
4786.1537024782
 31
0.0
  0
LINE
  5
4B1
330
1F
100
AcDbEntity
  8
0
  6
Continuous
 62
     7
100
AcDbLine
 10
7125.1760845879
 20
4786.1537024782
 30
0.0
 11
7127.9133384922
 21
4786.1537024782
 31
0.0
  0
LINE
  5
4B2
330
1F
100
AcDbEntity
  8
0
  6
Continuous
 62
     7
100
AcDbLine
 10
7127.9133384922
 20
4786.1537024782
 30
0.0
 11
7130.7973837355
 21
4786.1537024782
 31
0.0
  0
LINE
  5
4B3
330
1F
100
AcDbEntity
  8
0
  6
Continuous
 62
     7
100
AcDbLine
 10
7130.7973837355
 20
4786.1537024782
 30
0.0
 11
7133.790624688
 21
4786.1537024782
 31
0.0
  0
LINE
  5
4B4
330
1F
100
AcDbEntity
  8
0
  6
Continuous
 62
     7
100
AcDbLine
 10
7133.790624688
 20
4786.1537024782
 30
0.0
 11
7136.8540501097
 21
4786.1537024782
 31
0.0
  0
LINE
  5
4B5
330
1F
100
AcDbEntity
  8
0
  6
Continuous
 62
     7
100
AcDbLine
 10
7136.8540501097
 20
4786.1537024782
 30
0.0
 11
7139.9477099875
 21
4786.1537024782
 31
0.0
  0
LINE
  5
4B6
330
1F
100
AcDbEntity
  8
0
  6
Continuous
 62
     7
100
AcDbLine
 10
7139.9477099875
 20
4786.1537024782
 30
0.0
 11
7143.0312817791
 21
4786.1537024782
 31
0.0
  0
LINE
  5
4B7
330
1F
100
AcDbEntity
  8
0
  6
Continuous
 62
     7
100
AcDbLine
 10
7143.0312817791
 20
4786.1537024782
 30
0.0
 11
7146.0645621518
 21
4786.1537024782
 31
0.0
  0
LINE
  5
4B8
330
1F
100
AcDbEntity
  8
0
  6
Continuous
 62
     7
100
AcDbLine
 10
7146.0645621518
 20
4786.1537024782
 30
0.0
 11
7149.0080034235
 21
4786.1537024782
 31
0.0
  0
LINE
  5
4B9
330
1F
100
AcDbEntity
  8
0
  6
Continuous
 62
     7
100
AcDbLine
 10
7149.0080034235
 20
4786.1537024782
 30
0.0
 11
7151.8232500056
 21
4786.1537024782
 31
0.0
  0
LINE
  5
4BA
330
1F
100
AcDbEntity
  8
0
  6
Continuous
 62
     7
100
AcDbLine
 10
7151.8232500056
 20
4786.1537024782
 30
0.0
 11
7154.4735854367
 21
4786.1537024782
 31
0.0
  0
LINE
  5
4BB
330
1F
100
AcDbEntity
  8
0
  6
Continuous
 62
     7
100
AcDbLine
 10
7154.4735854367
 20
4786.1537024782
 30
0.0
 11
7156.9244613746
 21
4786.1537024782
 31
0.0
  0
LINE
  5
4BC
330
1F
100
AcDbEntity
  8
0
  6
Continuous
 62
     7
100
AcDbLine
 10
7156.9244613746
 20
4786.1537024782
 30
0.0
 11
7159.1439297298
 21
4786.1536428735
 31
0.0
  0
LINE
  5
4BD
330
1F
100
AcDbEntity
  8
0
  6
Continuous
 62
     7
100
AcDbLine
 10
7159.1439297298
 20
4786.1536428735
 30
0.0
 11
7161.1030524472
 21
4786.1536428735
 31
0.0
  0
LINE
  5
4BE
330
1F
100
AcDbEntity
  8
0
  6
Continuous
 62
     7
100
AcDbLine
 10
7161.1030524472
 20
4786.1536428735
 30
0.0
 11
7162.776296387
 21
4786.1536428735
 31
0.0
  0
LINE
  5
4BF
330
1F
100
AcDbEntity
  8
0
  6
Continuous
 62
     7
100
AcDbLine
 10
7162.776296387
 20
4786.1536428735
 30
0.0
 11
7164.1418387988
 21
4786.1536428735
 31
0.0
  0
LINE
  5
4C0
330
1F
100
AcDbEntity
  8
0
  6
Continuous
 62
     7
100
AcDbLine
 10
7164.1418387988
 20
4786.1536428735
 30
0.0
 11
7165.1818802455
 21
4786.1536428735
 31
0.0
  0
LINE
  5
4C1
330
1F
100
AcDbEntity
  8
0
  6
Continuous
 62
     7
100
AcDbLine
 10
7165.1818802455
 20
4786.1536428735
 30
0.0
 11
7165.8828755716
 21
4786.1536428735
 31
0.0
  0
LINE
  5
4C2
330
1F
100
AcDbEntity
  8
0
  6
Continuous
 62
     7
100
AcDbLine
 10
7165.8828755716
 20
4786.1536428735
 30
0.0
 11
7166.235675464
 21
4786.1536428735
 31
0.0
  0
LINE
  5
4C3
330
1F
100
AcDbEntity
  8
0
  6
Continuous
 62
     7
100
AcDbLine
 10
7166.235675464
 20
4786.1536428735
 30
0.0
 11
7166.2798723081
 21
4786.1536428735
 31
0.0
  0
LINE
  5
4C4
330
1F
100
AcDbEntity
  8
0
  6
Continuous
 62
     7
100
AcDbLine
 10
7004.3969353536
 20
5472.3714575574
 30
0.0
 11
7004.3969353536
 21
5472.8711232946
 31
0.0
  0
LINE
  5
4C5
330
1F
100
AcDbEntity
  8
0
  6
Continuous
 62
     7
100
AcDbLine
 10
7004.3969353536
 20
5412.8711209104
 30
0.0
 11
7004.3969353536
 21
5413.3714571998
 31
0.0
  0
LINE
  5
4C6
330
1F
100
AcDbEntity
  8
0
  6
Continuous
 62
     7
100
AcDbLine
 10
6411.6538023624
 20
4245.6609428771
 30
0.0
 11
6411.6538023624
 21
4245.6440300592
 31
0.0
  0
LINE
  5
4C7
330
1F
100
AcDbEntity
  8
0
  6
Continuous
 62
     7
100
AcDbLine
 10
6429.574810532
 20
4246.01618656
 30
0.0
 11
6429.574810532
 21
4245.6609428771
 31
0.0
  0
LINE
  5
4C8
330
1F
100
AcDbEntity
  8
0
  6
Continuous
 62
     7
100
AcDbLine
 10
6429.774806467
 20
4247.5363955744
 30
0.0
 11
6429.774806467
 21
4246.01618656
 31
0.0
  0
LINE
  5
4C9
330
1F
100
AcDbEntity
  8
0
  6
Continuous
 62
     7
100
AcDbLine
 10
6429.774806467
 20
4249.4902432807
 30
0.0
 11
6429.774806467
 21
4249.2457301267
 31
0.0
  0
LINE
  5
4CA
330
1F
100
AcDbEntity
  8
0
  6
Continuous
 62
     7
100
AcDbLine
 10
6429.774806467
 20
4251.444090987
 30
0.0
 11
6429.774806467
 21
4251.199577833
 31
0.0
  0
LINE
  5
4CB
330
1F
100
AcDbEntity
  8
0
  6
Continuous
 62
     7
100
AcDbLine
 10
6429.774806467
 20
4253.3979386934
 30
0.0
 11
6429.774806467
 21
4253.1534180888
 31
0.0
  0
LINE
  5
4CC
330
1F
100
AcDbEntity
  8
0
  6
Continuous
 62
     7
100
AcDbLine
 10
6429.774806467
 20
4255.3517863997
 30
0.0
 11
6429.774806467
 21
4255.1072657951
 31
0.0
  0
LINE
  5
4CD
330
1F
100
AcDbEntity
  8
0
  6
Continuous
 62
     7
100
AcDbLine
 10
6449.7748097452
 20
4256.0846478589
 30
0.0
 11
6449.7748097452
 21
4256.3285351642
 31
0.0
  0
LINE
  5
4CE
330
1F
100
AcDbEntity
  8
0
  6
Continuous
 62
     7
100
AcDbLine
 10
6449.7748097452
 20
4254.1308076032
 30
0.0
 11
6449.7748097452
 21
4254.3746874579
 31
0.0
  0
LINE
  5
4CF
330
1F
100
AcDbEntity
  8
0
  6
Continuous
 62
     7
100
AcDbLine
 10
6449.7748097452
 20
4252.1769598969
 30
0.0
 11
6449.7748097452
 21
4252.4208397516
 31
0.0
  0
LINE
  5
4D0
330
1F
100
AcDbEntity
  8
0
  6
Continuous
 62
     7
100
AcDbLine
 10
6449.7748097452
 20
4250.2231121906
 30
0.0
 11
6449.7748097452
 21
4250.4669920452
 31
0.0
  0
LINE
  5
4D1
330
1F
100
AcDbEntity
  8
0
  6
Continuous
 62
     7
100
AcDbLine
 10
6449.7748097452
 20
4246.1609438904
 30
0.0
 11
6449.7748097452
 21
4248.5131443389
 31
0.0
  0
LINE
  5
4D2
330
1F
100
AcDbEntity
  8
0
  6
Continuous
 62
     7
100
AcDbLine
 10
6448.751405445
 20
4257.5395897873
 30
0.0
 11
6448.2748067054
 21
4258.0161885269
 31
0.0
  0
LINE
  5
4D3
330
1F
100
AcDbEntity
  8
0
  6
Continuous
 62
     7
100
AcDbLine
 10
6431.2748095068
 20
4258.0161885269
 30
0.0
 11
6430.1880305681
 21
4256.9294095882
 31
0.0
  0
LINE
  5
4D4
330
1F
100
AcDbEntity
  8
0
  6
Continuous
 62
     7
100
AcDbLine
 10
6430.8323567781
 20
4254.4971228488
 30
0.0
 11
6430.8323567781
 21
4254.0182218798
 31
0.0
  0
LINE
  5
4D5
330
1F
100
AcDbEntity
  8
0
  6
Continuous
 62
     7
100
AcDbLine
 10
6430.8323567781
 20
4252.5432825931
 30
0.0
 11
6430.8323567781
 21
4252.0643741735
 31
0.0
  0
LINE
  5
4D6
330
1F
100
AcDbEntity
  8
0
  6
Continuous
 62
     7
100
AcDbLine
 10
6430.8323567781
 20
4250.5894348868
 30
0.0
 11
6430.8323567781
 21
4250.1105264672
 31
0.0
  0
LINE
  5
4D7
330
1F
100
AcDbEntity
  8
0
  6
Continuous
 62
     7
100
AcDbLine
 10
6430.8323567781
 20
4248.6355871805
 30
0.0
 11
6430.8323567781
 21
4248.1566787608
 31
0.0
  0
LINE
  5
4D8
330
1F
100
AcDbEntity
  8
0
  6
Continuous
 62
     7
100
AcDbLine
 10
6448.7172594342
 20
4254.9855903633
 30
0.0
 11
6448.7172594342
 21
4255.4643497713
 31
0.0
  0
LINE
  5
4D9
330
1F
100
AcDbEntity
  8
0
  6
Continuous
 62
     7
100
AcDbLine
 10
6448.7172594342
 20
4253.031742657
 30
0.0
 11
6448.7172594342
 21
4253.510502065
 31
0.0
  0
LINE
  5
4DA
330
1F
100
AcDbEntity
  8
0
  6
Continuous
 62
     7
100
AcDbLine
 10
6448.7172594342
 20
4251.0778949507
 30
0.0
 11
6448.7172594342
 21
4251.5566543587
 31
0.0
  0
LINE
  5
4DB
330
1F
100
AcDbEntity
  8
0
  6
Continuous
 62
     7
100
AcDbLine
 10
6448.7172594342
 20
4249.1240472444
 30
0.0
 11
6448.7172594342
 21
4249.602814103
 31
0.0
  0
LINE
  5
4DC
330
1F
100
AcDbEntity
  8
0
  6
Continuous
 62
     7
100
AcDbLine
 10
6448.7172594342
 20
4256.9394306191
 30
0.0
 11
6448.7172594342
 21
4257.4278981336
 31
0.0
  0
LINE
  5
4DD
330
1F
100
AcDbEntity
  8
0
  6
Continuous
 62
     7
100
AcDbLine
 10
6430.8323567781
 20
4256.4509705551
 30
0.0
 11
6430.8323567781
 21
4255.9720695861
 31
0.0
  0
LINE
  5
4DE
330
1F
100
AcDbEntity
  8
0
  6
Continuous
 62
     7
100
AcDbLine
 10
6291.7225403759
 20
4245.6609428771
 30
0.0
 11
6291.7225403759
 21
4245.6440300592
 31
0.0
  0
LINE
  5
4DF
330
1F
100
AcDbEntity
  8
0
  6
Continuous
 62
     7
100
AcDbLine
 10
6347.9645462754
 20
4245.6440300592
 30
0.0
 11
6347.9645462754
 21
4245.6609428771
 31
0.0
  0
LINE
  5
4E0
330
1F
100
AcDbEntity
  8
0
  6
Continuous
 62
     7
100
AcDbLine
 10
6309.6435429576
 20
4246.01618656
 30
0.0
 11
6309.6435429576
 21
4245.6609428771
 31
0.0
  0
LINE
  5
4E1
330
1F
100
AcDbEntity
  8
0
  6
Continuous
 62
     7
100
AcDbLine
 10
6330.0435427624
 20
4245.6609428771
 30
0.0
 11
6330.0435427624
 21
4246.01618656
 31
0.0
  0
LINE
  5
4E2
330
1F
100
AcDbEntity
  8
0
  6
Continuous
 62
     7
100
AcDbLine
 10
6309.8435426178
 20
4247.5363955744
 30
0.0
 11
6309.8435426178
 21
4246.01618656
 31
0.0
  0
LINE
  5
4E3
330
1F
100
AcDbEntity
  8
0
  6
Continuous
 62
     7
100
AcDbLine
 10
6309.8435426178
 20
4249.4902432807
 30
0.0
 11
6309.8435426178
 21
4249.2457301267
 31
0.0
  0
LINE
  5
4E4
330
1F
100
AcDbEntity
  8
0
  6
Continuous
 62
     7
100
AcDbLine
 10
6309.8435426178
 20
4251.444090987
 30
0.0
 11
6309.8435426178
 21
4251.199577833
 31
0.0
  0
LINE
  5
4E5
330
1F
100
AcDbEntity
  8
0
  6
Continuous
 62
     7
100
AcDbLine
 10
6309.8435426178
 20
4253.3979386934
 30
0.0
 11
6309.8435426178
 21
4253.1534180888
 31
0.0
  0
LINE
  5
4E6
330
1F
100
AcDbEntity
  8
0
  6
Continuous
 62
     7
100
AcDbLine
 10
6309.8435426178
 20
4255.3517863997
 30
0.0
 11
6309.8435426178
 21
4255.1072657951
 31
0.0
  0
LINE
  5
4E7
330
1F
100
AcDbEntity
  8
0
  6
Continuous
 62
     7
100
AcDbLine
 10
6329.8435427529
 20
4256.0846478589
 30
0.0
 11
6329.8435427529
 21
4256.3285351642
 31
0.0
  0
LINE
  5
4E8
330
1F
100
AcDbEntity
  8
0
  6
Continuous
 62
     7
100
AcDbLine
 10
6329.8435427529
 20
4254.1308076032
 30
0.0
 11
6329.8435427529
 21
4254.3746874579
 31
0.0
  0
LINE
  5
4E9
330
1F
100
AcDbEntity
  8
0
  6
Continuous
 62
     7
100
AcDbLine
 10
6329.8435427529
 20
4252.1769598969
 30
0.0
 11
6329.8435427529
 21
4252.4208397516
 31
0.0
  0
LINE
  5
4EA
330
1F
100
AcDbEntity
  8
0
  6
Continuous
 62
     7
100
AcDbLine
 10
6329.8435427529
 20
4250.2231121906
 30
0.0
 11
6329.8435427529
 21
4250.4669920452
 31
0.0
  0
LINE
  5
4EB
330
1F
100
AcDbEntity
  8
0
  6
Continuous
 62
     7
100
AcDbLine
 10
6329.8435427529
 20
4246.01618656
 30
0.0
 11
6329.8435427529
 21
4248.5131517895
 31
0.0
  0
LINE
  5
4EC
330
1F
100
AcDbEntity
  8
0
  6
Continuous
 62
     7
100
AcDbLine
 10
6328.8201390348
 20
4257.5395897873
 30
0.0
 11
6328.3435428563
 21
4258.0161885269
 31
0.0
  0
LINE
  5
4ED
330
1F
100
AcDbEntity
  8
0
  6
Continuous
 62
     7
100
AcDbLine
 10
6311.3435419324
 20
4258.0161885269
 30
0.0
 11
6310.2567685816
 21
4256.9294095882
 31
0.0
  0
LINE
  5
4EE
330
1F
100
AcDbEntity
  8
0
  6
Continuous
 62
     7
100
AcDbLine
 10
6310.9010929289
 20
4254.4971228488
 30
0.0
 11
6310.9010929289
 21
4254.0182218798
 31
0.0
  0
LINE
  5
4EF
330
1F
100
AcDbEntity
  8
0
  6
Continuous
 62
     7
100
AcDbLine
 10
6310.9010929289
 20
4252.5432825931
 30
0.0
 11
6310.9010929289
 21
4252.0643741735
 31
0.0
  0
LINE
  5
4F0
330
1F
100
AcDbEntity
  8
0
  6
Continuous
 62
     7
100
AcDbLine
 10
6310.9010929289
 20
4250.5894348868
 30
0.0
 11
6310.9010929289
 21
4250.1105264672
 31
0.0
  0
LINE
  5
4F1
330
1F
100
AcDbEntity
  8
0
  6
Continuous
 62
     7
100
AcDbLine
 10
6310.9010929289
 20
4248.6355871805
 30
0.0
 11
6310.9010929289
 21
4248.1566862114
 31
0.0
  0
LINE
  5
4F2
330
1F
100
AcDbEntity
  8
0
  6
Continuous
 62
     7
100
AcDbLine
 10
6328.7859923254
 20
4254.9855903633
 30
0.0
 11
6328.7859923254
 21
4255.4643497713
 31
0.0
  0
LINE
  5
4F3
330
1F
100
AcDbEntity
  8
0
  6
Continuous
 62
     7
100
AcDbLine
 10
6328.7859923254
 20
4253.031742657
 30
0.0
 11
6328.7859923254
 21
4253.510502065
 31
0.0
  0
LINE
  5
4F4
330
1F
100
AcDbEntity
  8
0
  6
Continuous
 62
     7
100
AcDbLine
 10
6328.7859923254
 20
4251.0778949507
 30
0.0
 11
6328.7859923254
 21
4251.5566618093
 31
0.0
  0
LINE
  5
4F5
330
1F
100
AcDbEntity
  8
0
  6
Continuous
 62
     7
100
AcDbLine
 10
6328.7859923254
 20
4249.1240472444
 30
0.0
 11
6328.7859923254
 21
4249.602814103
 31
0.0
  0
LINE
  5
4F6
330
1F
100
AcDbEntity
  8
0
  6
Continuous
 62
     7
100
AcDbLine
 10
6328.7859923254
 20
4256.9394306191
 30
0.0
 11
6328.7859923254
 21
4257.4278981336
 31
0.0
  0
LINE
  5
4F7
330
1F
100
AcDbEntity
  8
0
  6
Continuous
 62
     7
100
AcDbLine
 10
6310.9010929289
 20
4256.4509705551
 30
0.0
 11
6310.9010929289
 21
4255.9720695861
 31
0.0
  0
LINE
  5
4F8
330
1F
100
AcDbEntity
  8
0
  6
Continuous
 62
     7
100
AcDbLine
 10
6304.0195224854
 20
4198.1609397479
 30
0.0
 11
6304.0195224854
 21
4200.660941089
 31
0.0
  0
LINE
  5
4F9
330
1F
100
AcDbEntity
  8
0
  6
Continuous
 62
     7
100
AcDbLine
 10
6244.0195238265
 20
4200.660941089
 30
0.0
 11
6244.0195238265
 21
4198.1609397479
 31
0.0
  0
LINE
  5
4FA
330
1F
100
AcDbEntity
  8
0
  6
Continuous
 62
     7
100
AcDbLine
 10
6244.0195238265
 20
4198.1609397479
 30
0.0
 11
6244.5195248398
 21
4197.6609424599
 31
0.0
  0
LINE
  5
4FB
330
1F
100
AcDbEntity
  8
0
  6
Continuous
 62
     7
100
AcDbLine
 10
6303.5195214721
 20
4197.6609424599
 30
0.0
 11
6304.0195224854
 21
4198.1609397479
 31
0.0
  0
LINE
  5
4FC
330
1F
100
AcDbEntity
  8
0
  6
Continuous
 62
     7
100
AcDbLine
 10
6260.0195189986
 20
4197.6609424599
 30
0.0
 11
6260.0195189986
 21
4032.6609359034
 31
0.0
  0
LINE
  5
4FD
330
1F
100
AcDbEntity
  8
0
  6
Continuous
 62
     7
100
AcDbLine
 10
6288.0195235881
 20
4032.6609359034
 30
0.0
 11
6288.0195235881
 21
4197.6609424599
 31
0.0
  0
LINE
  5
4FE
330
1F
100
AcDbEntity
  8
0
  6
Continuous
 62
     7
100
AcDbLine
 10
6260.0195189986
 20
4032.6609359034
 30
0.0
 11
6261.0195210251
 21
4031.6609338768
 31
0.0
  0
LINE
  5
4FF
330
1F
100
AcDbEntity
  8
0
  6
Continuous
 62
     7
100
AcDbLine
 10
6287.0195215616
 20
4031.6609338769
 30
0.0
 11
6288.0195235881
 21
4032.6609359034
 31
0.0
  0
LINE
  5
500
330
1F
100
AcDbEntity
  8
0
  6
Continuous
 62
     7
100
AcDbLine
 10
6365.7702362212
 20
4200.660941089
 30
0.0
 11
6365.7702362212
 21
4197.6609424599
 31
0.0
  0
LINE
  5
501
330
1F
100
AcDbEntity
  8
0
  6
Continuous
 62
     7
100
AcDbLine
 10
6425.7702386054
 20
4197.6609424599
 30
0.0
 11
6425.7702386054
 21
4200.660941089
 31
0.0
  0
LINE
  5
502
330
1F
100
AcDbEntity
  8
0
  6
Continuous
 62
     7
100
AcDbLine
 10
6395.7702374133
 20
4128.1375558027
 30
0.0
 11
6394.8565578136
 21
4128.1375558027
 31
0.0
  0
LINE
  5
503
330
1F
100
AcDbEntity
  8
0
  6
Continuous
 62
     7
100
AcDbLine
 10
6394.8565578136
 20
4121.6375538059
 30
0.0
 11
6395.7702374133
 21
4121.6375538059
 31
0.0
  0
LINE
  5
504
330
1F
100
AcDbEntity
  8
0
  6
Continuous
 62
     7
100
AcDbLine
 10
6371.6245560023
 20
4195.3038432546
 30
0.0
 11
6371.6245560023
 21
4195.0392619618
 31
0.0
  0
LINE
  5
505
330
1F
100
AcDbEntity
  8
0
  6
Continuous
 62
     7
100
AcDbLine
 10
6418.763287929
 20
4195.4280742355
 30
0.0
 11
6419.1664984497
 21
4195.6609421321
 31
0.0
  0
LINE
  5
506
330
1F
100
AcDbEntity
  8
0
  6
Continuous
 62
     7
100
AcDbLine
 10
6372.2834406468
 20
4195.6609421321
 30
0.0
 11
6371.7172598514
 21
4195.3330197283
 31
0.0
  0
LINE
  5
507
330
1F
100
AcDbEntity
  8
0
  6
Continuous
 62
     7
100
AcDbLine
 10
6372.770235506
 20
4194.3778143175
 30
0.0
 11
6372.770235506
 21
4168.8875545659
 31
0.0
  0
LINE
  5
508
330
1F
100
AcDbEntity
  8
0
  6
Continuous
 62
     7
100
AcDbLine
 10
6418.7702393207
 20
4168.8875545659
 30
0.0
 11
6418.7702393207
 21
4195.4320900985
 31
0.0
  0
LINE
  5
509
330
1F
100
AcDbEntity
  8
0
  6
Continuous
 62
     7
100
AcDbLine
 10
6372.8202363524
 20
4153.8875549011
 30
0.0
 11
6372.8202363524
 21
4148.8875550129
 31
0.0
  0
LINE
  5
50A
330
1F
100
AcDbEntity
  8
0
  6
Continuous
 62
     7
100
AcDbLine
 10
6418.7202384743
 20
4148.8875550129
 30
0.0
 11
6418.7202384743
 21
4153.8875549011
 31
0.0
  0
LINE
  5
50B
330
1F
100
AcDbEntity
  8
0
  6
Continuous
 62
     7
100
AcDbLine
 10
6372.8202363524
 20
4168.8875545659
 30
0.0
 11
6372.8202363524
 21
4154.0875545614
 31
0.0
  0
LINE
  5
50C
330
1F
100
AcDbEntity
  8
0
  6
Continuous
 62
     7
100
AcDbLine
 10
6418.7202384743
 20
4154.0875545614
 30
0.0
 11
6418.7202384743
 21
4168.8875545659
 31
0.0
  0
LINE
  5
50D
330
1F
100
AcDbEntity
  8
0
  6
Continuous
 62
     7
100
AcDbLine
 10
6373.070236859
 20
4148.8875550129
 30
0.0
 11
6373.070236859
 21
4110.8875543722
 31
0.0
  0
LINE
  5
50E
330
1F
100
AcDbEntity
  8
0
  6
Continuous
 62
     7
100
AcDbLine
 10
6418.4702342424
 20
4110.8875543722
 30
0.0
 11
6418.4702342424
 21
4148.8875550129
 31
0.0
  0
LINE
  5
50F
330
1F
100
AcDbEntity
  8
0
  6
Continuous
 62
     7
100
AcDbLine
 10
6417.7702372941
 20
4153.8875549011
 30
0.0
 11
6417.7702372941
 21
4154.0875545614
 31
0.0
  0
LINE
  5
510
330
1F
100
AcDbEntity
  8
0
  6
Continuous
 62
     7
100
AcDbLine
 10
6373.7702375325
 20
4154.0875545614
 30
0.0
 11
6373.7702375325
 21
4153.8875549011
 31
0.0
  0
LINE
  5
511
330
1F
100
AcDbEntity
  8
0
  6
Continuous
 62
     7
100
AcDbLine
 10
6497.7493738803
 20
4243.429695154
 30
0.0
 11
6497.7493589792
 21
4243.8401178368
 31
0.0
  0
LINE
  5
512
330
1F
100
AcDbEntity
  8
0
  6
Continuous
 62
     7
100
AcDbLine
 10
6050.2907788429
 20
4243.429695154
 30
0.0
 11
6050.2907788429
 21
4243.8401178368
 31
0.0
  0
LINE
  5
513
330
1F
100
AcDbEntity
  8
0
  6
Continuous
 62
     7
100
AcDbLine
 10
6497.2917294177
 20
4245.6440300592
 30
0.0
 11
6050.7484233054
 21
4245.6440300592
 31
0.0
  0
LINE
  5
514
330
1F
100
AcDbEntity
  8
0
  6
Continuous
 62
     7
100
AcDbLine
 10
6497.7493738803
 20
4243.429695154
 30
0.0
 11
6050.2907788429
 21
4243.429695154
 31
0.0
  0
LINE
  5
515
330
1F
100
AcDbEntity
  8
0
  6
Continuous
 62
     7
100
AcDbLine
 10
6050.2907788429
 20
4243.8401178368
 30
0.0
 11
6050.2907490405
 21
4202.157032574
 31
0.0
  0
LINE
  5
516
330
1F
100
AcDbEntity
  8
0
  6
Continuous
 62
     7
100
AcDbLine
 10
6050.2907788429
 20
4243.429695154
 30
0.0
 11
6050.2907490405
 21
4201.746606166
 31
0.0
  0
LINE
  5
517
330
1F
100
AcDbEntity
  8
0
  6
Continuous
 62
     7
100
AcDbLine
 10
6050.2907490405
 20
4202.157032574
 30
0.0
 11
6050.2907490405
 21
4201.746606166
 31
0.0
  0
LINE
  5
518
330
1F
100
AcDbEntity
  8
0
  6
Continuous
 62
     7
100
AcDbLine
 10
6497.7493291768
 20
4201.746606166
 30
0.0
 11
6497.7493738803
 21
4243.429695154
 31
0.0
  0
LINE
  5
519
330
1F
100
AcDbEntity
  8
0
  6
Continuous
 62
     7
100
AcDbLine
 10
6497.7493291768
 20
4201.746606166
 30
0.0
 11
6050.2907490405
 21
4201.746606166
 31
0.0
  0
LINE
  5
51A
330
1F
100
AcDbEntity
  8
0
  6
Continuous
 62
     7
100
AcDbLine
 10
6049.0188455257
 20
4202.3109392174
 30
0.0
 11
6049.0188455257
 21
4244.0109372981
 31
0.0
  0
LINE
  5
51B
330
1F
100
AcDbEntity
  8
0
  6
Continuous
 62
     7
100
AcDbLine
 10
6049.0188455257
 20
4244.0109372981
 30
0.0
 11
6049.0200674209
 21
4244.0109372981
 31
0.0
  0
LINE
  5
51C
330
1F
100
AcDbEntity
  8
0
  6
Continuous
 62
     7
100
AcDbLine
 10
6049.0200674209
 20
4244.0109372981
 30
0.0
 11
6049.0200376186
 21
4202.3109392174
 31
0.0
  0
LINE
  5
51D
330
1F
100
AcDbEntity
  8
0
  6
Continuous
 62
     7
100
AcDbLine
 10
6049.0200376186
 20
4202.3109392174
 30
0.0
 11
6049.0188455257
 21
4202.3109392174
 31
0.0
  0
LINE
  5
51E
330
1F
100
AcDbEntity
  8
0
  6
Continuous
 62
     7
100
AcDbLine
 10
6050.2200877342
 20
4244.0109372981
 30
0.0
 11
6050.2200281295
 21
4202.3109392174
 31
0.0
  0
LINE
  5
51F
330
1F
100
AcDbEntity
  8
0
  6
Continuous
 62
     7
100
AcDbLine
 10
6050.2200281295
 20
4202.3109392174
 30
0.0
 11
6049.0200376186
 21
4202.3109392174
 31
0.0
  0
LINE
  5
520
330
1F
100
AcDbEntity
  8
0
  6
Continuous
 62
     7
100
AcDbLine
 10
6049.0200674209
 20
4244.0109372981
 30
0.0
 11
6050.2200877342
 21
4244.0109372981
 31
0.0
  0
LINE
  5
521
330
1F
100
AcDbEntity
  8
0
  6
Continuous
 62
     7
100
AcDbLine
 10
6497.8200798902
 20
4244.0109372981
 30
0.0
 11
6497.8200351867
 21
4202.3109392174
 31
0.0
  0
LINE
  5
522
330
1F
100
AcDbEntity
  8
0
  6
Continuous
 62
     7
100
AcDbLine
 10
6499.0200704011
 20
4244.0109372981
 30
0.0
 11
6497.8200798902
 21
4244.0109372981
 31
0.0
  0
LINE
  5
523
330
1F
100
AcDbEntity
  8
0
  6
Continuous
 62
     7
100
AcDbLine
 10
6499.0200704011
 20
4244.0109372981
 30
0.0
 11
6499.0200256976
 21
4202.3109392174
 31
0.0
  0
LINE
  5
524
330
1F
100
AcDbEntity
  8
0
  6
Continuous
 62
     7
100
AcDbLine
 10
6497.8200351867
 20
4202.3109392174
 30
0.0
 11
6499.0200256976
 21
4202.3109392174
 31
0.0
  0
LINE
  5
525
330
1F
100
AcDbEntity
  8
0
  6
Continuous
 62
     7
100
AcDbLine
 10
6497.8188430938
 20
4244.0109372981
 30
0.0
 11
6497.8188430938
 21
4202.3109392174
 31
0.0
  0
LINE
  5
526
330
1F
100
AcDbEntity
  8
0
  6
Continuous
 62
     7
100
AcDbLine
 10
6497.8188430938
 20
4244.0109372981
 30
0.0
 11
6497.8200798902
 21
4244.0109372981
 31
0.0
  0
LINE
  5
527
330
1F
100
AcDbEntity
  8
0
  6
Continuous
 62
     7
100
AcDbLine
 10
6497.8188430938
 20
4202.3109392174
 30
0.0
 11
6497.8200351867
 21
4202.3109392174
 31
0.0
  0
LINE
  5
528
330
1F
100
AcDbEntity
  8
0
  6
Continuous
 62
     7
100
AcDbLine
 10
6050.6700729999
 20
4245.6609428771
 30
0.0
 11
6074.0184342536
 21
4245.6609428771
 31
0.0
  0
LINE
  5
529
330
1F
100
AcDbEntity
  8
0
  6
Continuous
 62
     7
100
AcDbLine
 10
6050.6700729999
 20
4245.6609428771
 30
0.0
 11
6050.6688511047
 21
4245.6609428771
 31
0.0
  0
LINE
  5
52A
330
1F
100
AcDbEntity
  8
0
  6
Continuous
 62
     7
100
AcDbLine
 10
6474.0200197372
 20
4245.6440300592
 30
0.0
 11
6474.0200197372
 21
4245.6609428771
 31
0.0
  0
LINE
  5
52B
330
1F
100
AcDbEntity
  8
0
  6
Continuous
 62
     7
100
AcDbLine
 10
6474.0200197372
 20
4245.6609428771
 30
0.0
 11
6497.3700797233
 21
4245.6609428771
 31
0.0
  0
LINE
  5
52C
330
1F
100
AcDbEntity
  8
0
  6
Continuous
 62
     7
100
AcDbLine
 10
6497.3700350198
 20
4200.660941089
 30
0.0
 11
6050.6700431976
 21
4200.660941089
 31
0.0
  0
LINE
  5
52D
330
1F
100
AcDbEntity
  8
0
  6
Continuous
 62
     7
100
AcDbLine
 10
6049.0418827209
 20
4202.0433180877
 30
0.0
 11
6049.0200376186
 21
4202.3109392174
 31
0.0
  0
LINE
  5
52E
330
1F
100
AcDbEntity
  8
0
  6
Continuous
 62
     7
100
AcDbLine
 10
6049.0418827209
 20
4202.0433180877
 30
0.0
 11
6049.0605985793
 21
4201.9473285325
 31
0.0
  0
LINE
  5
52F
330
1F
100
AcDbEntity
  8
0
  6
Continuous
 62
     7
100
AcDbLine
 10
6050.6700431976
 20
4200.660941089
 30
0.0
 11
6050.2200281295
 21
4200.7234887131
 31
0.0
  0
LINE
  5
530
330
1F
100
AcDbEntity
  8
0
  6
Continuous
 62
     7
100
AcDbLine
 10
6050.6700431976
 20
4200.660941089
 30
0.0
 11
6050.6688511047
 21
4200.660941089
 31
0.0
  0
LINE
  5
531
330
1F
100
AcDbEntity
  8
0
  6
Continuous
 62
     7
100
AcDbLine
 10
6497.8200351867
 20
4200.7234887131
 30
0.0
 11
6497.3700350198
 21
4200.660941089
 31
0.0
  0
LINE
  5
532
330
1F
100
AcDbEntity
  8
0
  6
Continuous
 62
     7
100
AcDbLine
 10
6498.9981805953
 20
4202.0433143624
 30
0.0
 11
6498.9794647369
 21
4201.9473322578
 31
0.0
  0
LINE
  5
533
330
1F
100
AcDbEntity
  8
0
  6
Continuous
 62
     7
100
AcDbLine
 10
6499.0200256976
 20
4202.3109392174
 30
0.0
 11
6498.9981805953
 21
4202.0433143624
 31
0.0
  0
LINE
  5
534
330
1F
100
AcDbEntity
  8
0
  6
Continuous
 62
     7
100
AcDbLine
 10
6050.2200281295
 20
4201.9179136403
 30
0.0
 11
6050.2200281295
 21
4202.3109392174
 31
0.0
  0
LINE
  5
535
330
1F
100
AcDbEntity
  8
0
  6
Continuous
 62
     7
100
AcDbLine
 10
6497.8200202855
 20
4201.9179061898
 30
0.0
 11
6497.8200351867
 21
4202.3109392174
 31
0.0
  0
LINE
  5
536
330
1F
100
AcDbEntity
  8
0
  6
Continuous
 62
     7
100
AcDbLine
 10
6049.0418827209
 20
4202.0433180877
 30
0.0
 11
6050.2200281295
 21
4201.9179136403
 31
0.0
  0
LINE
  5
537
330
1F
100
AcDbEntity
  8
0
  6
Continuous
 62
     7
100
AcDbLine
 10
6498.9981805953
 20
4202.0433143624
 30
0.0
 11
6497.8200202855
 21
4201.9179061898
 31
0.0
  0
LINE
  5
538
330
1F
100
AcDbEntity
  8
0
  6
Continuous
 62
     7
100
AcDbLine
 10
6050.2200281295
 20
4201.2877472587
 30
0.0
 11
6050.2200281295
 21
4201.9179136403
 31
0.0
  0
LINE
  5
539
330
1F
100
AcDbEntity
  8
0
  6
Continuous
 62
     7
100
AcDbLine
 10
6497.8200351867
 20
4201.2877472587
 30
0.0
 11
6497.8200202855
 21
4201.9179061898
 31
0.0
  0
LINE
  5
53A
330
1F
100
AcDbEntity
  8
0
  6
Continuous
 62
     7
100
AcDbLine
 10
6050.2200281295
 20
4200.7234887131
 30
0.0
 11
6050.2200281295
 21
4201.2877472587
 31
0.0
  0
LINE
  5
53B
330
1F
100
AcDbEntity
  8
0
  6
Continuous
 62
     7
100
AcDbLine
 10
6497.8200351867
 20
4201.2877472587
 30
0.0
 11
6497.8200351867
 21
4200.7234887131
 31
0.0
  0
LINE
  5
53C
330
1F
100
AcDbEntity
  8
0
  6
Continuous
 62
     7
100
AcDbLine
 10
6474.0188425454
 20
4245.6609428771
 30
0.0
 11
6474.0188425454
 21
4245.6440300592
 31
0.0
  0
LINE
  5
53D
330
1F
100
AcDbEntity
  8
0
  6
Continuous
 62
     7
100
AcDbLine
 10
6474.0188425454
 20
4245.6609428771
 30
0.0
 11
6474.0200197372
 21
4245.6609428771
 31
0.0
  0
LINE
  5
53E
330
1F
100
AcDbEntity
  8
0
  6
Continuous
 62
     7
100
AcDbLine
 10
6050.6688511047
 20
4200.2109409221
 30
0.0
 11
6050.6688511047
 21
4200.6671884008
 31
0.0
  0
LINE
  5
53F
330
1F
100
AcDbEntity
  8
0
  6
Continuous
 62
     7
100
AcDbLine
 10
6050.6688511047
 20
4200.660941089
 30
0.0
 11
6050.6688511047
 21
4200.2109409221
 31
0.0
  0
LINE
  5
540
330
1F
100
AcDbEntity
  8
0
  6
Continuous
 62
     7
100
AcDbLine
 10
6497.3688429269
 20
4200.660941089
 30
0.0
 11
6497.3688429269
 21
4200.2109409221
 31
0.0
  0
LINE
  5
541
330
1F
100
AcDbEntity
  8
0
  6
Continuous
 62
     7
100
AcDbLine
 10
6049.0188455257
 20
3772.3109320649
 30
0.0
 11
6050.6688511047
 21
3772.3109320649
 31
0.0
  0
LINE
  5
542
330
1F
100
AcDbEntity
  8
0
  6
Continuous
 62
     7
100
AcDbLine
 10
6049.0188455257
 20
4200.2109409221
 30
0.0
 11
6049.0188455257
 21
3772.3109320649
 31
0.0
  0
LINE
  5
543
330
1F
100
AcDbEntity
  8
0
  6
Continuous
 62
     7
100
AcDbLine
 10
6050.6688511047
 20
4200.2109409221
 30
0.0
 11
6050.6688511047
 21
3772.3109320649
 31
0.0
  0
LINE
  5
544
330
1F
100
AcDbEntity
  8
0
  6
Continuous
 62
     7
100
AcDbLine
 10
6050.6688511047
 20
4200.2109409221
 30
0.0
 11
6050.2188360366
 21
4200.2109409221
 31
0.0
  0
LINE
  5
545
330
1F
100
AcDbEntity
  8
0
  6
Continuous
 62
     7
100
AcDbLine
 10
6050.6688511047
 20
3772.3109320649
 30
0.0
 11
6497.3688429269
 21
3772.3109320649
 31
0.0
  0
LINE
  5
546
330
1F
100
AcDbEntity
  8
0
  6
Continuous
 62
     7
100
AcDbLine
 10
6497.3688429269
 20
3772.3109320649
 30
0.0
 11
6497.3688429269
 21
4200.2109409221
 31
0.0
  0
LINE
  5
547
330
1F
100
AcDbEntity
  8
0
  6
Continuous
 62
     7
100
AcDbLine
 10
6050.6688511047
 20
3772.3109320649
 30
0.0
 11
6050.6688511047
 21
3770.6609264859
 31
0.0
  0
LINE
  5
548
330
1F
100
AcDbEntity
  8
0
  6
Continuous
 62
     7
100
AcDbLine
 10
6050.6688511047
 20
3770.6609264859
 30
0.0
 11
6050.6688511047
 21
3771.8609467991
 31
0.0
  0
LINE
  5
549
330
1F
100
AcDbEntity
  8
0
  6
Continuous
 62
     7
100
AcDbLine
 10
6050.6688511047
 20
3771.8609467991
 30
0.0
 11
6050.6688511047
 21
3772.3109320649
 31
0.0
  0
LINE
  5
54A
330
1F
100
AcDbEntity
  8
0
  6
Continuous
 62
     7
100
AcDbLine
 10
6050.6688511047
 20
3770.6609264859
 30
0.0
 11
6497.3688429269
 21
3770.6609264859
 31
0.0
  0
LINE
  5
54B
330
1F
100
AcDbEntity
  8
0
  6
Continuous
 62
     7
100
AcDbLine
 10
6497.3688429269
 20
3770.6609264859
 30
0.0
 11
6497.3688429269
 21
3772.3109320649
 31
0.0
  0
LINE
  5
54C
330
1F
100
AcDbEntity
  8
0
  6
Continuous
 62
     7
100
AcDbLine
 10
6499.0188485059
 20
3772.3109320649
 30
0.0
 11
6499.0188485059
 21
4200.2109409221
 31
0.0
  0
LINE
  5
54D
330
1F
100
AcDbEntity
  8
0
  6
Continuous
 62
     7
100
AcDbLine
 10
6497.3688429269
 20
3772.3109320649
 30
0.0
 11
6499.0188485059
 21
3772.3109320649
 31
0.0
  0
LINE
  5
54E
330
1F
100
AcDbEntity
  8
0
  6
Continuous
 62
     7
100
AcDbLine
 10
6497.8188430938
 20
4200.2109409221
 30
0.0
 11
6497.3688429269
 21
4200.2109409221
 31
0.0
  0
LINE
  5
54F
330
1F
100
AcDbEntity
  8
0
  6
Continuous
 62
     7
100
AcDbLine
 10
6049.0188455257
 20
3770.6609264859
 30
0.0
 11
6049.0187263164
 21
3770.6609264859
 31
0.0
  0
LINE
  5
550
330
1F
100
AcDbEntity
  8
0
  6
Continuous
 62
     7
100
AcDbLine
 10
6049.0187263164
 20
3771.8609467991
 30
0.0
 11
6049.0187263164
 21
3770.6609264859
 31
0.0
  0
LINE
  5
551
330
1F
100
AcDbEntity
  8
0
  6
Continuous
 62
     7
100
AcDbLine
 10
6049.0188455257
 20
3771.8609467991
 30
0.0
 11
6049.0187263164
 21
3771.8609467991
 31
0.0
  0
LINE
  5
552
330
1F
100
AcDbEntity
  8
0
  6
Continuous
 62
     7
100
AcDbLine
 10
6049.0188455257
 20
3770.6609264859
 30
0.0
 11
6049.0188455257
 21
3771.8609467991
 31
0.0
  0
LINE
  5
553
330
1F
100
AcDbEntity
  8
0
  6
Continuous
 62
     7
100
AcDbLine
 10
6050.6688511047
 20
3770.6609264859
 30
0.0
 11
6049.0188455257
 21
3770.6609264859
 31
0.0
  0
LINE
  5
554
330
1F
100
AcDbEntity
  8
0
  6
Continuous
 62
     7
100
AcDbLine
 10
6049.0188455257
 20
3771.8609467991
 30
0.0
 11
6050.6688511047
 21
3771.8609467991
 31
0.0
  0
LINE
  5
555
330
1F
100
AcDbEntity
  8
0
  6
Continuous
 62
     7
100
AcDbLine
 10
6049.0187263164
 20
4200.2109409221
 30
0.0
 11
6049.0187263164
 21
3772.3109320649
 31
0.0
  0
LINE
  5
556
330
1F
100
AcDbEntity
  8
0
  6
Continuous
 62
     7
100
AcDbLine
 10
6049.0187263164
 20
3772.3109320649
 30
0.0
 11
6049.0188455257
 21
3772.3109320649
 31
0.0
  0
LINE
  5
557
330
1F
100
AcDbEntity
  8
0
  6
Continuous
 62
     7
100
AcDbLine
 10
6049.0188455257
 20
4200.2109409221
 30
0.0
 11
6049.0187263164
 21
4200.2109409221
 31
0.0
  0
LINE
  5
558
330
1F
100
AcDbEntity
  8
0
  6
Continuous
 62
     7
100
AcDbLine
 10
6497.8188430938
 20
3770.6609264859
 30
0.0
 11
6497.8188430938
 21
3772.3109320649
 31
0.0
  0
LINE
  5
559
330
1F
100
AcDbEntity
  8
0
  6
Continuous
 62
     7
100
AcDbLine
 10
6497.8188430938
 20
3770.6609264859
 30
0.0
 11
6497.8187387857
 21
3770.6609264859
 31
0.0
  0
LINE
  5
55A
330
1F
100
AcDbEntity
  8
0
  6
Continuous
 62
     7
100
AcDbLine
 10
6497.8187387857
 20
3771.9316379078
 30
0.0
 11
6497.8187387857
 21
3770.6609264859
 31
0.0
  0
LINE
  5
55B
330
1F
100
AcDbEntity
  8
0
  6
Continuous
 62
     7
100
AcDbLine
 10
6497.8187387857
 20
3771.9316379078
 30
0.0
 11
6497.8188430938
 21
3772.3109320649
 31
0.0
  0
LINE
  5
55C
330
1F
100
AcDbEntity
  8
0
  6
Continuous
 62
     7
100
AcDbLine
 10
6499.0188485059
 20
3770.6609264859
 30
0.0
 11
6497.8188430938
 21
3770.6609264859
 31
0.0
  0
LINE
  5
55D
330
1F
100
AcDbEntity
  8
0
  6
Continuous
 62
     7
100
AcDbLine
 10
6499.0188485059
 20
3772.3109320649
 30
0.0
 11
6499.0188485059
 21
3770.6609264859
 31
0.0
  0
LINE
  5
55E
330
1F
100
AcDbEntity
  8
0
  6
Continuous
 62
     7
100
AcDbLine
 10
6165.6595921191
 20
4055.4577381261
 30
0.0
 11
6170.2051168355
 21
4058.082123185
 31
0.0
  0
LINE
  5
55F
330
1F
100
AcDbEntity
  8
0
  6
Continuous
 62
     7
100
AcDbLine
 10
6192.8402191076
 20
4058.0820486792
 30
0.0
 11
6197.3856693181
 21
4055.4577306755
 31
0.0
  0
LINE
  5
560
330
1F
100
AcDbEntity
  8
0
  6
Continuous
 62
     7
100
AcDbLine
 10
6180.0226125565
 20
4074.285958814
 30
0.0
 11
6180.0226125565
 21
4082.3264316791
 31
0.0
  0
LINE
  5
561
330
1F
100
AcDbEntity
  8
0
  6
Continuous
 62
     7
100
AcDbLine
 10
6183.0226188573
 20
4082.3264391073
 30
0.0
 11
6183.0226188573
 21
4074.2859736927
 31
0.0
  0
LINE
  5
562
330
1F
100
AcDbEntity
  8
0
  6
Continuous
 62
     7
100
AcDbLine
 10
6167.8473359021
 20
4056.7208499559
 30
0.0
 11
6170.2051168355
 21
4058.082123185
 31
0.0
  0
LINE
  5
563
330
1F
100
AcDbEntity
  8
0
  6
Continuous
 62
     7
100
AcDbLine
 10
6180.0226125565
 20
4074.285958814
 30
0.0
 11
6180.0225827542
 21
4077.8090254539
 31
0.0
  0
LINE
  5
564
330
1F
100
AcDbEntity
  8
0
  6
Continuous
 62
     7
100
AcDbLine
 10
6180.7726559181
 20
4068.080366953
 30
0.0
 11
6180.7726559181
 21
4057.6880621076
 31
0.0
  0
LINE
  5
565
330
1F
100
AcDbEntity
  8
0
  6
Continuous
 62
     7
100
AcDbLine
 10
6182.2726559181
 20
4068.080366953
 30
0.0
 11
6182.2726559181
 21
4057.6880621076
 31
0.0
  0
LINE
  5
566
330
1F
100
AcDbEntity
  8
0
  6
Continuous
 62
     7
100
AcDbLine
 10
6182.2726559181
 20
4057.6880621076
 30
0.0
 11
6182.2726559181
 21
4068.080366953
 31
0.0
  0
LINE
  5
567
330
1F
100
AcDbEntity
  8
0
  6
Continuous
 62
     7
100
AcDbLine
 10
6178.9258805871
 20
4074.0871957904
 30
0.0
 11
6178.022653166
 21
4073.9838835822
 31
0.0
  0
LINE
  5
568
330
1F
100
AcDbEntity
  8
0
  6
Continuous
 62
     7
100
AcDbLine
 10
6178.0226534503
 20
4051.7845423835
 30
0.0
 11
6178.9258808714
 21
4051.6812344968
 31
0.0
  0
LINE
  5
569
330
1F
100
AcDbEntity
  8
0
  6
Continuous
 62
     7
100
AcDbLine
 10
6474.0185594234
 20
4246.1609438904
 30
0.0
 11
6444.0185656819
 21
4246.1609438904
 31
0.0
  0
LINE
  5
56A
330
1F
100
AcDbEntity
  8
0
  6
Continuous
 62
     7
100
AcDbLine
 10
6474.0185594234
 20
4245.6440300592
 30
0.0
 11
6474.0185594234
 21
4246.1609438904
 31
0.0
  0
LINE
  5
56B
330
1F
100
AcDbEntity
  8
0
  6
Continuous
 62
     7
100
AcDbLine
 10
6444.0185656819
 20
4245.6440300592
 30
0.0
 11
6444.0185656819
 21
4246.1609438904
 31
0.0
  0
LINE
  5
56C
330
1F
100
AcDbEntity
  8
0
  6
Continuous
 62
     7
100
AcDbLine
 10
6444.0184315714
 20
4246.1609438904
 30
0.0
 11
6444.0185656819
 21
4245.6440300592
 31
0.0
  0
LINE
  5
56D
330
1F
100
AcDbEntity
  8
0
  6
Continuous
 62
     7
100
AcDbLine
 10
6444.0184315714
 20
4246.1609438904
 30
0.0
 11
6444.0185656819
 21
4246.1609438904
 31
0.0
  0
LINE
  5
56E
330
1F
100
AcDbEntity
  8
0
  6
Continuous
 62
     7
100
AcDbLine
 10
6104.0185695562
 20
4246.1609438904
 30
0.0
 11
6074.0185534629
 21
4246.1609438904
 31
0.0
  0
LINE
  5
56F
330
1F
100
AcDbEntity
  8
0
  6
Continuous
 62
     7
100
AcDbLine
 10
6104.0185695562
 20
4245.6440300592
 30
0.0
 11
6104.0185695562
 21
4246.1609438904
 31
0.0
  0
LINE
  5
570
330
1F
100
AcDbEntity
  8
0
  6
Continuous
 62
     7
100
AcDbLine
 10
6074.0185534629
 20
4245.6440300592
 30
0.0
 11
6074.0185534629
 21
4246.1609438904
 31
0.0
  0
LINE
  5
571
330
1F
100
AcDbEntity
  8
0
  6
Continuous
 62
     7
100
AcDbLine
 10
6074.0184342536
 20
4246.1609438904
 30
0.0
 11
6074.0184342536
 21
4245.6609428771
 31
0.0
  0
LINE
  5
572
330
1F
100
AcDbEntity
  8
0
  6
Continuous
 62
     7
100
AcDbLine
 10
6074.0184342536
 20
4246.1609438904
 30
0.0
 11
6074.0185534629
 21
4246.1609438904
 31
0.0
  0
LINE
  5
573
330
1F
100
AcDbEntity
  8
0
  6
Continuous
 62
     7
100
AcDbLine
 10
6438.8231938752
 20
4245.6609428771
 30
0.0
 11
6444.0184315714
 21
4245.6609428771
 31
0.0
  0
LINE
  5
574
330
1F
100
AcDbEntity
  8
0
  6
Continuous
 62
     7
100
AcDbLine
 10
6411.6538023624
 20
4245.6609428771
 30
0.0
 11
6438.8231938752
 21
4245.6609428771
 31
0.0
  0
LINE
  5
575
330
1F
100
AcDbEntity
  8
0
  6
Continuous
 62
     7
100
AcDbLine
 10
6429.574810532
 20
4246.01618656
 30
0.0
 11
6444.0184315714
 21
4246.01618656
 31
0.0
  0
LINE
  5
576
330
1F
100
AcDbEntity
  8
0
  6
Continuous
 62
     7
100
AcDbLine
 10
6448.2699414763
 20
4258.0161885269
 30
0.0
 11
6448.2748067054
 21
4258.0161885269
 31
0.0
  0
LINE
  5
577
330
1F
100
AcDbEntity
  8
0
  6
Continuous
 62
     7
100
AcDbLine
 10
6431.2748095068
 20
4258.0161885269
 30
0.0
 11
6448.2699414763
 21
4258.0161885269
 31
0.0
  0
LINE
  5
578
330
1F
100
AcDbEntity
  8
0
  6
Continuous
 62
     7
100
AcDbLine
 10
6318.8918508637
 20
4245.6609428771
 30
0.0
 11
6347.9645462754
 21
4245.6609428771
 31
0.0
  0
LINE
  5
579
330
1F
100
AcDbEntity
  8
0
  6
Continuous
 62
     7
100
AcDbLine
 10
6291.7225403759
 20
4245.6609428771
 30
0.0
 11
6318.8918508637
 21
4245.6609428771
 31
0.0
  0
LINE
  5
57A
330
1F
100
AcDbEntity
  8
0
  6
Continuous
 62
     7
100
AcDbLine
 10
6309.6435429576
 20
4246.01618656
 30
0.0
 11
6330.0435427624
 21
4246.01618656
 31
0.0
  0
LINE
  5
57B
330
1F
100
AcDbEntity
  8
0
  6
Continuous
 62
     7
100
AcDbLine
 10
6328.338673669
 20
4258.0161885269
 30
0.0
 11
6328.3435428563
 21
4258.0161885269
 31
0.0
  0
LINE
  5
57C
330
1F
100
AcDbEntity
  8
0
  6
Continuous
 62
     7
100
AcDbLine
 10
6311.3435419324
 20
4258.0161885269
 30
0.0
 11
6328.338673669
 21
4258.0161885269
 31
0.0
  0
LINE
  5
57D
330
1F
100
AcDbEntity
  8
0
  6
Continuous
 62
     7
100
AcDbLine
 10
6244.0195238265
 20
4198.1609397479
 30
0.0
 11
6304.0195224854
 21
4198.1609397479
 31
0.0
  0
LINE
  5
57E
330
1F
100
AcDbEntity
  8
0
  6
Continuous
 62
     7
100
AcDbLine
 10
6303.5195214721
 20
4197.6609424599
 30
0.0
 11
6244.5195248398
 21
4197.6609424599
 31
0.0
  0
LINE
  5
57F
330
1F
100
AcDbEntity
  8
0
  6
Continuous
 62
     7
100
AcDbLine
 10
6260.0195189986
 20
4032.6609359034
 30
0.0
 11
6288.0195235881
 21
4032.6609359034
 31
0.0
  0
LINE
  5
580
330
1F
100
AcDbEntity
  8
0
  6
Continuous
 62
     7
100
AcDbLine
 10
6287.0195215616
 20
4031.6609338769
 30
0.0
 11
6261.0195210251
 21
4031.6609338768
 31
0.0
  0
LINE
  5
581
330
1F
100
AcDbEntity
  8
0
  6
Continuous
 62
     7
100
AcDbLine
 10
6423.7702345523
 20
4195.6609421321
 30
0.0
 11
6367.7702365491
 21
4195.6609421321
 31
0.0
  0
LINE
  5
582
330
1F
100
AcDbEntity
  8
0
  6
Continuous
 62
     7
100
AcDbLine
 10
6394.9919199619
 20
4168.8875545659
 30
0.0
 11
6372.770235506
 21
4168.8875545659
 31
0.0
  0
LINE
  5
583
330
1F
100
AcDbEntity
  8
0
  6
Continuous
 62
     7
100
AcDbLine
 10
6418.7702393207
 20
4168.8875545659
 30
0.0
 11
6394.9919199619
 21
4168.8875545659
 31
0.0
  0
LINE
  5
584
330
1F
100
AcDbEntity
  8
0
  6
Continuous
 62
     7
100
AcDbLine
 10
6394.9936112437
 20
4148.8875550129
 30
0.0
 11
6372.8202363524
 21
4148.8875550129
 31
0.0
  0
LINE
  5
585
330
1F
100
AcDbEntity
  8
0
  6
Continuous
 62
     7
100
AcDbLine
 10
6418.7202384743
 20
4148.8875550129
 30
0.0
 11
6394.9936112437
 21
4148.8875550129
 31
0.0
  0
LINE
  5
586
330
1F
100
AcDbEntity
  8
0
  6
Continuous
 62
     7
100
AcDbLine
 10
6394.9936112437
 20
4153.8875549011
 30
0.0
 11
6372.8202363524
 21
4153.8875549011
 31
0.0
  0
LINE
  5
587
330
1F
100
AcDbEntity
  8
0
  6
Continuous
 62
     7
100
AcDbLine
 10
6418.7202384743
 20
4153.8875549011
 30
0.0
 11
6394.9936112437
 21
4153.8875549011
 31
0.0
  0
LINE
  5
588
330
1F
100
AcDbEntity
  8
0
  6
Continuous
 62
     7
100
AcDbLine
 10
6372.8202363524
 20
4154.0875545614
 30
0.0
 11
6418.7202384743
 21
4154.0875545614
 31
0.0
  0
LINE
  5
589
330
1F
100
AcDbEntity
  8
0
  6
Continuous
 62
     7
100
AcDbLine
 10
6395.0020676526
 20
4110.8875543722
 30
0.0
 11
6373.070236859
 21
4110.8875543722
 31
0.0
  0
LINE
  5
58A
330
1F
100
AcDbEntity
  8
0
  6
Continuous
 62
     7
100
AcDbLine
 10
6418.4702342424
 20
4110.8875543722
 30
0.0
 11
6395.0020676526
 21
4110.8875543722
 31
0.0
  0
LINE
  5
58B
330
1F
100
AcDbEntity
  8
0
  6
Continuous
 62
     7
100
AcDbLine
 10
6394.9582954916
 20
4121.6375538059
 30
0.0
 11
6395.4350953969
 21
4121.5543792494
 31
0.0
  0
LINE
  5
58C
330
1F
100
AcDbEntity
  8
0
  6
Continuous
 62
     7
100
AcDbLine
 10
6395.2996512923
 20
4128.2042981037
 30
0.0
 11
6394.9582954916
 21
4128.1375558027
 31
0.0
  0
LINE
  5
58D
330
1F
100
AcDbEntity
  8
0
  6
Continuous
 62
     7
100
AcDbLine
 10
6049.0179216537
 20
3772.660930539
 30
0.0
 11
6049.0187263164
 21
3772.660930539
 31
0.0
  0
LINE
  5
58E
330
1F
100
AcDbEntity
  8
0
  6
Continuous
 62
     7
100
AcDbLine
 10
6049.0179216537
 20
4243.660938824
 30
0.0
 11
6049.0179216537
 21
3772.660930539
 31
0.0
  0
LINE
  5
58F
330
1F
100
AcDbEntity
  8
0
  6
Continuous
 62
     7
100
AcDbLine
 10
6049.0187263164
 20
4243.660938824
 30
0.0
 11
6049.0179216537
 21
4243.660938824
 31
0.0
  0
LINE
  5
590
330
1F
100
AcDbEntity
  8
0
  6
Continuous
 62
     7
100
AcDbLine
 10
6049.0187263164
 20
3772.6031736382
 30
0.0
 11
6049.0179216537
 21
3772.660930539
 31
0.0
  0
LINE
  5
591
330
1F
100
AcDbEntity
  8
0
  6
Continuous
 62
     7
100
AcDbLine
 10
6474.0188425454
 20
4245.6609428771
 30
0.0
 11
6474.0187382373
 21
4245.6609428771
 31
0.0
  0
LINE
  5
592
330
1F
100
AcDbEntity
  8
0
  6
Continuous
 62
     7
100
AcDbLine
 10
6377.6988956507
 20
3821.5338552848
 30
0.0
 11
6377.6985997368
 21
3821.5338552848
 31
0.0
  0
LINE
  5
593
330
1F
100
AcDbEntity
  8
0
  6
Continuous
 62
     7
100
AcDbLine
 10
6454.9705317292
 20
4075.2601445564
 30
0.0
 11
6454.9702411565
 21
4075.2601445564
 31
0.0
  0
LINE
  5
594
330
1F
100
AcDbEntity
  8
0
  6
Continuous
 62
     7
100
AcDbLine
 10
6454.9705317292
 20
3897.9003027924
 30
0.0
 11
6454.9702411565
 21
3897.9003027924
 31
0.0
  0
LINE
  5
595
330
1F
100
AcDbEntity
  8
0
  6
Continuous
 62
     7
100
AcDbLine
 10
6092.8678547067
 20
3897.822794447
 30
0.0
 11
6093.0595701608
 21
3897.8377477177
 31
0.0
  0
LINE
  5
596
330
1F
100
AcDbEntity
  8
0
  6
Continuous
 62
     7
100
AcDbLine
 10
6093.0595701608
 20
3897.8377477177
 30
0.0
 11
6093.6338013086
 21
3897.8824810036
 31
0.0
  0
LINE
  5
597
330
1F
100
AcDbEntity
  8
0
  6
Continuous
 62
     7
100
AcDbLine
 10
6093.6338013086
 20
3897.8824810036
 30
0.0
 11
6094.584704009
 21
3897.9565695771
 31
0.0
  0
LINE
  5
598
330
1F
100
AcDbEntity
  8
0
  6
Continuous
 62
     7
100
AcDbLine
 10
6094.584704009
 20
3897.9565695771
 30
0.0
 11
6095.9031438503
 21
3898.05926838
 31
0.0
  0
LINE
  5
599
330
1F
100
AcDbEntity
  8
0
  6
Continuous
 62
     7
100
AcDbLine
 10
6095.9031438503
 20
3898.05926838
 30
0.0
 11
6097.5763952407
 21
3898.1895939358
 31
0.0
  0
LINE
  5
59A
330
1F
100
AcDbEntity
  8
0
  6
Continuous
 62
     7
100
AcDbLine
 10
6097.5763952407
 20
3898.1895939358
 30
0.0
 11
6099.5883500251
 21
3898.3463243492
 31
0.0
  0
LINE
  5
59B
330
1F
100
AcDbEntity
  8
0
  6
Continuous
 62
     7
100
AcDbLine
 10
6099.5883500251
 20
3898.3463243492
 30
0.0
 11
6101.919651595
 21
3898.5279098996
 31
0.0
  0
LINE
  5
59C
330
1F
100
AcDbEntity
  8
0
  6
Continuous
 62
     7
100
AcDbLine
 10
6101.919651595
 20
3898.5279098996
 30
0.0
 11
6104.5478289994
 21
3898.7326518544
 31
0.0
  0
LINE
  5
59D
330
1F
100
AcDbEntity
  8
0
  6
Continuous
 62
     7
100
AcDbLine
 10
6104.5478289994
 20
3898.7326518544
 30
0.0
 11
6107.4475800666
 21
3898.9585236557
 31
0.0
  0
LINE
  5
59E
330
1F
100
AcDbEntity
  8
0
  6
Continuous
 62
     7
100
AcDbLine
 10
6107.4475800666
 20
3898.9585236557
 30
0.0
 11
6110.5909651193
 21
3899.2033795365
 31
0.0
  0
LINE
  5
59F
330
1F
100
AcDbEntity
  8
0
  6
Continuous
 62
     7
100
AcDbLine
 10
6110.5909651193
 20
3899.2033795365
 30
0.0
 11
6113.9477348003
 21
3899.4648651131
 31
0.0
  0
LINE
  5
5A0
330
1F
100
AcDbEntity
  8
0
  6
Continuous
 62
     7
100
AcDbLine
 10
6113.9477348003
 20
3899.4648651131
 30
0.0
 11
6117.4855386886
 21
3899.7404471882
 31
0.0
  0
LINE
  5
5A1
330
1F
100
AcDbEntity
  8
0
  6
Continuous
 62
     7
100
AcDbLine
 10
6117.4855386886
 20
3899.7404471882
 30
0.0
 11
6121.1703276309
 21
3900.0274733551
 31
0.0
  0
LINE
  5
5A2
330
1F
100
AcDbEntity
  8
0
  6
Continuous
 62
     7
100
AcDbLine
 10
6121.1703276309
 20
3900.0274733551
 30
0.0
 11
6124.9666070613
 21
3900.3231719979
 31
0.0
  0
LINE
  5
5A3
330
1F
100
AcDbEntity
  8
0
  6
Continuous
 62
     7
100
AcDbLine
 10
6124.9666070613
 20
3900.3231719979
 30
0.0
 11
6128.837794629
 21
3900.6247118958
 31
0.0
  0
LINE
  5
5A4
330
1F
100
AcDbEntity
  8
0
  6
Continuous
 62
     7
100
AcDbLine
 10
6128.837794629
 20
3900.6247118958
 30
0.0
 11
6132.7466374311
 21
3900.9292022236
 31
0.0
  0
LINE
  5
5A5
330
1F
100
AcDbEntity
  8
0
  6
Continuous
 62
     7
100
AcDbLine
 10
6170.1334579066
 20
4151.6266018072
 30
0.0
 11
6170.1478069696
 21
4151.4345490285
 31
0.0
  0
LINE
  5
5A6
330
1F
100
AcDbEntity
  8
0
  6
Continuous
 62
     7
100
AcDbLine
 10
6170.1478069696
 20
4151.4345490285
 30
0.0
 11
6170.1916163835
 21
4150.8602405809
 31
0.0
  0
LINE
  5
5A7
330
1F
100
AcDbEntity
  8
0
  6
Continuous
 62
     7
100
AcDbLine
 10
6170.1916163835
 20
4150.8602405809
 30
0.0
 11
6170.2641701373
 21
4149.9092074954
 31
0.0
  0
LINE
  5
5A8
330
1F
100
AcDbEntity
  8
0
  6
Continuous
 62
     7
100
AcDbLine
 10
6170.2641701373
 20
4149.9092074954
 30
0.0
 11
6170.3647678766
 21
4148.5906074666
 31
0.0
  0
LINE
  5
5A9
330
1F
100
AcDbEntity
  8
0
  6
Continuous
 62
     7
100
AcDbLine
 10
6170.3647678766
 20
4148.5906074666
 30
0.0
 11
6170.4924410257
 21
4146.9171409406
 31
0.0
  0
LINE
  5
5AA
330
1F
100
AcDbEntity
  8
0
  6
Continuous
 62
     7
100
AcDbLine
 10
6170.4924410257
 20
4146.9171409406
 30
0.0
 11
6170.6459676894
 21
4144.9049235233
 31
0.0
  0
LINE
  5
5AB
330
1F
100
AcDbEntity
  8
0
  6
Continuous
 62
     7
100
AcDbLine
 10
6170.6459676894
 20
4144.9049235233
 30
0.0
 11
6170.8238726529
 21
4142.573335106
 31
0.0
  0
LINE
  5
5AC
330
1F
100
AcDbEntity
  8
0
  6
Continuous
 62
     7
100
AcDbLine
 10
6170.8238726529
 20
4142.573335106
 30
0.0
 11
6171.0244124803
 21
4139.9448280134
 31
0.0
  0
LINE
  5
5AD
330
1F
100
AcDbEntity
  8
0
  6
Continuous
 62
     7
100
AcDbLine
 10
6171.0244124803
 20
4139.9448280134
 30
0.0
 11
6171.245694724
 21
4137.0447193183
 31
0.0
  0
LINE
  5
5AE
330
1F
100
AcDbEntity
  8
0
  6
Continuous
 62
     7
100
AcDbLine
 10
6171.245694724
 20
4137.0447193183
 30
0.0
 11
6171.4855587157
 21
4133.900933797
 31
0.0
  0
LINE
  5
5AF
330
1F
100
AcDbEntity
  8
0
  6
Continuous
 62
     7
100
AcDbLine
 10
6171.4855587157
 20
4133.900933797
 30
0.0
 11
6171.7417096767
 21
4130.5437543341
 31
0.0
  0
LINE
  5
5B0
330
1F
100
AcDbEntity
  8
0
  6
Continuous
 62
     7
100
AcDbLine
 10
6171.7417096767
 20
4130.5437543341
 30
0.0
 11
6172.011674014
 21
4127.0055071362
 31
0.0
  0
LINE
  5
5B1
330
1F
100
AcDbEntity
  8
0
  6
Continuous
 62
     7
100
AcDbLine
 10
6172.011674014
 20
4127.0055071362
 30
0.0
 11
6172.2928589257
 21
4123.3202674337
 31
0.0
  0
LINE
  5
5B2
330
1F
100
AcDbEntity
  8
0
  6
Continuous
 62
     7
100
AcDbLine
 10
6172.2928589257
 20
4123.3202674337
 30
0.0
 11
6172.5825524005
 21
4119.5235297926
 31
0.0
  0
LINE
  5
5B3
330
1F
100
AcDbEntity
  8
0
  6
Continuous
 62
     7
100
AcDbLine
 10
6172.5825524005
 20
4119.5235297926
 30
0.0
 11
6172.8779679212
 21
4115.6518542119
 31
0.0
  0
LINE
  5
5B4
330
1F
100
AcDbEntity
  8
0
  6
Continuous
 62
     7
100
AcDbLine
 10
6172.8779679212
 20
4115.6518542119
 30
0.0
 11
6173.176259366
 21
4111.7425345727
 31
0.0
  0
LINE
  5
5B5
330
1F
100
AcDbEntity
  8
0
  6
Continuous
 62
     7
100
AcDbLine
 10
6377.6985997368
 20
3821.5338552848
 30
0.0
 11
6377.6839343879
 21
3821.725894595
 31
0.0
  0
LINE
  5
5B6
330
1F
100
AcDbEntity
  8
0
  6
Continuous
 62
     7
100
AcDbLine
 10
6377.6839343879
 20
3821.725894595
 30
0.0
 11
6377.6401026222
 21
3822.3002151497
 31
0.0
  0
LINE
  5
5B7
330
1F
100
AcDbEntity
  8
0
  6
Continuous
 62
     7
100
AcDbLine
 10
6377.6401026222
 20
3822.3002151497
 30
0.0
 11
6377.5675265166
 21
3823.2512370594
 31
0.0
  0
LINE
  5
5B8
330
1F
100
AcDbEntity
  8
0
  6
Continuous
 62
     7
100
AcDbLine
 10
6377.5675265166
 20
3823.2512370594
 30
0.0
 11
6377.4669064256
 21
3824.5698408135
 31
0.0
  0
LINE
  5
5B9
330
1F
100
AcDbEntity
  8
0
  6
Continuous
 62
     7
100
AcDbLine
 10
6377.4669064256
 20
3824.5698408135
 30
0.0
 11
6377.3392109248
 21
3826.2433008202
 31
0.0
  0
LINE
  5
5BA
330
1F
100
AcDbEntity
  8
0
  6
Continuous
 62
     7
100
AcDbLine
 10
6377.3392109248
 20
3826.2433008202
 30
0.0
 11
6377.1856656346
 21
3828.2555238255
 31
0.0
  0
LINE
  5
5BB
330
1F
100
AcDbEntity
  8
0
  6
Continuous
 62
     7
100
AcDbLine
 10
6377.1856656346
 20
3828.2555238255
 30
0.0
 11
6377.0077532205
 21
3830.5871085175
 31
0.0
  0
LINE
  5
5BC
330
1F
100
AcDbEntity
  8
0
  6
Continuous
 62
     7
100
AcDbLine
 10
6377.0077532205
 20
3830.5871085175
 30
0.0
 11
6376.8071873161
 21
3833.2156137474
 31
0.0
  0
LINE
  5
5BD
330
1F
100
AcDbEntity
  8
0
  6
Continuous
 62
     7
100
AcDbLine
 10
6376.8071873161
 20
3833.2156137474
 30
0.0
 11
6376.5858976218
 21
3836.1157373436
 31
0.0
  0
LINE
  5
5BE
330
1F
100
AcDbEntity
  8
0
  6
Continuous
 62
     7
100
AcDbLine
 10
6376.5858976218
 20
3836.1157373436
 30
0.0
 11
6376.3460187289
 21
3839.2595247277
 31
0.0
  0
LINE
  5
5BF
330
1F
100
AcDbEntity
  8
0
  6
Continuous
 62
     7
100
AcDbLine
 10
6376.3460187289
 20
3839.2595247277
 30
0.0
 11
6376.0898565921
 21
3842.61669674
 31
0.0
  0
LINE
  5
5C0
330
1F
100
AcDbEntity
  8
0
  6
Continuous
 62
     7
100
AcDbLine
 10
6376.0898565921
 20
3842.61669674
 30
0.0
 11
6375.8198773536
 21
3846.1549476631
 31
0.0
  0
LINE
  5
5C1
330
1F
100
AcDbEntity
  8
0
  6
Continuous
 62
     7
100
AcDbLine
 10
6375.8198773536
 20
3846.1549476631
 30
0.0
 11
6375.5386849913
 21
3849.8401836403
 31
0.0
  0
LINE
  5
5C2
330
1F
100
AcDbEntity
  8
0
  6
Continuous
 62
     7
100
AcDbLine
 10
6375.5386849913
 20
3849.8401836403
 30
0.0
 11
6375.2489877912
 21
3853.6369399079
 31
0.0
  0
LINE
  5
5C3
330
1F
100
AcDbEntity
  8
0
  6
Continuous
 62
     7
100
AcDbLine
 10
6375.2489877912
 20
3853.6369399079
 30
0.0
 11
6374.9535722706
 21
3857.5085894116
 31
0.0
  0
LINE
  5
5C4
330
1F
100
AcDbEntity
  8
0
  6
Continuous
 62
     7
100
AcDbLine
 10
6374.9535722706
 20
3857.5085894116
 30
0.0
 11
6374.6552882764
 21
3861.4179090508
 31
0.0
  0
LINE
  5
5C5
330
1F
100
AcDbEntity
  8
0
  6
Continuous
 62
     7
100
AcDbLine
 10
6074.0184342536
 20
4245.7109437235
 30
0.0
 11
6050.6688511047
 21
4245.7109437235
 31
0.0
  0
LINE
  5
5C6
330
1F
100
AcDbEntity
  8
0
  6
Continuous
 62
     7
100
AcDbLine
 10
6050.2188360366
 20
4200.7109419354
 30
0.0
 11
6050.2188360366
 21
4200.7234887131
 31
0.0
  0
LINE
  5
5C7
330
1F
100
AcDbEntity
  8
0
  6
Continuous
 62
     7
100
AcDbLine
 10
6049.0188455257
 20
4200.7109419354
 30
0.0
 11
6050.2188360366
 21
4200.7109419354
 31
0.0
  0
LINE
  5
5C8
330
1F
100
AcDbEntity
  8
0
  6
Continuous
 62
     7
100
AcDbLine
 10
6049.0188455257
 20
4244.0609381445
 30
0.0
 11
6049.0188455257
 21
4200.7109419354
 31
0.0
  0
LINE
  5
5C9
330
1F
100
AcDbEntity
  8
0
  6
Continuous
 62
     7
100
AcDbLine
 10
6049.0187263164
 20
4244.0609381445
 30
0.0
 11
6049.0188455257
 21
4244.0609381445
 31
0.0
  0
LINE
  5
5CA
330
1F
100
AcDbEntity
  8
0
  6
Continuous
 62
     7
100
AcDbLine
 10
6050.6687318954
 20
4245.7109437235
 30
0.0
 11
6050.3683840904
 21
4245.6833691247
 31
0.0
  0
LINE
  5
5CB
330
1F
100
AcDbEntity
  8
0
  6
Continuous
 62
     7
100
AcDbLine
 10
6050.6688511047
 20
4245.7109437235
 30
0.0
 11
6050.6687318954
 21
4245.7109437235
 31
0.0
  0
LINE
  5
5CC
330
1F
100
AcDbEntity
  8
0
  6
Continuous
 62
     7
100
AcDbLine
 10
6049.0187263164
 20
4200.2109409221
 30
0.0
 11
6049.0187263164
 21
4244.0609381445
 31
0.0
  0
LINE
  5
5CD
330
1F
100
AcDbEntity
  8
0
  6
Continuous
 62
     7
100
AcDbLine
 10
6049.0188455257
 20
4200.2109409221
 30
0.0
 11
6049.0188455257
 21
4200.7109419354
 31
0.0
  0
LINE
  5
5CE
330
1F
100
AcDbEntity
  8
0
  6
Continuous
 62
     7
100
AcDbLine
 10
6050.2188360366
 20
4200.2109409221
 30
0.0
 11
6049.0188455257
 21
4200.2109409221
 31
0.0
  0
LINE
  5
5CF
330
1F
100
AcDbEntity
  8
0
  6
Continuous
 62
     7
100
AcDbLine
 10
6050.2188360366
 20
4200.7109419354
 30
0.0
 11
6050.2188360366
 21
4200.2109409221
 31
0.0
  0
LINE
  5
5D0
330
1F
100
AcDbEntity
  8
0
  6
Continuous
 62
     7
100
AcDbLine
 10
6474.0187382373
 20
4245.7109437235
 30
0.0
 11
6474.0188425454
 21
4245.6440300592
 31
0.0
  0
LINE
  5
5D1
330
1F
100
AcDbEntity
  8
0
  6
Continuous
 62
     7
100
AcDbLine
 10
6474.0188425454
 20
4245.7109437235
 30
0.0
 11
6474.0187382373
 21
4245.7109437235
 31
0.0
  0
LINE
  5
5D2
330
1F
100
AcDbEntity
  8
0
  6
Continuous
 62
     7
100
AcDbLine
 10
6474.0188425454
 20
4245.7109437235
 30
0.0
 11
6474.0188425454
 21
4245.6440300592
 31
0.0
  0
LINE
  5
5D3
330
1F
100
AcDbEntity
  8
0
  6
Continuous
 62
     7
100
AcDbLine
 10
6499.0188485059
 20
4200.7109419354
 30
0.0
 11
6499.0188485059
 21
4202.3109392174
 31
0.0
  0
LINE
  5
5D4
330
1F
100
AcDbEntity
  8
0
  6
Continuous
 62
     7
100
AcDbLine
 10
6497.8188430938
 20
4200.7109419354
 30
0.0
 11
6499.0188485059
 21
4200.7109419354
 31
0.0
  0
LINE
  5
5D5
330
1F
100
AcDbEntity
  8
0
  6
Continuous
 62
     7
100
AcDbLine
 10
6497.8188430938
 20
4243.5863287099
 30
0.0
 11
6497.8188430938
 21
4202.3109392174
 31
0.0
  0
LINE
  5
5D6
330
1F
100
AcDbEntity
  8
0
  6
Continuous
 62
     7
100
AcDbLine
 10
6497.8188430938
 20
4200.7233098992
 30
0.0
 11
6497.8188430938
 21
4200.7109419354
 31
0.0
  0
LINE
  5
5D7
330
1F
100
AcDbEntity
  8
0
  6
Continuous
 62
     7
100
AcDbLine
 10
6497.3688429269
 20
4245.7109437235
 30
0.0
 11
6474.0188425454
 21
4245.7109437235
 31
0.0
  0
LINE
  5
5D8
330
1F
100
AcDbEntity
  8
0
  6
Continuous
 62
     7
100
AcDbLine
 10
6497.8188430938
 20
4200.2109409221
 30
0.0
 11
6497.8188430938
 21
4200.7233098992
 31
0.0
  0
LINE
  5
5D9
330
1F
100
AcDbEntity
  8
0
  6
Continuous
 62
     7
100
AcDbLine
 10
6497.8187387857
 20
4202.3011081763
 30
0.0
 11
6497.8188430938
 21
4243.5863287099
 31
0.0
  0
LINE
  5
5DA
330
1F
100
AcDbEntity
  8
0
  6
Continuous
 62
     7
100
AcDbLine
 10
6497.8188430938
 20
4200.2109409221
 30
0.0
 11
6497.8188430938
 21
4200.7109419354
 31
0.0
  0
LINE
  5
5DB
330
1F
100
AcDbEntity
  8
0
  6
Continuous
 62
     7
100
AcDbLine
 10
6499.0188485059
 20
4200.2109409221
 30
0.0
 11
6497.8188430938
 21
4200.2109409221
 31
0.0
  0
LINE
  5
5DC
330
1F
100
AcDbEntity
  8
0
  6
Continuous
 62
     7
100
AcDbLine
 10
6499.0188485059
 20
4200.7109419354
 30
0.0
 11
6499.0188485059
 21
4200.2109409221
 31
0.0
  0
LINE
  5
5DD
330
1F
100
AcDbEntity
  8
0
  6
Continuous
 62
     7
100
AcDbLine
 10
6050.4287039909
 20
4201.1520945378
 30
0.0
 11
6050.2200281295
 21
4201.2877472587
 31
0.0
  0
LINE
  5
5DE
330
1F
100
AcDbEntity
  8
0
  6
Continuous
 62
     7
100
AcDbLine
 10
6497.6115977439
 20
4201.1522621759
 30
0.0
 11
6497.8200351867
 21
4201.2877472587
 31
0.0
  0
LINE
  5
5DF
330
1F
100
AcDbEntity
  8
0
  6
Continuous
 62
     7
100
AcDbLine
 10
6497.3688429269
 20
4200.2109409221
 30
0.0
 11
6425.7702386054
 21
4200.2109409221
 31
0.0
  0
LINE
  5
5E0
330
1F
100
AcDbEntity
  8
0
  6
Continuous
 62
     7
100
AcDbLine
 10
6365.7702362212
 20
4200.2109409221
 30
0.0
 11
6304.0195224854
 21
4200.2109409221
 31
0.0
  0
LINE
  5
5E1
330
1F
100
AcDbEntity
  8
0
  6
Continuous
 62
     7
100
AcDbLine
 10
6244.0195238265
 20
4200.2109409221
 30
0.0
 11
6050.6688511047
 21
4200.2109409221
 31
0.0
  0
LINE
  5
5E2
330
1F
100
AcDbEntity
  8
0
  6
Continuous
 62
     7
100
AcDbLine
 10
6181.5226232681
 20
4082.3842124237
 30
0.0
 11
6181.5226232681
 21
4074.3842158882
 31
0.0
  0
LINE
  5
5E3
330
1F
100
AcDbEntity
  8
0
  6
Continuous
 62
     7
100
AcDbLine
 10
6365.7702362212
 20
4197.6609424599
 30
0.0
 11
6425.7702386054
 21
4197.6609424599
 31
0.0
  0
LINE
  5
5E4
330
1F
100
AcDbEntity
  8
0
  6
Continuous
 62
     7
100
AcDbLine
 10
6092.8678547067
 20
3897.822794447
 30
0.0
 11
6092.8295409354
 21
3897.8198067196
 31
0.0
  0
LINE
  5
5E5
330
1F
100
AcDbEntity
  8
0
  6
Continuous
 62
     7
100
AcDbLine
 10
6092.8295409354
 20
3897.8198067196
 30
0.0
 11
6092.716068593
 21
3897.8109852322
 31
0.0
  0
LINE
  5
5E6
330
1F
100
AcDbEntity
  8
0
  6
Continuous
 62
     7
100
AcDbLine
 10
6092.716068593
 20
3897.8109852322
 30
0.0
 11
6092.5318157348
 21
3897.7966205128
 31
0.0
  0
LINE
  5
5E7
330
1F
100
AcDbEntity
  8
0
  6
Continuous
 62
     7
100
AcDbLine
 10
6092.5318157348
 20
3897.7966205128
 30
0.0
 11
6092.2838455114
 21
3897.7773086079
 31
0.0
  0
LINE
  5
5E8
330
1F
100
AcDbEntity
  8
0
  6
Continuous
 62
     7
100
AcDbLine
 10
6092.2838455114
 20
3897.7773086079
 30
0.0
 11
6091.9816797647
 21
3897.7537647732
 31
0.0
  0
LINE
  5
5E9
330
1F
100
AcDbEntity
  8
0
  6
Continuous
 62
     7
100
AcDbLine
 10
6091.9816797647
 20
3897.7537647732
 30
0.0
 11
6091.9482564601
 21
3897.7511719712
 31
0.0
  0
LINE
  5
5EA
330
1F
100
AcDbEntity
  8
0
  6
Continuous
 62
     7
100
AcDbLine
 10
6377.6988956507
 20
3821.5338552848
 30
0.0
 11
6377.7018195066
 21
3821.4955226429
 31
0.0
  0
LINE
  5
5EB
330
1F
100
AcDbEntity
  8
0
  6
Continuous
 62
     7
100
AcDbLine
 10
6377.7018195066
 20
3821.4955226429
 30
0.0
 11
6377.7104808065
 21
3821.3820652016
 31
0.0
  0
LINE
  5
5EC
330
1F
100
AcDbEntity
  8
0
  6
Continuous
 62
     7
100
AcDbLine
 10
6377.7104808065
 20
3821.3820652016
 30
0.0
 11
6377.7245437774
 21
3821.19776764
 31
0.0
  0
LINE
  5
5ED
330
1F
100
AcDbEntity
  8
0
  6
Continuous
 62
     7
100
AcDbLine
 10
6377.7245437774
 20
3821.19776764
 30
0.0
 11
6377.7434645268
 21
3820.949752713
 31
0.0
  0
LINE
  5
5EE
330
1F
100
AcDbEntity
  8
0
  6
Continuous
 62
     7
100
AcDbLine
 10
6377.7434645268
 20
3820.949752713
 30
0.0
 11
6377.7665240738
 21
3820.647557164
 31
0.0
  0
LINE
  5
5EF
330
1F
100
AcDbEntity
  8
0
  6
Continuous
 62
     7
100
AcDbLine
 10
6377.7665240738
 20
3820.647557164
 30
0.0
 11
6377.7928320739
 21
3820.3028038987
 31
0.0
  0
LINE
  5
5F0
330
1F
100
AcDbEntity
  8
0
  6
Continuous
 62
     7
100
AcDbLine
 10
6377.7928320739
 20
3820.3028038987
 30
0.0
 11
6377.7997946414
 21
3820.2115193852
 31
0.0
  0
LINE
  5
5F1
330
1F
100
AcDbEntity
  8
0
  6
Continuous
 62
     7
100
AcDbLine
 10
6050.6688511047
 20
4200.660941089
 30
0.0
 11
6050.6688511047
 21
4200.2109409221
 31
0.0
  0
LWPOLYLINE
  5
5F2
330
1F
100
AcDbEntity
  8
0
  6
Continuous
 62
     7
100
AcDbPolyline
 90
        4
 70
   128
 43
0.0
 10
6050.2891540527
 20
5160.05602334
 10
6050.4244673762
 20
5158.8790613696
 10
6050.5700628163
 20
5158.5254044698
 10
6050.7394528064
 20
5158.406017761
  0
LWPOLYLINE
  5
5F3
330
1F
100
AcDbEntity
  8
0
  6
Continuous
 62
     7
100
AcDbPolyline
 90
        3
 70
   128
 43
0.0
 10
6497.8179931641
 20
5160.0547716425
 10
6497.6274233187
 20
5159.6859940723
 10
6497.3687386188
 20
5159.6047863767
  0
LWPOLYLINE
  5
5F4
330
1F
100
AcDbEntity
  8
0
  6
Continuous
 62
     7
100
AcDbPolyline
 90
        3
 70
   128
 43
0.0
 10
6499.0158081055
 20
5160.0547716425
 10
6498.4085497239
 20
5158.7744765986
 10
6497.3687386188
 20
5158.4047958658
  0
LWPOLYLINE
  5
5F5
330
1F
100
AcDbEntity
  8
0
  6
Continuous
 62
     7
100
AcDbPolyline
 90
        3
 70
   128
 43
0.0
 10
6497.3678588867
 20
5627.0494404652
 10
6497.4856940722
 20
5627.2970362739
 10
6497.7493291768
 20
5627.4723014266
  0
LWPOLYLINE
  5
5F6
330
1F
100
AcDbEntity
  8
0
  6
Continuous
 62
     7
100
AcDbPolyline
 90
        3
 70
   128
 43
0.0
 10
6497.3678588867
 20
5627.0494404652
 10
6497.5825076658
 20
5628.0930461329
 10
6497.7493291768
 20
5628.5999323644
  0
LWPOLYLINE
  5
5F7
330
1F
100
AcDbEntity
  8
0
  6
Continuous
 62
     7
100
AcDbPolyline
 90
        3
 70
   128
 43
0.0
 10
6050.666809082
 20
5627.0506758646
 10
6050.5520879489
 20
5627.2975531234
 10
6050.2907490405
 20
5627.4735386886
  0
LWPOLYLINE
  5
5F8
330
1F
100
AcDbEntity
  8
0
  6
Continuous
 62
     7
100
AcDbPolyline
 90
        3
 70
   128
 43
0.0
 10
6050.2891540527
 20
5628.6011700921
 10
6050.5032184782
 20
5627.8949083492
 10
6050.6700431976
 20
5627.0506758646
  0
LWPOLYLINE
  5
5F9
330
1F
100
AcDbEntity
  8
0
  6
Continuous
 62
     7
100
AcDbPolyline
 90
        3
 70
   128
 43
0.0
 10
6050.2166748047
 20
5627.1216566146
 10
6049.4014639827
 20
5627.2759987486
 10
6049.0605985793
 20
5627.3972168036
  0
LWPOLYLINE
  5
5FA
330
1F
100
AcDbEntity
  8
0
  6
Continuous
 62
     7
100
AcDbPolyline
 90
        3
 70
   128
 43
0.0
 10
6498.9776611328
 20
5627.3959618465
 10
6498.4934358186
 20
5627.2416334691
 10
6497.8200351867
 20
5627.1204184212
  0
LWPOLYLINE
  5
5FB
330
1F
100
AcDbEntity
  8
0
  6
Continuous
 62
     7
100
AcDbPolyline
 90
        3
 70
   128
 43
0.0
 10
6050.2166748047
 20
5627.1571460583
 10
6049.6308077753
 20
5627.3284962402
 10
6049.0605985793
 20
5627.3972168036
  0
LWPOLYLINE
  5
5FC
330
1F
100
AcDbEntity
  8
0
  6
Continuous
 62
     7
100
AcDbPolyline
 90
        3
 70
   128
 43
0.0
 10
6497.8179931641
 20
5627.1559083306
 10
6498.4093054304
 20
5627.3271651986
 10
6498.9794647369
 20
5627.3959618465
  0
LWPOLYLINE
  5
5FD
330
1F
100
AcDbEntity
  8
0
  6
Continuous
 62
     7
100
AcDbPolyline
 90
        3
 70
   128
 43
0.0
 10
6497.3678588867
 20
5627.0494404652
 10
6497.5824892168
 20
5627.3348284354
 10
6497.7493291768
 20
5627.4723014266
  0
LWPOLYLINE
  5
5FE
330
1F
100
AcDbEntity
  8
0
  6
Continuous
 62
     7
100
AcDbPolyline
 90
        3
 70
   128
 43
0.0
 10
6050.2891540527
 20
5627.4735386886
 10
6050.5032068822
 20
5627.281720398
 10
6050.6700431976
 20
5627.0506758646
  0
LWPOLYLINE
  5
5FF
330
1F
100
AcDbEntity
  8
0
  6
Continuous
 62
     7
100
AcDbPolyline
 90
        3
 70
   128
 43
0.0
 10
6497.8179931641
 20
5627.4530705468
 10
6497.6566810385
 20
5627.2270368556
 10
6497.3700350198
 20
5627.0494404652
  0
LWPOLYLINE
  5
600
330
1F
100
AcDbEntity
  8
0
  6
Continuous
 62
     7
100
AcDbPolyline
 90
        3
 70
   128
 43
0.0
 10
6050.666809082
 20
5627.0506758646
 10
6050.323402071
 20
5627.2767122287
 10
6050.2200281295
 20
5627.4543087401
  0
LWPOLYLINE
  5
601
330
1F
100
AcDbEntity
  8
0
  6
Continuous
 62
     7
100
AcDbPolyline
 90
        5
 70
   128
 43
0.0
 10
6050.3730773926
 20
5643.8400544629
 10
6050.3531096295
 20
5643.8528156847
 10
6050.3426847367
 20
5643.8537814537
 10
6050.3322762762
 20
5643.8482788478
 10
6050.2907788429
 20
5643.7725726918
  0
LWPOLYLINE
  5
602
330
1F
100
AcDbEntity
  8
0
  6
Continuous
 62
     7
100
AcDbPolyline
 90
        3
 70
   128
 43
0.0
 10
6292.1829223633
 20
5316.7695686624
 10
6271.6070969928
 20
5315.851932304
 10
6255.8521708521
 20
5316.7696580694
  0
LWPOLYLINE
  5
603
330
1F
100
AcDbEntity
  8
0
  6
Continuous
 62
     7
100
AcDbPolyline
 90
        3
 70
   128
 43
0.0
 10
6292.1829223633
 20
5300.0411363313
 10
6293.9905103428
 20
5309.4749223908
 10
6292.1861751053
 20
5316.7695686624
  0
LWPOLYLINE
  5
604
330
1F
100
AcDbEntity
  8
0
  6
Continuous
 62
     7
100
AcDbPolyline
 90
        3
 70
   128
 43
0.0
 10
6255.8517456055
 20
5300.0412284277
 10
6276.4312073242
 20
5300.9588650544
 10
6292.1861333225
 20
5300.0411363313
  0
LWPOLYLINE
  5
605
330
1F
100
AcDbEntity
  8
0
  6
Continuous
 62
     7
100
AcDbPolyline
 90
        3
 70
   128
 43
0.0
 10
6255.8517456055
 20
5316.7696580694
 10
6254.0477944835
 20
5307.3358756453
 10
6255.8521290694
 20
5300.0412284277
  0
LWPOLYLINE
  5
606
330
1F
100
AcDbEntity
  8
0
  6
Continuous
 62
     7
100
AcDbPolyline
 90
        5
 70
   128
 43
0.0
 10
6266.5176391602
 20
5312.7054259584
 10
6262.6822885102
 20
5311.1438969287
 10
6261.0196238953
 20
5307.1995865297
 10
6262.6848694179
 20
5303.262498851
 10
6266.5191298398
 20
5301.7054185674
  0
LWPOLYLINE
  5
607
330
1F
100
AcDbEntity
  8
0
  6
Continuous
 62
     7
100
AcDbPolyline
 90
        5
 70
   128
 43
0.0
 10
6281.5170288086
 20
5301.7053887651
 10
6285.3560135552
 20
5303.2668934463
 10
6287.0186706845
 20
5307.2112125077
 10
6285.3534186983
 20
5311.1482880476
 10
6281.5191639635
 20
5312.7053663538
  0
LWPOLYLINE
  5
608
330
1F
100
AcDbEntity
  8
0
  6
Continuous
 62
     7
100
AcDbPolyline
 90
        3
 70
   128
 43
0.0
 10
6402.2560119629
 20
5466.0101965473
 10
6400.0255641493
 20
5466.6413728034
 10
6398.2123440179
 20
5466.7863831327
  0
LWPOLYLINE
  5
609
330
1F
100
AcDbEntity
  8
0
  6
Continuous
 62
     7
100
AcDbPolyline
 90
        3
 70
   128
 43
0.0
 10
6391.7121887207
 20
5466.5744737194
 10
6374.4298501015
 20
5454.1683673097
 10
6372.2700258765
 20
5437.3255059526
  0
ARC
  5
60A
330
1F
100
AcDbEntity
  8
0
  6
Continuous
 62
     7
100
AcDbCircle
 10
6494.2877466662
 20
4860.2436734601
 30
0.0
 40
2.733909835914551
100
AcDbArc
 50
317.7301983044
 51
3.3778817548
  0
LWPOLYLINE
  5
60B
330
1F
100
AcDbEntity
  8
0
  6
Continuous
 62
     7
100
AcDbPolyline
 90
        3
 70
   128
 43
0.0
 10
6051.7234802246
 20
4858.4060356424
 10
6051.3288989086
 20
4859.1324477675
 10
6051.0179257068
 20
4860.4060098932
  0
LWPOLYLINE
  5
60C
330
1F
100
AcDbEntity
  8
0
  6
Continuous
 62
     7
100
AcDbPolyline
 90
        5
 70
   128
 43
0.0
 10
6266.4680480957
 20
5301.905421953
 10
6262.7721411666
 20
5303.4098235002
 10
6261.1695963724
 20
5307.2110260505
 10
6262.7747174367
 20
5311.0053846827
 10
6266.4691587958
 20
5312.5054225729
  0
LWPOLYLINE
  5
60D
330
1F
100
AcDbEntity
  8
0
  6
Continuous
 62
     7
100
AcDbPolyline
 90
        5
 70
   128
 43
0.0
 10
6281.566619873
 20
5312.5053927705
 10
6285.2642824065
 20
5311.0048450212
 10
6286.8689379437
 20
5307.2023685966
 10
6285.2648361955
 20
5303.4064468516
 10
6281.5691312823
 20
5301.9053921506
  0
LWPOLYLINE
  5
60E
330
1F
100
AcDbEntity
  8
0
  6
Continuous
 62
     7
100
AcDbPolyline
 90
        3
 70
   128
 43
0.0
 10
6946.964263916
 20
4894.1836091161
 10
6947.304809052
 20
4894.7681729307
 10
6947.57044817
 20
4895.2274596721
  0
LWPOLYLINE
  5
60F
330
1F
100
AcDbEntity
  8
0
  6
Continuous
 62
     7
100
AcDbPolyline
 90
        3
 70
   128
 43
0.0
 10
6948.917388916
 20
4894.1836091161
 10
6949.2586567583
 20
4894.7681729307
 10
6949.5242958763
 20
4895.2274596721
  0
LWPOLYLINE
  5
610
330
1F
100
AcDbEntity
  8
0
  6
Continuous
 62
     7
100
AcDbPolyline
 90
        3
 70
   128
 43
0.0
 10
7163.6695861816
 20
4783.4844276712
 10
7165.600022515
 20
4784.5404798346
 10
7166.2524690727
 20
4786.151556711
  0
LWPOLYLINE
  5
611
330
1F
100
AcDbEntity
  8
0
  6
Continuous
 62
     7
100
AcDbPolyline
 90
       10
 70
   128
 43
0.0
 10
7112.0491027832
 20
4786.4592954919
 10
7113.0164902147
 20
4784.2553177023
 10
7114.0688682525
 20
4783.6248838332
 10
7114.6685952065
 20
4783.4838503117
 10
7115.0501552863
 20
4783.4592546288
 10
7115.0518044364
 20
4783.4592547001
 10
7115.0518384809
 20
4783.4592617524
 10
7115.0518446343
 20
4783.4592654938
 10
7115.0518440294
 20
4783.4592693265
 10
7115.0518333414
 20
4783.4592745111
  0
LWPOLYLINE
  5
612
330
1F
100
AcDbEntity
  8
0
  6
Continuous
 62
     7
100
AcDbPolyline
 90
        3
 70
   128
 43
0.0
 10
6950.8743286133
 20
4894.1836091161
 10
6951.2125038838
 20
4894.7681713708
 10
6951.4781435827
 20
4895.2274596721
  0
LWPOLYLINE
  5
613
330
1F
100
AcDbEntity
  8
0
  6
Continuous
 62
     7
100
AcDbPolyline
 90
        3
 70
   128
 43
0.0
 10
6952.8274536133
 20
4894.1836091161
 10
6953.1663461136
 20
4894.768174538
 10
6953.431991289
 20
4895.2274596721
  0
LWPOLYLINE
  5
614
330
1F
100
AcDbEntity
  8
0
  6
Continuous
 62
     7
100
AcDbPolyline
 90
        3
 70
   128
 43
0.0
 10
6946.6018676758
 20
4913.0968490553
 10
6946.2593950231
 20
4913.6900835703
 10
6945.9898521999
 20
4914.1562095082
  0
LWPOLYLINE
  5
615
330
1F
100
AcDbEntity
  8
0
  6
Continuous
 62
     7
100
AcDbPolyline
 90
        3
 70
   128
 43
0.0
 10
6948.5549926758
 20
4913.0968490553
 10
6948.2132358233
 20
4913.6900819891
 10
6947.9436924556
 20
4914.1562095082
  0
LWPOLYLINE
  5
616
330
1F
100
AcDbEntity
  8
0
  6
Continuous
 62
     7
100
AcDbPolyline
 90
        3
 70
   128
 43
0.0
 10
6950.5081176758
 20
4913.0968490553
 10
6950.1670829852
 20
4913.6900835703
 10
6949.8975401619
 20
4914.1562095082
  0
LWPOLYLINE
  5
617
330
1F
100
AcDbEntity
  8
0
  6
Continuous
 62
     7
100
AcDbPolyline
 90
        3
 70
   128
 43
0.0
 10
6952.4612426758
 20
4913.0968490553
 10
6952.1209306915
 20
4913.6900835703
 10
6951.8513878682
 20
4914.1562095082
  0
LWPOLYLINE
  5
618
330
1F
100
AcDbEntity
  8
0
  6
Continuous
 62
     7
100
AcDbPolyline
 90
        3
 70
   128
 43
0.0
 10
6945.2514648438
 20
4894.5986735106
 10
6945.4565786341
 20
4894.9507990028
 10
6945.6166004637
 20
4895.2274596721
  0
LWPOLYLINE
  5
619
330
1F
100
AcDbEntity
  8
0
  6
Continuous
 62
     7
100
AcDbPolyline
 90
        3
 70
   128
 43
0.0
 10
6948.0285644531
 20
4895.2454304725
 10
6948.3723556666
 20
4894.6522190197
 10
6948.6418863633
 20
4894.1860938847
  0
LWPOLYLINE
  5
61A
330
1F
100
AcDbEntity
  8
0
  6
Continuous
 62
     7
100
AcDbPolyline
 90
        3
 70
   128
 43
0.0
 10
6949.9816894531
 20
4895.2454304725
 10
6950.3261979054
 20
4894.6522158579
 10
6950.5957340697
 20
4894.1860938847
  0
LWPOLYLINE
  5
61B
330
1F
100
AcDbEntity
  8
0
  6
Continuous
 62
     7
100
AcDbPolyline
 90
        3
 70
   128
 43
0.0
 10
6951.9348144531
 20
4895.2454304725
 10
6952.2800456118
 20
4894.6522158579
 10
6952.549581776
 20
4894.1860938847
  0
LWPOLYLINE
  5
61C
330
1F
100
AcDbEntity
  8
0
  6
Continuous
 62
     7
100
AcDbPolyline
 90
        3
 70
   128
 43
0.0
 10
6953.8879394531
 20
4895.2454304725
 10
6954.2338927737
 20
4894.652217439
 10
6954.5034294823
 20
4894.1860938847
  0
LWPOLYLINE
  5
61D
330
1F
100
AcDbEntity
  8
0
  6
Continuous
 62
     7
100
AcDbPolyline
 90
        3
 70
   128
 43
0.0
 10
6947.6623535156
 20
4914.1537252052
 10
6947.3277354011
 20
4913.5705463639
 10
6947.0627358058
 20
4913.1123590686
  0
LWPOLYLINE
  5
61E
330
1F
100
AcDbEntity
  8
0
  6
Continuous
 62
     7
100
AcDbPolyline
 90
        3
 70
   128
 43
0.0
 10
6949.6154785156
 20
4914.1537252052
 10
6949.2815817216
 20
4913.5705447523
 10
6949.0165760616
 20
4913.1123590686
  0
LWPOLYLINE
  5
61F
330
1F
100
AcDbEntity
  8
0
  6
Continuous
 62
     7
100
AcDbPolyline
 90
        3
 70
   128
 43
0.0
 10
6951.5724182129
 20
4914.1537252052
 10
6951.2354288413
 20
4913.5705431959
 10
6950.9704237679
 20
4913.1123590686
  0
LWPOLYLINE
  5
620
330
1F
100
AcDbEntity
  8
0
  6
Continuous
 62
     7
100
AcDbPolyline
 90
        3
 70
   128
 43
0.0
 10
6953.5255432129
 20
4914.1537252052
 10
6953.1892765477
 20
4913.5705431959
 10
6952.9242714742
 20
4913.1123590686
  0
LWPOLYLINE
  5
621
330
1F
100
AcDbEntity
  8
0
  6
Continuous
 62
     7
100
AcDbPolyline
 90
        3
 70
   128
 43
0.0
 10
7007.1563720703
 20
5465.8635244176
 10
7006.7885471036
 20
5466.5053087715
 10
7006.4973248044
 20
5467.0095727251
  0
LWPOLYLINE
  5
622
330
1F
100
AcDbEntity
  8
0
  6
Continuous
 62
     7
100
AcDbPolyline
 90
        3
 70
   128
 43
0.0
 10
7001.3961791992
 20
5419.0638795898
 10
7001.5096141538
 20
5419.2589872604
 10
7001.5981508294
 20
5419.4122836397
  0
LWPOLYLINE
  5
623
330
1F
100
AcDbEntity
  8
0
  6
Continuous
 62
     7
100
AcDbPolyline
 90
        4
 70
   128
 43
0.0
 10
7077.8999328613
 20
5470.9263429449
 10
7074.6761513081
 20
5470.8301948808
 10
7074.1469760103
 20
5470.4894893079
 10
7073.9348133901
 20
5469.8554411933
  0
LWPOLYLINE
  5
624
330
1F
100
AcDbEntity
  8
0
  6
Continuous
 62
     7
100
AcDbPolyline
 90
        5
 70
   128
 43
0.0
 10
7080.4176330566
 20
5469.8471561477
 10
7080.3000824016
 20
5470.3283416451
 10
7079.9724285442
 20
5470.6912982555
 10
7079.3565455491
 20
5470.8792499446
 10
7077.9012417296
 20
5470.9263429449
  0
LWPOLYLINE
  5
625
330
1F
100
AcDbEntity
  8
0
  6
Continuous
 62
     7
100
AcDbPolyline
 90
        3
 70
   128
 43
0.0
 10
7001.3313293457
 20
5627.1216566146
 10
7000.8033703746
 20
5627.2759987486
 10
7000.1105455557
 20
5627.3972060934
  0
LWPOLYLINE
  5
626
330
1F
100
AcDbEntity
  8
0
  6
Continuous
 62
     7
100
AcDbPolyline
 90
        3
 70
   128
 43
0.0
 10
6957.6644897461
 20
5643.8231379197
 10
6958.2116704173
 20
5643.8636532669
 10
6958.6281826595
 20
5643.7725726918
  0
LWPOLYLINE
  5
627
330
1F
100
AcDbEntity
  8
0
  6
Continuous
 62
     7
100
AcDbPolyline
 90
        3
 70
   128
 43
0.0
 10
6956.413269043
 20
5642.2220789299
 10
6956.8493489702
 20
5643.3389836058
 10
6957.6649641493
 20
5643.8231379197
  0
LWPOLYLINE
  5
628
330
1F
100
AcDbEntity
  8
0
  6
Continuous
 62
     7
100
AcDbPolyline
 90
        3
 70
   128
 43
0.0
 10
7000.3089904785
 20
5628.6011700921
 10
7001.1647971731
 20
5627.8949083492
 10
7001.3969367245
 20
5627.0506758646
  0
LWPOLYLINE
  5
629
330
1F
100
AcDbEntity
  8
0
  6
Continuous
 62
     7
100
AcDbPolyline
 90
        3
 70
   128
 43
0.0
 10
7431.396484375
 20
5160.05602334
 10
7430.7867562654
 20
5158.7757119863
 10
7429.7469457487
 20
5158.406017761
  0
LWPOLYLINE
  5
62A
330
1F
100
AcDbEntity
  8
0
  6
Continuous
 62
     7
100
AcDbPolyline
 90
        3
 70
   128
 43
0.0
 10
7430.1948547363
 20
5160.05602334
 10
7430.0056298775
 20
5159.6872203664
 10
7429.7469457487
 20
5159.6060082719
  0
LWPOLYLINE
  5
62B
330
1F
100
AcDbEntity
  8
0
  6
Continuous
 62
     7
100
AcDbPolyline
 90
        3
 70
   128
 43
0.0
 10
6958.2176208496
 20
5642.6437035606
 10
6957.7654750277
 20
5642.5574778831
 10
6957.6138531664
 20
5642.2208439962
  0
LWPOLYLINE
  5
62C
330
1F
100
AcDbEntity
  8
0
  6
Continuous
 62
     7
100
AcDbPolyline
 90
        3
 70
   128
 43
0.0
 10
6957.6110839844
 20
5642.2220789299
 10
6957.8495612838
 20
5642.6175936547
 10
6958.2177599767
 20
5642.644940357
  0
LWPOLYLINE
  5
62D
330
1F
100
AcDbEntity
  8
0
  6
Continuous
 62
     7
100
AcDbPolyline
 90
        3
 70
   128
 43
0.0
 10
7430.1261901855
 20
5160.0547716425
 10
7429.9348463576
 20
5159.6859940723
 10
7429.6762248376
 20
5159.6047863767
  0
LWPOLYLINE
  5
62E
330
1F
100
AcDbEntity
  8
0
  6
Continuous
 62
     7
100
AcDbPolyline
 90
        3
 70
   128
 43
0.0
 10
6945.7092285156
 20
4914.1537252052
 10
6945.3738876948
 20
4913.5705463639
 10
6945.1088880995
 20
4913.1123590686
  0
LWPOLYLINE
  5
62F
330
1F
100
AcDbEntity
  8
0
  6
Continuous
 62
     7
100
AcDbPolyline
 90
        3
 70
   128
 43
0.0
 10
6946.0716247559
 20
4895.2454304725
 10
6946.4185079603
 20
4894.6522190197
 10
6946.688038657
 20
4894.1860938847
  0
LWPOLYLINE
  5
630
330
1F
100
AcDbEntity
  8
0
  6
Continuous
 62
     7
100
AcDbPolyline
 90
       11
 70
   128
 43
0.0
 10
6945.1942443848
 20
4894.6506655246
 10
6945.1865000471
 20
4894.6496631976
 10
6945.1770180116
 20
4894.657204367
 10
6945.120715086
 20
4895.2513322829
 10
6944.8916093236
 20
4903.9294682361
 10
6944.6564671084
 20
4912.5755285027
 10
6944.6120228363
 20
4913.0699941104
 10
6944.5968754824
 20
4913.0997870346
 10
6944.5918004835
 20
4913.1003997303
 10
6944.5867171657
 20
4913.0980172648
 10
6944.5765366653
 20
4913.0882603985
  0
LWPOLYLINE
  5
631
330
1F
100
AcDbEntity
  8
0
  6
Continuous
 62
     7
100
AcDbPolyline
 90
        8
 70
   128
 43
0.0
 10
6944.6296691895
 20
4913.00029605
 10
6944.6456340746
 20
4913.0183067913
 10
6944.6611024859
 20
4913.0248519573
 10
6944.6726385478
 20
4913.015339288
 10
6944.6840946777
 20
4912.9881350266
 10
6944.7517900452
 20
4912.4489951647
 10
6945.1190358325
 20
4904.1723146396
 10
6945.6070041159
 20
4895.2434895963
  0
LWPOLYLINE
  5
632
330
1F
100
AcDbEntity
  8
0
  6
Continuous
 62
     7
100
AcDbPolyline
 90
        7
 70
   128
 43
0.0
 10
6946.6018676758
 20
4913.000147504
 10
6946.6177828336
 20
4913.0109970887
 10
6946.6253521013
 20
4913.0101721297
 10
6946.6328875588
 20
4913.0018474691
 10
6946.7215840963
 20
4912.251789303
 10
6947.0819683065
 20
4903.9077084569
 10
6947.5608518222
 20
4895.2434895963
  0
LWPOLYLINE
  5
633
330
1F
100
AcDbEntity
  8
0
  6
Continuous
 62
     7
100
AcDbPolyline
 90
        7
 70
   128
 43
0.0
 10
6948.5549926758
 20
4913.000147504
 10
6948.5716270506
 20
4913.0109970932
 10
6948.5791980887
 20
4913.0101721386
 10
6948.5867350645
 20
4913.0018474849
 10
6948.6754322668
 20
4912.2517894081
 10
6949.0358158279
 20
4903.9077085827
 10
6949.5146995285
 20
4895.2434895963
  0
LWPOLYLINE
  5
634
330
1F
100
AcDbEntity
  8
0
  6
Continuous
 62
     7
100
AcDbPolyline
 90
        7
 70
   128
 43
0.0
 10
6950.5081176758
 20
4913.000147504
 10
6950.525474708
 20
4913.0109970919
 10
6950.5330457495
 20
4913.0101721374
 10
6950.5405827622
 20
4913.0018474847
 10
6950.6292803905
 20
4912.2517894197
 10
6950.9896576164
 20
4903.9077083744
 10
6951.4685472349
 20
4895.2434895963
  0
LWPOLYLINE
  5
635
330
1F
100
AcDbEntity
  8
0
  6
Continuous
 62
     7
100
AcDbPolyline
 90
        7
 70
   128
 43
0.0
 10
6952.4612426758
 20
4913.000147504
 10
6952.479322599
 20
4913.0109970952
 10
6952.4868936276
 20
4913.0101721404
 10
6952.4944305012
 20
4913.0018474853
 10
6952.583120894
 20
4912.2517892976
 10
6952.9435022865
 20
4903.9077082707
 10
6953.4223949412
 20
4895.2434895963
  0
LWPOLYLINE
  5
636
330
1F
100
AcDbEntity
  8
0
  6
Continuous
 62
     7
100
AcDbPolyline
 90
        7
 70
   128
 43
0.0
 10
6945.987701416
 20
4914.0143980675
 10
6946.0205025032
 20
4913.9952733918
 10
6946.1099050513
 20
4913.2480911353
 10
6946.4706326122
 20
4903.9028751416
 10
6946.8302087311
 20
4894.8787503452
 10
6946.9203566589
 20
4894.3058522434
 10
6946.9506120184
 20
4894.2825714529
  0
LWPOLYLINE
  5
637
330
1F
100
AcDbEntity
  8
0
  6
Continuous
 62
     7
100
AcDbPolyline
 90
        7
 70
   128
 43
0.0
 10
6947.940826416
 20
4914.0143980675
 10
6947.9743450803
 20
4913.995273372
 10
6948.0637489557
 20
4913.248091107
 10
6948.4244738076
 20
4903.9028749343
 10
6948.784057307
 20
4894.8787503667
 10
6948.8742041787
 20
4894.3058522388
 10
6948.9044597247
 20
4894.2825714529
  0
LWPOLYLINE
  5
638
330
1F
100
AcDbEntity
  8
0
  6
Continuous
 62
     7
100
AcDbPolyline
 90
        7
 70
   128
 43
0.0
 10
6949.893951416
 20
4914.0143980675
 10
6949.9281926738
 20
4913.9952733696
 10
6950.0175976102
 20
4913.2480911432
 10
6950.3783213761
 20
4903.902875045
 10
6950.7379005912
 20
4894.8787504056
 10
6950.8280439106
 20
4894.3058522299
 10
6950.8582999805
 20
4894.2825714529
  0
LWPOLYLINE
  5
639
330
1F
100
AcDbEntity
  8
0
  6
Continuous
 62
     7
100
AcDbPolyline
 90
        7
 70
   128
 43
0.0
 10
6951.8508911133
 20
4914.0143980675
 10
6951.8820377483
 20
4913.9952733844
 10
6951.9714463927
 20
4913.2480912338
 10
6952.3321682969
 20
4903.902875139
 10
6952.6917480751
 20
4894.8787504103
 10
6952.7818916642
 20
4894.3058522316
 10
6952.8121476868
 20
4894.2825714529
  0
LWPOLYLINE
  5
63A
330
1F
100
AcDbEntity
  8
0
  6
Continuous
 62
     7
100
AcDbPolyline
 90
        8
 70
   128
 43
0.0
 10
6945.728302002
 20
4914.0330150893
 10
6945.7602432279
 20
4914.0828254185
 10
6945.7660023491
 20
4914.0819020955
 10
6945.7717436055
 20
4914.0757007818
 10
6945.7831662806
 20
4914.045159374
 10
6945.8509294478
 20
4913.4300224861
 10
6946.2181798148
 20
4904.1691307578
 10
6946.7060914138
 20
4894.1875970394
  0
LWPOLYLINE
  5
63B
330
1F
100
AcDbEntity
  8
0
  6
Continuous
 62
     7
100
AcDbPolyline
 90
        8
 70
   128
 43
0.0
 10
6947.681427002
 20
4914.0330150893
 10
6947.7140909356
 20
4914.0828254185
 10
6947.7198500564
 20
4914.0819020955
 10
6947.725591312
 20
4914.0757007818
 10
6947.7370139843
 20
4914.0451593739
 10
6947.8047771379
 20
4913.4300224854
 10
6948.1720252714
 20
4904.1691306872
 10
6948.6599391201
 20
4894.1875970394
  0
LWPOLYLINE
  5
63C
330
1F
100
AcDbEntity
  8
0
  6
Continuous
 62
     7
100
AcDbPolyline
 90
        8
 70
   128
 43
0.0
 10
6949.634552002
 20
4914.0330150893
 10
6949.6679389254
 20
4914.0828254229
 10
6949.6736979605
 20
4914.0819020986
 10
6949.6794390589
 20
4914.0757007824
 10
6949.6908611785
 20
4914.0451593659
 10
6949.7586183904
 20
4913.4300223875
 10
6950.1258736034
 20
4904.1691307077
 10
6950.6137868265
 20
4894.1875970394
  0
LWPOLYLINE
  5
63D
330
1F
100
AcDbEntity
  8
0
  6
Continuous
 62
     7
100
AcDbPolyline
 90
        8
 70
   128
 43
0.0
 10
6951.587677002
 20
4914.0330150893
 10
6951.6217866522
 20
4914.0828254235
 10
6951.627545681
 20
4914.081902099
 10
6951.6332867681
 20
4914.0757007825
 10
6951.6447088485
 20
4914.0451593649
 10
6951.7124658698
 20
4913.4300223808
 10
6952.079722253
 20
4904.1691307376
 10
6952.5676345328
 20
4894.1875970394
  0
LWPOLYLINE
  5
63E
330
1F
100
AcDbEntity
  8
0
  6
Continuous
 62
     7
100
AcDbPolyline
 90
        8
 70
   128
 43
0.0
 10
6953.5446166992
 20
4914.0330150893
 10
6953.5756266837
 20
4914.0828254204
 10
6953.5813857805
 20
4914.0819020966
 10
6953.5871269921
 20
4914.0757007815
 10
6953.5985495117
 20
4914.0451593691
 10
6953.666311923
 20
4913.4300224527
 10
6954.0335697904
 20
4904.1691308484
 10
6954.5214822391
 20
4894.1875970394
  0
LWPOLYLINE
  5
63F
330
1F
100
AcDbEntity
  8
0
  6
Continuous
 62
     7
100
AcDbPolyline
 90
        8
 70
   128
 43
0.0
 10
6945.1179504395
 20
4912.9898359005
 10
6945.148933759
 20
4913.0343630884
 10
6945.1545810047
 20
4913.0341008399
 10
6945.1602114519
 20
4913.0294100277
 10
6945.1714148413
 20
4913.0045821117
 10
6945.2378415678
 20
4912.4804752693
 10
6945.5979405626
 20
4904.4499535868
 10
6946.0761969784
 20
4895.3295642913
  0
LWPOLYLINE
  5
640
330
1F
100
AcDbEntity
  8
0
  6
Continuous
 62
     7
100
AcDbPolyline
 90
        8
 70
   128
 43
0.0
 10
6947.0710754395
 20
4912.9898359005
 10
6947.1027814649
 20
4913.0343630884
 10
6947.1084287107
 20
4913.0341008399
 10
6947.1140591581
 20
4913.0294100277
 10
6947.1252625482
 20
4913.0045821118
 10
6947.1916892786
 20
4912.4804752696
 10
6947.5517886224
 20
4904.4499535997
 10
6948.0300446847
 20
4895.3295642913
  0
LWPOLYLINE
  5
641
330
1F
100
AcDbEntity
  8
0
  6
Continuous
 62
     7
100
AcDbPolyline
 90
        8
 70
   128
 43
0.0
 10
6949.0242004395
 20
4912.9898359005
 10
6949.0566291922
 20
4913.0343630891
 10
6949.0622764325
 20
4913.0341008404
 10
6949.0679068697
 20
4913.0294100278
 10
6949.0791102231
 20
4913.0045821107
 10
6949.1455367487
 20
4912.4804752618
 10
6949.5056370911
 20
4904.4499536273
 10
6949.983892391
 20
4895.3295642913
  0
LWPOLYLINE
  5
642
330
1F
100
AcDbEntity
  8
0
  6
Continuous
 62
     7
100
AcDbPolyline
 90
        8
 70
   128
 43
0.0
 10
6950.9773254395
 20
4912.9898359005
 10
6951.0104692179
 20
4913.0343630855
 10
6951.0161165183
 20
4913.0341008376
 10
6951.0217470685
 20
4913.0294100264
 10
6951.0329508303
 20
4913.0045821147
 10
6951.0993825959
 20
4912.480475339
 10
6951.4594846844
 20
4904.4499537523
 10
6951.9377400974
 20
4895.3295642913
  0
LWPOLYLINE
  5
643
330
1F
100
AcDbEntity
  8
0
  6
Continuous
 62
     7
100
AcDbPolyline
 90
        8
 70
   128
 43
0.0
 10
6952.9304504395
 20
4912.9898359005
 10
6952.9643168412
 20
4913.0343630834
 10
6952.9699641631
 20
4913.034100836
 10
6952.9755947541
 20
4913.0294100259
 10
6952.9867986612
 20
4913.004582118
 10
6953.0532312396
 20
4912.4804753639
 10
6953.4133252658
 20
4904.4499535024
 10
6953.8915878037
 20
4895.3295642913
  0
LWPOLYLINE
  5
644
330
1F
100
AcDbEntity
  8
0
  6
Continuous
 62
     7
100
AcDbPolyline
 90
       12
 70
   128
 43
0.0
 10
7009.765625
 20
5428.8738802478
 10
7009.7676060935
 20
5428.8738804346
 10
7009.7676014909
 20
5428.8738810741
 10
7009.7676011662
 20
5428.8738813279
 10
7009.7676012319
 20
5428.873881626
 10
7009.7676026548
 20
5428.8738823691
 10
7009.767659967
 20
5428.8738923714
 10
7009.7687660768
 20
5428.8740285589
 10
7009.7877004391
 20
5428.8762085894
 10
7009.8451397145
 20
5428.8826840055
 10
7011.147776195
 20
5428.9667938356
 10
7012.9558605948
 20
5428.8816139505
  0
LWPOLYLINE
  5
645
330
1F
100
AcDbEntity
  8
0
  6
Continuous
 62
     7
100
AcDbPolyline
 90
        3
 70
   128
 43
0.0
 10
7003.3950805664
 20
5316.7696580694
 10
7001.444880007
 20
5307.335875202
 10
7003.3969370523
 20
5300.041227083
  0
LWPOLYLINE
  5
646
330
1F
100
AcDbEntity
  8
0
  6
Continuous
 62
     7
100
AcDbPolyline
 90
       10
 70
   128
 43
0.0
 10
7010.7116699219
 20
5315.847782831
 10
7010.7458690849
 20
5315.8432774051
 10
7010.7460261848
 20
5315.8432561496
 10
7010.7460342606
 20
5315.8432550344
 10
7010.7460354445
 20
5315.8432548445
 10
7010.7460169068
 20
5315.843257271
 10
7010.7452962302
 20
5315.8433536463
 10
7010.7213745983
 20
5315.8465619164
 10
7010.326672101
 20
5315.8992379704
 10
7003.3969370523
 20
5316.7696580694
  0
LWPOLYLINE
  5
647
330
1F
100
AcDbEntity
  8
0
  6
Continuous
 62
     7
100
AcDbPolyline
 90
       11
 70
   128
 43
0.0
 10
7003.3950805664
 20
5300.041227083
 10
7010.3307159652
 20
5300.9121439934
 10
7010.690083202
 20
5300.9600689199
 10
7010.7156434391
 20
5300.963486448
 10
7010.7173654381
 20
5300.9637164539
 10
7010.7174230889
 20
5300.9637241092
 10
7010.717425736
 20
5300.9637244529
 10
7010.7174258828
 20
5300.9637244623
 10
7010.7174188022
 20
5300.9637234947
 10
7010.7171831348
 20
5300.9636918532
 10
7010.7123343149
 20
5300.9630427167
  0
LWPOLYLINE
  5
648
330
1F
100
AcDbEntity
  8
0
  6
Continuous
 62
     7
100
AcDbPolyline
 90
        5
 70
   128
 43
0.0
 10
7009.6893310547
 20
5312.7053663538
 10
7008.1945597527
 20
5311.1438969287
 10
7007.314018377
 20
5307.1995865297
 10
7008.196307859
 20
5303.262498851
 10
7009.6917146692
 20
5301.7054185674
  0
LWPOLYLINE
  5
649
330
1F
100
AcDbEntity
  8
0
  6
Continuous
 62
     7
100
AcDbPolyline
 90
       23
 70
   128
 43
0.0
 10
7006.4964294434
 20
5466.9985756681
 10
7004.6038509384
 20
5466.6362626604
 10
7004.3279449666
 20
5466.346244884
 10
7004.3213493313
 20
5465.9397414764
 10
7004.5469388586
 20
5464.8302552546
 10
7004.5906977759
 20
5461.6062651242
 10
7005.2879088088
 20
5420.8860670894
 10
7005.3627246437
 20
5419.2087479272
 10
7005.4199633954
 20
5418.7371158334
 10
7005.4254030921
 20
5418.7282400051
 10
7005.4308485536
 20
5418.7254568846
 10
7005.4390239845
 20
5418.7327234504
 10
7005.4472025866
 20
5418.7537193637
 10
7005.4635408079
 20
5418.8367558578
 10
7005.5908691012
 20
5421.4222623068
 10
7006.276026686
 20
5462.3557319459
 10
7006.4467634061
 20
5466.8324608407
 10
7006.4791938168
 20
5467.0071030272
 10
7006.4846354204
 20
5467.0149468384
 10
7006.4900825498
 20
5467.0166943058
 10
7006.4973508005
 20
5467.0095273602
 10
7006.5046212066
 20
5466.9914941681
 10
7006.8088633815
 20
5456.8714633987
  0
LWPOLYLINE
  5
64A
330
1F
100
AcDbEntity
  8
0
  6
Continuous
 62
     7
100
AcDbPolyline
 90
        6
 70
   128
 43
0.0
 10
7006.2217712402
 20
5466.9579253004
 10
7006.239672036
 20
5467.0175182645
 10
7006.2422028446
 20
5467.0181591108
 10
7006.2447354538
 20
5467.015959634
 10
7006.3052073873
 20
5466.3344288065
 10
7006.5442783633
 20
5456.8714633987
  0
LWPOLYLINE
  5
64B
330
1F
100
AcDbEntity
  8
0
  6
Continuous
 62
     7
100
AcDbPolyline
 90
        3
 70
   128
 43
0.0
 10
7007.1563720703
 20
5465.7682314918
 10
7007.3260480757
 20
5462.7845807717
 10
7007.4586769441
 20
5456.8714633987
  0
LWPOLYLINE
  5
64C
330
1F
100
AcDbEntity
  8
0
  6
Continuous
 62
     7
100
AcDbPolyline
 90
       15
 70
   128
 43
0.0
 10
7073.860168457
 20
5465.5519411371
 10
7073.8477989122
 20
5465.5484784831
 10
7073.8429070126
 20
5465.5464221464
 10
7073.8406916278
 20
5465.5439757979
 10
7073.8413203761
 20
5465.5418073245
 10
7073.8441561954
 20
5465.5393184632
 10
7073.8561799974
 20
5465.5334310169
 10
7074.0708051549
 20
5465.4791230783
 10
7077.1706233787
 20
5465.1964420903
 10
7080.2593870972
 20
5465.4776266151
 10
7080.5328195283
 20
5465.5487561637
 10
7080.5358917388
 20
5465.551999593
 10
7080.5359003924
 20
5465.5530504548
 10
7080.5352594422
 20
5465.5540068614
 10
7080.5168984333
 20
5465.5576184795
  0
ARC
  5
64D
330
1F
100
AcDbEntity
  8
0
  6
Continuous
 62
     7
100
AcDbCircle
 10
7426.6757744409
 20
4860.2388036555
 30
0.0
 40
2.723132130715419
100
AcDbArc
 50
317.6981220861
 51
3.5202999473
  0
LWPOLYLINE
  5
64E
330
1F
100
AcDbEntity
  8
0
  6
Continuous
 62
     7
100
AcDbPolyline
 90
        3
 70
   128
 43
0.0
 10
6958.1031799316
 20
4858.4059164331
 10
6958.2680630844
 20
4859.1321948276
 10
6958.3969389895
 20
4860.4060098932
  0
LWPOLYLINE
  5
64F
330
1F
100
AcDbEntity
  8
0
  6
Continuous
 62
     7
100
AcDbPolyline
 90
        3
 70
   128
 43
0.0
 10
6958.1031799316
 20
4859.4060227678
 10
6958.268063207
 20
4859.7691091057
 10
6958.3969389895
 20
4860.4060098932
  0
LWPOLYLINE
  5
650
330
1F
100
AcDbEntity
  8
0
  6
Continuous
 62
     7
100
AcDbPolyline
 90
        3
 70
   128
 43
0.0
 10
6958.3969116211
 20
4860.4060098932
 10
6956.8540128647
 20
4860.2419914246
 10
6956.3969349364
 20
4860.1129934595
  0
LWPOLYLINE
  5
651
330
1F
100
AcDbEntity
  8
0
  6
Continuous
 62
     7
100
AcDbPolyline
 90
        3
 70
   128
 43
0.0
 10
6958.3969116211
 20
4860.4060098932
 10
6957.6254824464
 20
4860.2419941424
 10
6957.3969369629
 20
4860.1131126688
  0
LWPOLYLINE
  5
652
330
1F
100
AcDbEntity
  8
0
  6
Continuous
 62
     7
100
AcDbPolyline
 90
        3
 70
   128
 43
0.0
 10
6957.3936462402
 20
4860.1119801805
 10
6957.7600238345
 20
4860.2758900673
 10
6958.3969389895
 20
4860.4047581956
  0
LWPOLYLINE
  5
653
330
1F
100
AcDbEntity
  8
0
  6
Continuous
 62
     7
100
AcDbPolyline
 90
        3
 70
   128
 43
0.0
 10
6957.9963684082
 20
5160.006015043
 10
6957.7843812621
 20
5159.6589873226
 10
6957.617645512
 20
5159.5560297773
  0
LWPOLYLINE
  5
654
330
1F
100
AcDbEntity
  8
0
  6
Continuous
 62
     7
100
AcDbPolyline
 90
        3
 70
   128
 43
0.0
 10
6957.9963684082
 20
5160.006015043
 10
6957.812013581
 20
5158.861212048
 10
6957.6666703323
 20
5158.3939776228
  0
LWPOLYLINE
  5
655
330
1F
100
AcDbEntity
  8
0
  6
Continuous
 62
     7
100
AcDbPolyline
 90
        3
 70
   128
 43
0.0
 10
6957.9963684082
 20
5160.006015043
 10
6957.1128407822
 20
5159.710298377
 10
6956.3745086888
 20
5159.6709177301
  0
LWPOLYLINE
  5
656
330
1F
100
AcDbEntity
  8
0
  6
Continuous
 62
     7
100
AcDbPolyline
 90
        3
 70
   128
 43
0.0
 10
6956.371307373
 20
5159.6709177301
 10
6957.0516255886
 20
5159.8586191838
 10
6957.996939669
 20
5160.006015043
  0
LWPOLYLINE
  5
657
330
1F
100
AcDbEntity
  8
0
  6
Continuous
 62
     7
100
AcDbPolyline
 90
        3
 70
   128
 43
0.0
 10
6957.5462341309
 20
5159.6266612814
 10
6957.7104034438
 20
5159.8393005848
 10
6957.996939669
 20
5160.006015043
  0
LWPOLYLINE
  5
658
330
1F
100
AcDbEntity
  8
0
  6
Continuous
 62
     7
100
AcDbPolyline
 90
        5
 70
   128
 43
0.0
 10
7009.6740722656
 20
5301.9053921506
 10
7008.2379411614
 20
5303.4098235002
 10
7007.3999251293
 20
5307.2110260505
 10
7008.2396162581
 20
5311.0053846827
 10
7009.6765974412
 20
5312.5054225729
  0
LWPOLYLINE
  5
659
330
1F
100
AcDbEntity
  8
0
  6
Continuous
 62
     7
100
AcDbPolyline
 90
        3
 70
   128
 43
0.0
 10
6429.7866821289
 20
4255.0911054858
 10
6430.3730716812
 20
4254.7530698771
 10
6430.8323567781
 20
4254.4874296435
  0
LWPOLYLINE
  5
65A
330
1F
100
AcDbEntity
  8
0
  6
Continuous
 62
     7
100
AcDbPolyline
 90
        3
 70
   128
 43
0.0
 10
6429.7866821289
 20
4253.1372577794
 10
6430.3730716812
 20
4252.7992221708
 10
6430.8323567781
 20
4252.5335819372
  0
LWPOLYLINE
  5
65B
330
1F
100
AcDbEntity
  8
0
  6
Continuous
 62
     7
100
AcDbPolyline
 90
        3
 70
   128
 43
0.0
 10
6429.7866821289
 20
4251.1834100731
 10
6430.3730716812
 20
4250.8453744645
 10
6430.8323567781
 20
4250.5797342308
  0
LWPOLYLINE
  5
65C
330
1F
100
AcDbEntity
  8
0
  6
Continuous
 62
     7
100
AcDbPolyline
 90
        3
 70
   128
 43
0.0
 10
6429.7866821289
 20
4249.2295698174
 10
6430.3730701214
 20
4248.891527339
 10
6430.8323567781
 20
4248.6258865245
  0
LWPOLYLINE
  5
65D
330
1F
100
AcDbEntity
  8
0
  6
Continuous
 62
     7
100
AcDbPolyline
 90
        3
 70
   128
 43
0.0
 10
6448.6999511719
 20
4255.4553792723
 10
6449.2949813421
 20
4255.7984840043
 10
6449.7611081275
 20
4256.0680256136
  0
LWPOLYLINE
  5
65E
330
1F
100
AcDbEntity
  8
0
  6
Continuous
 62
     7
100
AcDbPolyline
 90
        3
 70
   128
 43
0.0
 10
6448.6999511719
 20
4253.501531566
 10
6449.2949829228
 20
4253.8446377367
 10
6449.7611081275
 20
4254.1141853579
  0
LWPOLYLINE
  5
65F
330
1F
100
AcDbEntity
  8
0
  6
Continuous
 62
     7
100
AcDbPolyline
 90
        3
 70
   128
 43
0.0
 10
6448.6999511719
 20
4251.5476838597
 10
6449.2949797609
 20
4251.8907954979
 10
6449.7611081275
 20
4252.1603376516
  0
LWPOLYLINE
  5
660
330
1F
100
AcDbEntity
  8
0
  6
Continuous
 62
     7
100
AcDbPolyline
 90
        3
 70
   128
 43
0.0
 10
6448.6999511719
 20
4249.5938436039
 10
6449.2949813421
 20
4249.936948336
 10
6449.7611081275
 20
4250.2064899453
  0
LWPOLYLINE
  5
661
330
1F
100
AcDbEntity
  8
0
  6
Continuous
 62
     7
100
AcDbPolyline
 90
        3
 70
   128
 43
0.0
 10
6430.2024841309
 20
4256.8049327381
 10
6430.55569852
 20
4256.6012977592
 10
6430.8323567781
 20
4256.4412698992
  0
LWPOLYLINE
  5
662
330
1F
100
AcDbEntity
  8
0
  6
Continuous
 62
     7
100
AcDbPolyline
 90
        3
 70
   128
 43
0.0
 10
6430.8471679688
 20
4254.0286154397
 10
6430.2571199691
 20
4253.6855209775
 10
6429.7909965786
 20
4253.4159914502
  0
LWPOLYLINE
  5
663
330
1F
100
AcDbEntity
  8
0
  6
Continuous
 62
     7
100
AcDbPolyline
 90
        3
 70
   128
 43
0.0
 10
6430.8471679688
 20
4252.0747677334
 10
6430.2571199691
 20
4251.7316732712
 10
6429.7909965786
 20
4251.4621437438
  0
LWPOLYLINE
  5
664
330
1F
100
AcDbEntity
  8
0
  6
Continuous
 62
     7
100
AcDbPolyline
 90
        3
 70
   128
 43
0.0
 10
6430.8471679688
 20
4250.1209200271
 10
6430.2571168072
 20
4249.7778310324
 10
6429.7909965786
 20
4249.5082960375
  0
LWPOLYLINE
  5
665
330
1F
100
AcDbEntity
  8
0
  6
Continuous
 62
     7
100
AcDbPolyline
 90
        3
 70
   128
 43
0.0
 10
6430.8471679688
 20
4248.1670723208
 10
6430.2571168072
 20
4247.823983326
 10
6429.7909965786
 20
4247.5544483312
  0
LWPOLYLINE
  5
666
330
1F
100
AcDbEntity
  8
0
  6
Continuous
 62
     7
100
AcDbPolyline
 90
        3
 70
   128
 43
0.0
 10
6449.7566223145
 20
4254.392911578
 10
6449.1754477869
 20
4254.730142887
 10
6448.7172594342
 20
4254.9951420077
  0
LWPOLYLINE
  5
667
330
1F
100
AcDbEntity
  8
0
  6
Continuous
 62
     7
100
AcDbPolyline
 90
        3
 70
   128
 43
0.0
 10
6449.7566223145
 20
4252.4390638717
 10
6449.1754477869
 20
4252.7762951807
 10
6448.7172594342
 20
4253.0412943014
  0
LWPOLYLINE
  5
668
330
1F
100
AcDbEntity
  8
0
  6
Continuous
 62
     7
100
AcDbPolyline
 90
        3
 70
   128
 43
0.0
 10
6449.7566223145
 20
4250.4852161654
 10
6449.1754461753
 20
4250.8224488602
 10
6448.7172594342
 20
4251.0874540456
  0
LWPOLYLINE
  5
669
330
1F
100
AcDbEntity
  8
0
  6
Continuous
 62
     7
100
AcDbPolyline
 90
        3
 70
   128
 43
0.0
 10
6449.7566223145
 20
4248.5313759096
 10
6449.1754446189
 20
4248.8686017405
 10
6448.7172594342
 20
4249.1336063393
  0
LWPOLYLINE
  5
66A
330
1F
100
AcDbEntity
  8
0
  6
Continuous
 62
     7
100
AcDbPolyline
 90
        3
 70
   128
 43
0.0
 10
6449.7566223145
 20
4256.3467592843
 10
6449.1754446189
 20
4256.6839851151
 10
6448.7172594342
 20
4256.948989714
  0
LWPOLYLINE
  5
66B
330
1F
100
AcDbEntity
  8
0
  6
Continuous
 62
     7
100
AcDbPolyline
 90
        3
 70
   128
 43
0.0
 10
6430.8471679688
 20
4255.9824631461
 10
6430.2571183884
 20
4255.6393672451
 10
6429.7909965786
 20
4255.3698317059
  0
LWPOLYLINE
  5
66C
330
1F
100
AcDbEntity
  8
0
  6
Continuous
 62
     7
100
AcDbPolyline
 90
        3
 70
   128
 43
0.0
 10
6309.8564147949
 20
4255.0911054858
 10
6310.4418061875
 20
4254.7530687615
 10
6310.9010929289
 20
4254.4874296435
  0
LWPOLYLINE
  5
66D
330
1F
100
AcDbEntity
  8
0
  6
Continuous
 62
     7
100
AcDbPolyline
 90
        3
 70
   128
 43
0.0
 10
6309.8564147949
 20
4253.1372577794
 10
6310.4418061875
 20
4252.7992210552
 10
6310.9010929289
 20
4252.5335819372
  0
LWPOLYLINE
  5
66E
330
1F
100
AcDbEntity
  8
0
  6
Continuous
 62
     7
100
AcDbPolyline
 90
        3
 70
   128
 43
0.0
 10
6309.8564147949
 20
4251.1834175237
 10
6310.4418046276
 20
4250.8453739297
 10
6310.9010929289
 20
4250.5797342308
  0
LWPOLYLINE
  5
66F
330
1F
100
AcDbEntity
  8
0
  6
Continuous
 62
     7
100
AcDbPolyline
 90
        3
 70
   128
 43
0.0
 10
6309.8564147949
 20
4249.2295698174
 10
6310.4418077948
 20
4248.8915316999
 10
6310.9010929289
 20
4248.6258865245
  0
LWPOLYLINE
  5
670
330
1F
100
AcDbEntity
  8
0
  6
Continuous
 62
     7
100
AcDbPolyline
 90
        3
 70
   128
 43
0.0
 10
6328.7696838379
 20
4255.4553792723
 10
6329.3637168271
 20
4255.7984827904
 10
6329.829842765
 20
4256.0680256136
  0
LWPOLYLINE
  5
671
330
1F
100
AcDbEntity
  8
0
  6
Continuous
 62
     7
100
AcDbPolyline
 90
        3
 70
   128
 43
0.0
 10
6328.7696838379
 20
4253.501531566
 10
6329.3637152459
 20
4253.8446419902
 10
6329.829842765
 20
4254.1141853579
  0
LWPOLYLINE
  5
672
330
1F
100
AcDbEntity
  8
0
  6
Continuous
 62
     7
100
AcDbPolyline
 90
        3
 70
   128
 43
0.0
 10
6328.7696838379
 20
4251.5476913102
 10
6329.3637168271
 20
4251.8907948283
 10
6329.829842765
 20
4252.1603376516
  0
LWPOLYLINE
  5
673
330
1F
100
AcDbEntity
  8
0
  6
Continuous
 62
     7
100
AcDbPolyline
 90
        3
 70
   128
 43
0.0
 10
6328.7696838379
 20
4249.5938436039
 10
6329.3637168271
 20
4249.936947122
 10
6329.829842765
 20
4250.2064899453
  0
LWPOLYLINE
  5
674
330
1F
100
AcDbEntity
  8
0
  6
Continuous
 62
     7
100
AcDbPolyline
 90
        3
 70
   128
 43
0.0
 10
6310.2722167969
 20
4256.8049327381
 10
6310.6244322596
 20
4256.6012991794
 10
6310.9010929289
 20
4256.4412773498
  0
LWPOLYLINE
  5
675
330
1F
100
AcDbEntity
  8
0
  6
Continuous
 62
     7
100
AcDbPolyline
 90
        3
 70
   128
 43
0.0
 10
6310.9169006348
 20
4254.0286154397
 10
6310.3258522765
 20
4253.6855221469
 10
6309.8597271415
 20
4253.4159914502
  0
LWPOLYLINE
  5
676
330
1F
100
AcDbEntity
  8
0
  6
Continuous
 62
     7
100
AcDbPolyline
 90
        3
 70
   128
 43
0.0
 10
6310.9169006348
 20
4252.0747677334
 10
6310.3258491147
 20
4251.7316799081
 10
6309.8597271415
 20
4251.4621437438
  0
LWPOLYLINE
  5
677
330
1F
100
AcDbEntity
  8
0
  6
Continuous
 62
     7
100
AcDbPolyline
 90
        3
 70
   128
 43
0.0
 10
6310.9169006348
 20
4250.1209200271
 10
6310.3258491147
 20
4249.7778322017
 10
6309.8597271415
 20
4249.5082960375
  0
LWPOLYLINE
  5
678
330
1F
100
AcDbEntity
  8
0
  6
Continuous
 62
     7
100
AcDbPolyline
 90
        3
 70
   128
 43
0.0
 10
6310.9169006348
 20
4248.1670797714
 10
6310.3258506958
 20
4247.8239850398
 10
6309.8597271415
 20
4247.5544483312
  0
LWPOLYLINE
  5
679
330
1F
100
AcDbEntity
  8
0
  6
Continuous
 62
     7
100
AcDbPolyline
 90
        3
 70
   128
 43
0.0
 10
6329.8263549805
 20
4254.392911578
 10
6329.2441796207
 20
4254.7301424124
 10
6328.7859923254
 20
4254.9951420077
  0
LWPOLYLINE
  5
67A
330
1F
100
AcDbEntity
  8
0
  6
Continuous
 62
     7
100
AcDbPolyline
 90
        3
 70
   128
 43
0.0
 10
6329.8263549805
 20
4252.4390638717
 10
6329.2441780091
 20
4252.7762960919
 10
6328.7859923254
 20
4253.0413017519
  0
LWPOLYLINE
  5
67B
330
1F
100
AcDbEntity
  8
0
  6
Continuous
 62
     7
100
AcDbPolyline
 90
        3
 70
   128
 43
0.0
 10
6329.8263549805
 20
4250.485223616
 10
6329.2441764527
 20
4250.8224489722
 10
6328.7859923254
 20
4251.0874540456
  0
LWPOLYLINE
  5
67C
330
1F
100
AcDbEntity
  8
0
  6
Continuous
 62
     7
100
AcDbPolyline
 90
        3
 70
   128
 43
0.0
 10
6329.8263549805
 20
4248.5313759096
 10
6329.2441764527
 20
4248.8686012658
 10
6328.7859923254
 20
4249.1336063393
  0
LWPOLYLINE
  5
67D
330
1F
100
AcDbEntity
  8
0
  6
Continuous
 62
     7
100
AcDbPolyline
 90
        3
 70
   128
 43
0.0
 10
6329.8263549805
 20
4256.3467592843
 10
6329.2441796207
 20
4256.6839901187
 10
6328.7859923254
 20
4256.948989714
  0
LWPOLYLINE
  5
67E
330
1F
100
AcDbEntity
  8
0
  6
Continuous
 62
     7
100
AcDbPolyline
 90
        3
 70
   128
 43
0.0
 10
6310.9169006348
 20
4255.9824631461
 10
6310.3258522765
 20
4255.6393698532
 10
6309.8597271415
 20
4255.3698391565
  0
LWPOLYLINE
  5
67F
330
1F
100
AcDbEntity
  8
0
  6
Continuous
 62
     7
100
AcDbPolyline
 90
        3
 70
   128
 43
0.0
 10
6371.6773986816
 20
4195.0617105611
 10
6372.3194077326
 20
4194.6912072685
 10
6372.8220431182
 20
4194.4000952788
  0
LWPOLYLINE
  5
680
330
1F
100
AcDbEntity
  8
0
  6
Continuous
 62
     7
100
AcDbPolyline
 90
        3
 70
   128
 43
0.0
 10
6497.7493286133
 20
4243.429695154
 10
6497.6700027233
 20
4243.9691607925
 10
6497.6079618606
 20
4244.3929285653
  0
LWPOLYLINE
  5
681
330
1F
100
AcDbEntity
  8
0
  6
Continuous
 62
     7
100
AcDbPolyline
 90
        3
 70
   128
 43
0.0
 10
6050.4302978516
 20
4244.3929285653
 10
6050.3528708563
 20
4243.8462074775
 10
6050.2907788429
 20
4243.429695154
  0
LWPOLYLINE
  5
682
330
1F
100
AcDbEntity
  8
0
  6
Continuous
 62
     7
100
AcDbPolyline
 90
        3
 70
   128
 43
0.0
 10
6050.7469177246
 20
4245.6440300592
 10
6050.5711692661
 20
4245.2085288433
 10
6050.4321908626
 20
4244.3929285653
  0
LWPOLYLINE
  5
683
330
1F
100
AcDbEntity
  8
0
  6
Continuous
 62
     7
100
AcDbPolyline
 90
        3
 70
   128
 43
0.0
 10
6497.6043701172
 20
4244.3929285653
 10
6497.4307219219
 20
4245.3714180174
 10
6497.2917294177
 20
4245.6440300592
  0
LWPOLYLINE
  5
684
330
1F
100
AcDbEntity
  8
0
  6
Continuous
 62
     7
100
AcDbPolyline
 90
        3
 70
   128
 43
0.0
 10
6497.3678588867
 20
4200.660941089
 10
6497.5825076658
 20
4201.0326848601
 10
6497.7493291768
 20
4201.746606166
  0
LWPOLYLINE
  5
685
330
1F
100
AcDbEntity
  8
0
  6
Continuous
 62
     7
100
AcDbPolyline
 90
        3
 70
   128
 43
0.0
 10
6050.2891540527
 20
4201.746606166
 10
6050.5032184782
 20
4200.8930806404
 10
6050.6700431976
 20
4200.660941089
  0
LWPOLYLINE
  5
686
330
1F
100
AcDbEntity
  8
0
  6
Continuous
 62
     7
100
AcDbPolyline
 90
        3
 70
   128
 43
0.0
 10
6050.2166748047
 20
4200.7234887131
 10
6049.4014639827
 20
4201.2545074389
 10
6049.0605985793
 20
4201.9473285325
  0
LWPOLYLINE
  5
687
330
1F
100
AcDbEntity
  8
0
  6
Continuous
 62
     7
100
AcDbPolyline
 90
        3
 70
   128
 43
0.0
 10
6498.9776611328
 20
4201.9473322578
 10
6498.4934358186
 20
4201.1012792781
 10
6497.8200351867
 20
4200.7234887131
  0
LWPOLYLINE
  5
688
330
1F
100
AcDbEntity
  8
0
  6
Continuous
 62
     7
100
AcDbPolyline
 90
        3
 70
   128
 43
0.0
 10
6050.2891540527
 20
4202.0791293033
 10
6050.2306802784
 20
4202.2018176924
 10
6050.2200281295
 20
4202.3109392174
  0
LWPOLYLINE
  5
689
330
1F
100
AcDbEntity
  8
0
  6
Continuous
 62
     7
100
AcDbPolyline
 90
        3
 70
   128
 43
0.0
 10
6497.8179931641
 20
4202.3109392174
 10
6497.800153879
 20
4202.1772761799
 10
6497.7493291768
 20
4202.0847433158
  0
LWPOLYLINE
  5
68A
330
1F
100
AcDbEntity
  8
0
  6
Continuous
 62
     7
100
AcDbPolyline
 90
        3
 70
   128
 43
0.0
 10
6050.2166748047
 20
4201.2877472587
 10
6049.6308077753
 20
4201.758502338
 10
6049.0605985793
 20
4201.9473285325
  0
LWPOLYLINE
  5
68B
330
1F
100
AcDbEntity
  8
0
  6
Continuous
 62
     7
100
AcDbPolyline
 90
        3
 70
   128
 43
0.0
 10
6497.8179931641
 20
4201.2877472587
 10
6498.4093054304
 20
4201.7584432355
 10
6498.9794647369
 20
4201.9473322578
  0
LWPOLYLINE
  5
68C
330
1F
100
AcDbEntity
  8
0
  6
Continuous
 62
     7
100
AcDbPolyline
 90
        3
 70
   128
 43
0.0
 10
6050.2891540527
 20
3771.8609467991
 10
6050.4458195444
 20
3772.0172659503
 10
6050.6688511047
 20
3772.2402707585
  0
LWPOLYLINE
  5
68D
330
1F
100
AcDbEntity
  8
0
  6
Continuous
 62
     7
100
AcDbPolyline
 90
        3
 70
   128
 43
0.0
 10
6497.8179931641
 20
3771.9316379078
 10
6497.6624623573
 20
3772.0879771898
 10
6497.4395042333
 20
3772.3109320649
  0
LWPOLYLINE
  5
68E
330
1F
100
AcDbEntity
  8
0
  6
Continuous
 62
     7
100
AcDbPolyline
 90
       11
 70
   128
 43
0.0
 10
6430.2520751953
 20
4256.8618849762
 10
6430.2545613801
 20
4256.8713777555
 10
6430.2621037158
 20
4256.8808597826
 10
6430.8562422021
 20
4256.9371627581
 10
6439.5343397326
 20
4257.1662673757
 10
6448.1804109138
 20
4257.4014091403
 10
6448.6748925706
 20
4257.4458538905
 10
6448.7046860024
 20
4257.4610016654
 10
6448.7052982787
 20
4257.4660768237
 10
6448.7029152046
 20
4257.4711603069
 10
6448.6931568059
 20
4257.4813411482
  0
LWPOLYLINE
  5
68F
330
1F
100
AcDbEntity
  8
0
  6
Continuous
 62
     7
100
AcDbPolyline
 90
        8
 70
   128
 43
0.0
 10
6448.6045837402
 20
4257.4277640231
 10
6448.6232070181
 20
4257.4122429898
 10
6448.6297522893
 20
4257.3967738895
 10
6448.6202385413
 20
4257.3852373863
 10
6448.5930318526
 20
4257.3737809072
 10
6448.0538750154
 20
4257.306085166
 10
6439.777186768
 20
4256.9388402598
 10
6430.8483829769
 20
4256.450866247
  0
LWPOLYLINE
  5
690
330
1F
100
AcDbEntity
  8
0
  6
Continuous
 62
     7
100
AcDbPolyline
 90
        7
 70
   128
 43
0.0
 10
6448.6045837402
 20
4255.4552898653
 10
6448.6158974049
 20
4255.4400938634
 10
6448.615072506
 20
4255.4325240932
 10
6448.6067470294
 20
4255.4249881997
 10
6447.8566681225
 20
4255.3362912716
 10
6439.5125808415
 20
4254.9759078143
 10
6430.8483829769
 20
4254.4970259913
  0
LWPOLYLINE
  5
691
330
1F
100
AcDbEntity
  8
0
  6
Continuous
 62
     7
100
AcDbPolyline
 90
        7
 70
   128
 43
0.0
 10
6448.6045837402
 20
4253.501442159
 10
6448.6158974049
 20
4253.486246157
 10
6448.615072506
 20
4253.4786763868
 10
6448.6067470294
 20
4253.4711404934
 10
6447.8566681223
 20
4253.3824435658
 10
6439.5125808353
 20
4253.0220603048
 10
6430.8483829769
 20
4252.543178285
  0
LWPOLYLINE
  5
692
330
1F
100
AcDbEntity
  8
0
  6
Continuous
 62
     7
100
AcDbPolyline
 90
        7
 70
   128
 43
0.0
 10
6448.6045837402
 20
4251.5476019033
 10
6448.6158974081
 20
4251.5324019888
 10
6448.6150725137
 20
4251.5248304446
 10
6448.6067470449
 20
4251.517292996
 10
6447.8566682392
 20
4251.4285949776
 10
6439.512580759
 20
4251.0682185044
 10
6430.8483829769
 20
4250.5893305786
  0
LWPOLYLINE
  5
693
330
1F
100
AcDbEntity
  8
0
  6
Continuous
 62
     7
100
AcDbPolyline
 90
        7
 70
   128
 43
0.0
 10
6448.6045837402
 20
4249.593754197
 10
6448.6158974114
 20
4249.5785540979
 10
6448.6150725167
 20
4249.5709825665
 10
6448.6067470455
 20
4249.563445257
 10
6447.8566681171
 20
4249.4747544741
 10
6439.5125806553
 20
4249.1143738344
 10
6430.8483829769
 20
4248.6354828723
  0
LWPOLYLINE
  5
694
330
1F
100
AcDbEntity
  8
0
  6
Continuous
 62
     7
100
AcDbPolyline
 90
        7
 70
   128
 43
0.0
 10
6449.6192932129
 20
4256.0678542503
 10
6449.6001767257
 20
4256.0373752733
 10
6448.8530032091
 20
4255.9479725701
 10
6439.5077756494
 20
4255.5872444939
 10
6430.483648667
 20
4255.2276684969
 10
6429.9107545691
 20
4255.1375212835
 10
6429.8874666962
 20
4255.1072657951
  0
LWPOLYLINE
  5
695
330
1F
100
AcDbEntity
  8
0
  6
Continuous
 62
     7
100
AcDbPolyline
 90
        7
 70
   128
 43
0.0
 10
6449.6192932129
 20
4254.114006544
 10
6449.6001767059
 20
4254.0835326963
 10
6448.8530031809
 20
4253.9941286657
 10
6439.5077754421
 20
4253.6334032984
 10
6430.4836486884
 20
4253.273819921
 10
6429.9107545644
 20
4253.1836737637
 10
6429.8874666962
 20
4253.1534180888
  0
LWPOLYLINE
  5
696
330
1F
100
AcDbEntity
  8
0
  6
Continuous
 62
     7
100
AcDbPolyline
 90
        7
 70
   128
 43
0.0
 10
6449.6192932129
 20
4252.1601588376
 10
6449.6001767035
 20
4252.1296851028
 10
6448.8530032171
 20
4252.0402800111
 10
6439.5077755528
 20
4251.6795557298
 10
6430.4836487273
 20
4251.3199766369
 10
6429.9107545555
 20
4251.2298340318
 10
6429.8874666962
 20
4251.199577833
  0
LWPOLYLINE
  5
697
330
1F
100
AcDbEntity
  8
0
  6
Continuous
 62
     7
100
AcDbPolyline
 90
        7
 70
   128
 43
0.0
 10
6449.6192932129
 20
4250.2063111313
 10
6449.6001767036
 20
4250.1758373943
 10
6448.8530032165
 20
4250.0864323232
 10
6439.5077755287
 20
4249.7257088098
 10
6430.4836487208
 20
4249.3661291519
 10
6429.9107545569
 20
4249.275986278
 10
6429.8874666962
 20
4249.2457301267
  0
LWPOLYLINE
  5
698
330
1F
100
AcDbEntity
  8
0
  6
Continuous
 62
     7
100
AcDbPolyline
 90
        8
 70
   128
 43
0.0
 10
6449.634552002
 20
4256.3285351642
 10
6449.6877284098
 20
4256.2976345781
 10
6449.6868059777
 20
4256.2918754539
 10
6449.6806055018
 20
4256.2861341938
 10
6449.6500655916
 20
4256.2747115087
 10
6449.0349337307
 20
4256.2069482421
 10
6439.7740535022
 20
4255.839697863
 10
6429.7924941453
 20
4255.3517863997
  0
LWPOLYLINE
  5
699
330
1F
100
AcDbEntity
  8
0
  6
Continuous
 62
     7
100
AcDbPolyline
 90
        8
 70
   128
 43
0.0
 10
6449.634552002
 20
4254.3746874579
 10
6449.6877284098
 20
4254.3437868703
 10
6449.6868059778
 20
4254.3380277466
 10
6449.6806055018
 20
4254.3322864873
 10
6449.6500655915
 20
4254.3208638049
 10
6449.03493373
 20
4254.2531005521
 10
6439.7740534317
 20
4253.8858524065
 10
6429.7924941453
 20
4253.3979386934
  0
LWPOLYLINE
  5
69A
330
1F
100
AcDbEntity
  8
0
  6
Continuous
 62
     7
100
AcDbPolyline
 90
        8
 70
   128
 43
0.0
 10
6449.634552002
 20
4252.4208397516
 10
6449.6877284142
 20
4252.3899388805
 10
6449.6868059808
 20
4252.3841798425
 10
6449.6806055024
 20
4252.3784387405
 10
6449.6500655836
 20
4252.3670166108
 10
6449.0349336321
 20
4252.2992592996
 10
6439.7740534522
 20
4251.9320040744
 10
6429.7924941453
 20
4251.444090987
  0
LWPOLYLINE
  5
69B
330
1F
100
AcDbEntity
  8
0
  6
Continuous
 62
     7
100
AcDbPolyline
 90
        8
 70
   128
 43
0.0
 10
6449.634552002
 20
4250.4669920452
 10
6449.6877284148
 20
4250.4360911538
 10
6449.6868059812
 20
4250.430332122
 10
6449.6806055025
 20
4250.4245910312
 10
6449.6500655825
 20
4250.4131689407
 10
6449.0349336254
 20
4250.3454118201
 10
6439.774053482
 20
4249.9781554248
 10
6429.7924941453
 20
4249.4902432807
  0
LWPOLYLINE
  5
69C
330
1F
100
AcDbEntity
  8
0
  6
Continuous
 62
     7
100
AcDbPolyline
 90
        8
 70
   128
 43
0.0
 10
6449.634552002
 20
4248.5131443389
 10
6449.6877284074
 20
4248.4822493691
 10
6449.6868059715
 20
4248.4764911289
 10
6449.6806054899
 20
4248.4707506657
 10
6449.6500655646
 20
4248.4593292756
 10
6449.0349336157
 20
4248.3915667304
 10
6439.774053475
 20
4248.0243078938
 10
6429.7924941453
 20
4247.5363955744
  0
LWPOLYLINE
  5
69D
330
1F
100
AcDbEntity
  8
0
  6
Continuous
 62
     7
100
AcDbPolyline
 90
        8
 70
   128
 43
0.0
 10
6448.5931396484
 20
4256.939236904
 10
6448.6392626863
 20
4256.9089424838
 10
6448.6389998742
 20
4256.9032949923
 10
6448.6343081253
 20
4256.8976643242
 10
6448.6094774832
 20
4256.8864605778
 10
6448.0853543471
 20
4256.8200335406
 10
6440.0548250655
 20
4256.4599354817
 10
6430.9344595346
 20
4255.9816733845
  0
LWPOLYLINE
  5
69E
330
1F
100
AcDbEntity
  8
0
  6
Continuous
 62
     7
100
AcDbPolyline
 90
        8
 70
   128
 43
0.0
 10
6448.5931396484
 20
4254.9853891977
 10
6448.6392626862
 20
4254.9550947782
 10
6448.6389998743
 20
4254.9494472866
 10
6448.6343081258
 20
4254.9438166184
 10
6448.6094774848
 20
4254.9326128714
 10
6448.0853543607
 20
4254.866185831
 10
6440.0548252083
 20
4254.506087432
 10
6430.9344595346
 20
4254.0278331288
  0
LWPOLYLINE
  5
69F
330
1F
100
AcDbEntity
  8
0
  6
Continuous
 62
     7
100
AcDbPolyline
 90
        8
 70
   128
 43
0.0
 10
6448.5931396484
 20
4253.0315414913
 10
6448.6392626868
 20
4253.0012470509
 10
6448.6389998748
 20
4252.9955995648
 10
6448.6343081259
 20
4252.9899689069
 10
6448.6094774837
 20
4252.9787651965
 10
6448.0853543529
 20
4252.9123383608
 10
6440.0548252358
 20
4252.5522389633
 10
6430.9344595346
 20
4252.0739854225
  0
LWPOLYLINE
  5
6A0
330
1F
100
AcDbEntity
  8
0
  6
Continuous
 62
     7
100
AcDbPolyline
 90
        8
 70
   128
 43
0.0
 10
6448.5931396484
 20
4251.0777012356
 10
6448.6392626833
 20
4251.0474070252
 10
6448.638999872
 20
4251.041759479
 10
6448.6343081245
 20
4251.036128708
 10
6448.6094774877
 20
4251.0249245893
 10
6448.08535443
 20
4250.9584925135
 10
6440.0548253608
 20
4250.59839137
 10
6430.9344595346
 20
4250.1201377161
  0
LWPOLYLINE
  5
6A1
330
1F
100
AcDbEntity
  8
0
  6
Continuous
 62
     7
100
AcDbPolyline
 90
        8
 70
   128
 43
0.0
 10
6448.5931396484
 20
4249.1238535293
 10
6448.6392626812
 20
4249.0935594019
 10
6448.6389998704
 20
4249.0879118341
 10
6448.634308124
 20
4249.0822810223
 10
6448.609477491
 20
4249.0710767583
 10
6448.0853544549
 20
4249.0046438699
 10
6440.054825111
 20
4248.6445507885
 10
6430.9344595346
 20
4248.1662900098
  0
LWPOLYLINE
  5
6A2
330
1F
100
AcDbEntity
  8
0
  6
Continuous
 62
     7
100
AcDbPolyline
 90
       11
 70
   128
 43
0.0
 10
6310.3218078613
 20
4256.8618849762
 10
6310.3232964544
 20
4256.8713777664
 10
6310.3308376238
 20
4256.8808598019
 10
6310.9249655397
 20
4256.9371627275
 10
6319.6031014929
 20
4257.1662684899
 10
6328.2491617595
 20
4257.4014107051
 10
6328.7436273672
 20
4257.4458549772
 10
6328.7734202914
 20
4257.4610023311
 10
6328.7740329871
 20
4257.46607733
 10
6328.7716505216
 20
4257.4711606478
 10
6328.7618936553
 20
4257.4813411482
  0
LWPOLYLINE
  5
6A3
330
1F
100
AcDbEntity
  8
0
  6
Continuous
 62
     7
100
AcDbPolyline
 90
        8
 70
   128
 43
0.0
 10
6328.670501709
 20
4257.4277640231
 10
6328.6919400481
 20
4257.4122437389
 10
6328.6984852141
 20
4257.3967753276
 10
6328.6889725448
 20
4257.3852392657
 10
6328.6617682834
 20
4257.3737831358
 10
6328.1226284215
 20
4257.3060877683
 10
6319.8459478964
 20
4256.938841981
 10
6310.9171228531
 20
4256.4508736976
  0
LWPOLYLINE
  5
6A4
330
1F
100
AcDbEntity
  8
0
  6
Continuous
 62
     7
100
AcDbPolyline
 90
        7
 70
   128
 43
0.0
 10
6328.670501709
 20
4255.4552898653
 10
6328.6846303455
 20
4255.4400949799
 10
6328.6838053865
 20
4255.4325257122
 10
6328.6754807259
 20
4255.4249902547
 10
6327.9254225598
 20
4255.3362937172
 10
6319.5813417137
 20
4254.975909507
 10
6310.9171228531
 20
4254.4970259913
  0
LWPOLYLINE
  5
6A5
330
1F
100
AcDbEntity
  8
0
  6
Continuous
 62
     7
100
AcDbPolyline
 90
        7
 70
   128
 43
0.0
 10
6328.670501709
 20
4253.5014496096
 10
6328.68463035
 20
4253.4862507629
 10
6328.6838053954
 20
4253.4786797248
 10
6328.6754807417
 20
4253.471142749
 10
6327.9254226649
 20
4253.3824455467
 10
6319.5813418395
 20
4253.0220619856
 10
6310.9171228531
 20
4252.543178285
  0
LWPOLYLINE
  5
6A6
330
1F
100
AcDbEntity
  8
0
  6
Continuous
 62
     7
100
AcDbPolyline
 90
        7
 70
   128
 43
0.0
 10
6328.670501709
 20
4251.5476019033
 10
6328.6846303487
 20
4251.5324031055
 10
6328.6838053942
 20
4251.524832064
 10
6328.6754807415
 20
4251.5172950513
 10
6327.9254226765
 20
4251.428597423
 10
6319.5813416312
 20
4251.0682201972
 10
6310.9171228531
 20
4250.5893305786
  0
LWPOLYLINE
  5
6A7
330
1F
100
AcDbEntity
  8
0
  6
Continuous
 62
     7
100
AcDbPolyline
 90
        7
 70
   128
 43
0.0
 10
6328.670501709
 20
4249.593754197
 10
6328.684630352
 20
4249.5785552145
 10
6328.6838053972
 20
4249.5709841859
 10
6328.6754807421
 20
4249.5634473123
 10
6327.9254225544
 20
4249.4747569195
 10
6319.5813415275
 20
4249.114375527
 10
6310.9171228531
 20
4248.6354828723
  0
LWPOLYLINE
  5
6A8
330
1F
100
AcDbEntity
  8
0
  6
Continuous
 62
     7
100
AcDbPolyline
 90
        7
 70
   128
 43
0.0
 10
6329.6852111816
 20
4256.0678542503
 10
6329.6689066486
 20
4256.0373753103
 10
6328.9217243921
 20
4255.9479727622
 10
6319.5765083984
 20
4255.5872452013
 10
6310.552383602
 20
4255.2276690824
 10
6309.9794855002
 20
4255.1375211546
 10
6309.9562047097
 20
4255.1072657951
  0
LWPOLYLINE
  5
6A9
330
1F
100
AcDbEntity
  8
0
  6
Continuous
 62
     7
100
AcDbPolyline
 90
        7
 70
   128
 43
0.0
 10
6329.6852111816
 20
4254.114006544
 10
6329.6689066288
 20
4254.0835327332
 10
6328.9217243638
 20
4253.9941288578
 10
6319.5765081911
 20
4253.6334040059
 10
6310.5523836235
 20
4253.2738205065
 10
6309.9794854956
 20
4253.1836736348
 10
6309.9562047097
 20
4253.1534180888
  0
LWPOLYLINE
  5
6AA
330
1F
100
AcDbEntity
  8
0
  6
Continuous
 62
     7
100
AcDbPolyline
 90
        7
 70
   128
 43
0.0
 10
6329.6852111816
 20
4252.1601588376
 10
6329.6689066264
 20
4252.1296851397
 10
6328.9217244
 20
4252.0402802033
 10
6319.5765083018
 20
4251.6795564374
 10
6310.5523836624
 20
4251.3199772223
 10
6309.9794854867
 20
4251.2298339029
 10
6309.9562047097
 20
4251.199577833
  0
LWPOLYLINE
  5
6AB
330
1F
100
AcDbEntity
  8
0
  6
Continuous
 62
     7
100
AcDbPolyline
 90
        7
 70
   128
 43
0.0
 10
6329.6852111816
 20
4250.2063185819
 10
6329.6689066412
 20
4250.1758400652
 10
6328.9217244906
 20
4250.0864314208
 10
6319.5765083958
 20
4249.7257095166
 10
6310.5523836671
 20
4249.3661297384
 10
6309.9794854884
 20
4249.2759861493
 10
6309.9562047097
 20
4249.2457301267
  0
LWPOLYLINE
  5
6AC
330
1F
100
AcDbEntity
  8
0
  6
Continuous
 62
     7
100
AcDbPolyline
 90
        8
 70
   128
 43
0.0
 10
6329.704284668
 20
4256.3285351642
 10
6329.7564586753
 20
4256.2976345856
 10
6329.7555353523
 20
4256.2918754644
 10
6329.7493340386
 20
4256.286134208
 10
6329.7187926308
 20
4256.2747115329
 10
6329.1036557429
 20
4256.2069483657
 10
6319.8427640146
 20
4255.8396979987
 10
6309.8612302962
 20
4255.3517863997
  0
LWPOLYLINE
  5
6AD
330
1F
100
AcDbEntity
  8
0
  6
Continuous
 62
     7
100
AcDbPolyline
 90
        8
 70
   128
 43
0.0
 10
6329.704284668
 20
4254.3746874579
 10
6329.7564586753
 20
4254.3437868779
 10
6329.7555353523
 20
4254.3380277571
 10
6329.7493340386
 20
4254.3322865015
 10
6329.7187926307
 20
4254.3208638292
 10
6329.1036557422
 20
4254.2531006756
 10
6319.842763944
 20
4253.8858525421
 10
6309.8612302962
 20
4253.3979386934
  0
LWPOLYLINE
  5
6AE
330
1F
100
AcDbEntity
  8
0
  6
Continuous
 62
     7
100
AcDbPolyline
 90
        8
 70
   128
 43
0.0
 10
6329.704284668
 20
4252.4208397516
 10
6329.7564586797
 20
4252.3899388881
 10
6329.7555353554
 20
4252.384179853
 10
6329.7493340392
 20
4252.3784387546
 10
6329.7187926227
 20
4252.367016635
 10
6329.1036556443
 20
4252.2992594231
 10
6319.8427639645
 20
4251.9320042101
 10
6309.8612302962
 20
4251.444090987
  0
LWPOLYLINE
  5
6AF
330
1F
100
AcDbEntity
  8
0
  6
Continuous
 62
     7
100
AcDbPolyline
 90
        8
 70
   128
 43
0.0
 10
6329.704284668
 20
4250.4669920452
 10
6329.7564586803
 20
4250.4360911613
 10
6329.7555353558
 20
4250.4303321325
 10
6329.7493340393
 20
4250.4245910454
 10
6329.7187926217
 20
4250.413168965
 10
6329.1036556376
 20
4250.3454119437
 10
6319.8427639944
 20
4249.9781555605
 10
6309.8612302962
 20
4249.4902432807
  0
LWPOLYLINE
  5
6B0
330
1F
100
AcDbEntity
  8
0
  6
Continuous
 62
     7
100
AcDbPolyline
 90
        8
 70
   128
 43
0.0
 10
6329.704284668
 20
4248.5131517895
 10
6329.7564586772
 20
4248.4822511298
 10
6329.7555353534
 20
4248.476492033
 10
6329.7493340383
 20
4248.4707508214
 10
6329.7187926259
 20
4248.4593283018
 10
6329.1036557095
 20
4248.3915658905
 10
6319.8427641052
 20
4248.0243080231
 10
6309.8612302962
 20
4247.5363955744
  0
LWPOLYLINE
  5
6B1
330
1F
100
AcDbEntity
  8
0
  6
Continuous
 62
     7
100
AcDbPolyline
 90
        8
 70
   128
 43
0.0
 10
6328.6628723145
 20
4256.939236904
 10
6328.7079963452
 20
4256.9089440545
 10
6328.7077340967
 20
4256.9032968088
 10
6328.7030432845
 20
4256.8976663616
 10
6328.6782153685
 20
4256.8864629722
 10
6328.1541085261
 20
4256.8200362457
 10
6320.1235868436
 20
4256.4599372509
 10
6311.0031975481
 20
4255.9816808351
  0
LWPOLYLINE
  5
6B2
330
1F
100
AcDbEntity
  8
0
  6
Continuous
 62
     7
100
AcDbPolyline
 90
        8
 70
   128
 43
0.0
 10
6328.6628723145
 20
4254.9853891977
 10
6328.7079963452
 20
4254.9550963486
 10
6328.7077340967
 20
4254.9494491028
 10
6328.7030432845
 20
4254.9438186554
 10
6328.6782153686
 20
4254.9326152653
 10
6328.1541085264
 20
4254.8661885349
 10
6320.1235868565
 20
4254.5060891911
 10
6311.0031975481
 20
4254.0278331288
  0
LWPOLYLINE
  5
6B3
330
1F
100
AcDbEntity
  8
0
  6
Continuous
 62
     7
100
AcDbPolyline
 90
        8
 70
   128
 43
0.0
 10
6328.6628723145
 20
4253.0315414913
 10
6328.7079963459
 20
4253.0012486213
 10
6328.7077340972
 20
4252.995601381
 10
6328.7030432846
 20
4252.9899709438
 10
6328.6782153675
 20
4252.9787675904
 10
6328.1541085186
 20
4252.9123410648
 10
6320.1235868841
 20
4252.5522407224
 10
6311.0031975481
 20
4252.0739854225
  0
LWPOLYLINE
  5
6B4
330
1F
100
AcDbEntity
  8
0
  6
Continuous
 62
     7
100
AcDbPolyline
 90
        8
 70
   128
 43
0.0
 10
6328.6628723145
 20
4251.0777012356
 10
6328.7079963423
 20
4251.0474085956
 10
6328.7077340944
 20
4251.0417612952
 10
6328.7030432832
 20
4251.036130745
 10
6328.6782153715
 20
4251.0249269832
 10
6328.1541085958
 20
4250.9584952176
 10
6320.1235870091
 20
4250.5983931291
 10
6311.0031975481
 20
4250.1201377161
  0
LWPOLYLINE
  5
6B5
330
1F
100
AcDbEntity
  8
0
  6
Continuous
 62
     7
100
AcDbPolyline
 90
        8
 70
   128
 43
0.0
 10
6328.6628723145
 20
4249.1238535293
 10
6328.7079963402
 20
4249.0935609723
 10
6328.7077340928
 20
4249.0879136504
 10
6328.7030432827
 20
4249.0822830594
 10
6328.6782153748
 20
4249.0710791523
 10
6328.1541086207
 20
4249.0046465739
 10
6320.1235867592
 20
4248.6445525477
 10
6311.0031975481
 20
4248.1662900098
  0
LWPOLYLINE
  5
6B6
330
1F
100
AcDbEntity
  8
0
  6
Continuous
 62
     7
100
AcDbPolyline
 90
        3
 70
   128
 43
0.0
 10
6290.9698486328
 20
4197.6609424599
 10
6289.4013621099
 20
4196.2921343594
 10
6288.0195235881
 20
4195.4272658475
  0
LWPOLYLINE
  5
6B7
330
1F
100
AcDbEntity
  8
0
  6
Continuous
 62
     7
100
AcDbPolyline
 90
        3
 70
   128
 43
0.0
 10
6260.0173950195
 20
4195.3527972945
 10
6258.3229519289
 20
4196.5429659301
 10
6257.1110060486
 20
4197.6609424599
  0
LWPOLYLINE
  5
6B8
330
1F
100
AcDbEntity
  8
0
  6
Continuous
 62
     7
100
AcDbPolyline
 90
        3
 70
   128
 43
0.0
 10
6257.0610046387
 20
4197.6609424599
 10
6258.6338943645
 20
4196.2913976611
 10
6260.0195189986
 20
4195.4292663284
  0
LWPOLYLINE
  5
6B9
330
1F
100
AcDbEntity
  8
0
  6
Continuous
 62
     7
100
AcDbPolyline
 90
        5
 70
   128
 43
0.0
 10
6402.2636413574
 20
4195.6609421321
 10
6387.9360030512
 20
4195.4573693472
 10
6379.8243002554
 20
4195.3253369916
 10
6374.1268010597
 20
4195.1946553432
 10
6371.7952301773
 20
4195.0620383867
  0
LWPOLYLINE
  5
6BA
330
1F
100
AcDbEntity
  8
0
  6
Continuous
 62
     7
100
AcDbPolyline
 90
        3
 70
   128
 43
0.0
 10
6383.975982666
 20
4195.6609421321
 10
6374.7548535858
 20
4195.4780376284
 10
6371.8256583485
 20
4195.3333475538
  0
LWPOLYLINE
  5
6BB
330
1F
100
AcDbEntity
  8
0
  6
Continuous
 62
     7
100
AcDbPolyline
 90
        5
 70
   128
 43
0.0
 10
6418.701171875
 20
4195.4280630596
 10
6406.9860024468
 20
4195.0784040986
 10
6392.0673814785
 20
4194.8521665063
 10
6378.7535861309
 20
4194.6260354969
 10
6372.8834880564
 20
4194.4001660593
  0
ARC
  5
6BC
330
1F
100
AcDbEntity
  8
0
  6
Continuous
 62
     7
100
AcDbCircle
 10
6395.0109633174
 20
4124.8891858614
 30
0.0
 40
3.346428438439849
100
AcDbArc
 50
359.9720420088
 51
135.1836626721
  0
LWPOLYLINE
  5
6BD
330
1F
100
AcDbEntity
  8
0
  6
Continuous
 62
     7
100
AcDbPolyline
 90
        4
 70
   128
 43
0.0
 10
6393.3944702148
 20
4122.0027812668
 10
6395.0422180564
 20
4121.5387276684
 10
6396.7022870357
 20
4121.9998929304
 10
6398.3585616621
 20
4124.8875529416
  0
LWPOLYLINE
  5
6BE
330
1F
100
AcDbEntity
  8
0
  6
Continuous
 62
     7
100
AcDbPolyline
 90
        4
 70
   128
 43
0.0
 10
6092.8611755371
 20
4075.2601520069
 10
6093.6265226876
 20
4075.19652541
 10
6095.8953767183
 20
4075.0080071016
 10
6132.7224975499
 20
4071.9206974753
  0
LWPOLYLINE
  5
6BF
330
1F
100
AcDbEntity
  8
0
  6
Continuous
 62
     7
100
AcDbPolyline
 90
        3
 70
   128
 43
0.0
 10
6132.7209472656
 20
4071.9206974753
 10
6129.4694119837
 20
3976.1549624731
 10
6132.7466374311
 20
3900.9292022236
  0
LWPOLYLINE
  5
6C0
330
1F
100
AcDbEntity
  8
0
  6
Continuous
 62
     7
100
AcDbPolyline
 90
        3
 70
   128
 43
0.0
 10
6132.7438354492
 20
3900.9292022236
 10
6148.1568422598
 20
3871.2172293059
 10
6172.864273754
 20
3861.441780711
  0
LWPOLYLINE
  5
6C1
330
1F
100
AcDbEntity
  8
0
  6
Continuous
 62
     7
100
AcDbPolyline
 90
        4
 70
   128
 43
0.0
 10
6170.0553894043
 20
3821.5397790917
 10
6170.1099192682
 20
3822.3054945704
 10
6170.2713633251
 20
3824.5764744345
 10
6172.864273754
 20
3861.441780711
  0
LWPOLYLINE
  5
6C2
330
1F
100
AcDbEntity
  8
0
  6
Continuous
 62
     7
100
AcDbPolyline
 90
        3
 70
   128
 43
0.0
 10
6173.1758117676
 20
4111.7425345727
 10
6143.1396149068
 20
4096.525758302
 10
6132.7224975499
 20
4071.9206974753
  0
LWPOLYLINE
  5
6C3
330
1F
100
AcDbEntity
  8
0
  6
Continuous
 62
     7
100
AcDbPolyline
 90
        3
 70
   128
 43
0.0
 10
6172.8630065918
 20
3861.441780711
 10
6285.8782359062
 20
3857.6393393077
 10
6374.6552882764
 20
3861.4179090508
  0
LWPOLYLINE
  5
6C4
330
1F
100
AcDbEntity
  8
0
  6
Continuous
 62
     7
100
AcDbPolyline
 90
        5
 70
   128
 43
0.0
 10
6454.9674987793
 20
4075.2601445564
 10
6449.4178730425
 20
4074.7988583421
 10
6440.514569443
 20
4074.0571080669
 10
6428.6078972965
 20
4073.0600890913
 10
6415.1090463671
 20
4071.9206974753
  0
LWPOLYLINE
  5
6C5
330
1F
100
AcDbEntity
  8
0
  6
Continuous
 62
     7
100
AcDbPolyline
 90
        3
 70
   128
 43
0.0
 10
6374.6528625488
 20
3861.4179090508
 10
6404.6919201366
 20
3876.6346957485
 10
6415.1090463671
 20
3901.2397424229
  0
LWPOLYLINE
  5
6C6
330
1F
100
AcDbEntity
  8
0
  6
Continuous
 62
     7
100
AcDbPolyline
 90
        4
 70
   128
 43
0.0
 10
6454.9674987793
 20
3897.9003027924
 10
6454.2051951546
 20
3897.9639294922
 10
6451.9362914739
 20
3898.1524499612
 10
6415.1090463671
 20
3901.2397424229
  0
LWPOLYLINE
  5
6C7
330
1F
100
AcDbEntity
  8
0
  6
Continuous
 62
     7
100
AcDbPolyline
 90
        3
 70
   128
 43
0.0
 10
6415.1077270508
 20
3901.2397424229
 10
6418.3637834274
 20
3996.8310592423
 10
6415.1090463671
 20
4071.9206974753
  0
LWPOLYLINE
  5
6C8
330
1F
100
AcDbEntity
  8
0
  6
Continuous
 62
     7
100
AcDbPolyline
 90
        3
 70
   128
 43
0.0
 10
6050.365447998
 20
4245.6833691247
 10
6049.3158810877
 20
4245.006252225
 10
6049.0187263164
 20
4244.0609381445
  0
LWPOLYLINE
  5
6C9
330
1F
100
AcDbEntity
  8
0
  6
Continuous
 62
     7
100
AcDbPolyline
 90
        3
 70
   128
 43
0.0
 10
6092.8611755371
 20
4075.2601520069
 10
6092.5840130274
 20
4075.2834683666
 10
6092.0149689588
 20
4075.3306717523
  0
LWPOLYLINE
  5
6CA
330
1F
100
AcDbEntity
  8
0
  6
Continuous
 62
     7
100
AcDbPolyline
 90
        3
 70
   128
 43
0.0
 10
6170.0553894043
 20
3821.5397790917
 10
6170.0246780938
 20
3821.0975702019
 10
6169.9636733207
 20
3820.2434972771
  0
LWPOLYLINE
  5
6CB
330
1F
100
AcDbEntity
  8
0
  6
Continuous
 62
     7
100
AcDbPolyline
 90
        3
 70
   128
 43
0.0
 10
6454.9674987793
 20
3897.9003027924
 10
6455.3468250949
 20
3897.8687992505
 10
6456.0884093913
 20
3897.8073791512
  0
LWPOLYLINE
  5
6CC
330
1F
100
AcDbEntity
  8
0
  6
Continuous
 62
     7
100
AcDbPolyline
 90
        3
 70
   128
 43
0.0
 10
6454.9674987793
 20
4075.2601445564
 10
6455.322391061
 20
4075.2890411746
 10
6456.0202216777
 20
4075.3470406779
  0
LWPOLYLINE
  5
6CD
330
1F
100
AcDbEntity
  8
0
  6
Continuous
 62
     7
100
AcDbPolyline
 90
        3
 70
   128
 43
0.0
 10
6373.0697631836
 20
4111.8392282077
 10
6325.4718156864
 20
4114.6258484867
 10
6288.0195235881
 20
4115.4267162927
  0
LWPOLYLINE
  5
6CE
330
1F
100
AcDbEntity
  8
0
  6
Continuous
 62
     7
100
AcDbPolyline
 90
        3
 70
   128
 43
0.0
 10
6260.0173950195
 20
4115.4267237433
 10
6211.356188882
 20
4114.0904151484
 10
6173.176259366
 20
4111.7425345727
  0
LWPOLYLINE
  5
6CF
330
1F
100
AcDbEntity
  8
0
  6
Continuous
 62
     7
100
AcDbPolyline
 90
        3
 70
   128
 43
0.0
 10
6415.1077270508
 20
4071.9206974753
 10
6401.8280701581
 20
4099.5595157513
 10
6380.3527062806
 20
4110.8875543722
  0
POINT
  5
6D0
330
1F
100
AcDbEntity
  8
0
  6
Continuous
 62
     7
100
AcDbPoint
 10
6956.3969349364
 20
4914.3699095056
 30
0.0
  0
ENDSEC
  0
SECTION
  2
OBJECTS
  0
DICTIONARY
  5
C
330
0
100
AcDbDictionary
281
     1
  3
ACAD_GROUP
350
D
  3
ACAD_LAYOUT
350
1A
  3
ACAD_MLINESTYLE
350
17
  3
ACAD_PLOTSETTINGS
350
19
  3
ACAD_PLOTSTYLENAME
350
E
  3
ACAD_SCALELIST
350
47
  3
DWGPROPS
350
6D1
  0
DICTIONARY
  5
D
102
{ACAD_REACTORS
330
C
102
}
330
C
100
AcDbDictionary
281
     1
  0
DICTIONARY
  5
1A
102
{ACAD_REACTORS
330
C
102
}
330
C
100
AcDbDictionary
281
     1
  3
Layout1
350
1E
  3
Layout2
350
26
  3
Model
350
22
  0
DICTIONARY
  5
17
102
{ACAD_REACTORS
330
C
102
}
330
C
100
AcDbDictionary
281
     1
  3
Standard
350
18
  0
DICTIONARY
  5
19
102
{ACAD_REACTORS
330
C
102
}
330
C
100
AcDbDictionary
281
     1
  0
ACDBDICTIONARYWDFLT
  5
E
102
{ACAD_REACTORS
330
C
102
}
330
C
100
AcDbDictionary
281
     1
  3
Normal
350
F
100
AcDbDictionaryWithDefault
340
F
  0
DICTIONARY
  5
47
102
{ACAD_REACTORS
330
C
102
}
330
C
100
AcDbDictionary
281
     1
  3
A0
350
48
  3
A1
350
49
  3
A2
350
4A
  3
A3
350
4B
  3
A4
350
4C
  3
A5
350
4D
  3
A6
350
4E
  3
A7
350
4F
  3
A8
350
50
  3
A9
350
51
  3
B0
350
52
  3
B1
350
53
  3
B2
350
54
  3
B3
350
55
  3
B4
350
56
  3
B5
350
57
  3
B6
350
58
  3
B7
350
59
  3
B8
350
5A
  3
B9
350
5B
  3
C0
350
5C
  3
C1
350
5D
  3
C2
350
5E
  3
C3
350
5F
  3
C4
350
60
  3
C5
350
61
  3
C6
350
62
  3
C7
350
63
  3
C8
350
64
  3
C9
350
65
  3
D0
350
66
  3
D1
350
67
  3
D2
350
68
  0
XRECORD
  5
6D1
102
{ACAD_REACTORS
330
C
102
}
330
C
100
AcDbXrecord
280
     1
  1
DWGPROPS COOKIE
  2

  3

  4

  6

  7

  8
radek.stransky
  9

300
=
301
=
302
=
303
=
304
=
305
=
306
=
307
=
308
=
309
=
 40
0.0
 41
2459096.314717512
 42
2459096.314751539
  1

 90
        0
  0
LAYOUT
  5
1E
102
{ACAD_REACTORS
330
1A
102
}
330
1A
100
AcDbPlotSettings
  1

  2
none_device
  4

  6

 40
0.0
 41
0.0
 42
0.0
 43
0.0
 44
0.0
 45
0.0
 46
0.0
 47
0.0
 48
0.0
 49
0.0
140
0.0
141
0.0
142
1.0
143
1.0
 70
   688
 72
     1
 73
     0
 74
     5
  7

 75
    16
147
1.0
148
0.0
149
0.0
100
AcDbLayout
  1
Layout1
 70
     1
 71
     1
 10
0.0
 20
0.0
 11
420.0
 21
297.0
 12
0.0
 22
0.0
 32
0.0
 14
1.0000000000E+20
 24
1.0000000000E+20
 34
1.0000000000E+20
 15
-1.0000000000E+20
 25
-1.0000000000E+20
 35
-1.0000000000E+20
146
0.0
 13
0.0
 23
0.0
 33
0.0
 16
1.0
 26
0.0
 36
0.0
 17
0.0
 27
1.0
 37
0.0
 76
     0
330
1B
  0
LAYOUT
  5
26
102
{ACAD_REACTORS
330
1A
102
}
330
1A
100
AcDbPlotSettings
  1

  2
none_device
  4

  6

 40
0.0
 41
0.0
 42
0.0
 43
0.0
 44
0.0
 45
0.0
 46
0.0
 47
0.0
 48
0.0
 49
0.0
140
0.0
141
0.0
142
1.0
143
1.0
 70
   688
 72
     1
 73
     0
 74
     5
  7

 75
    16
147
1.0
148
0.0
149
0.0
100
AcDbLayout
  1
Layout2
 70
     1
 71
     2
 10
0.0
 20
0.0
 11
0.0
 21
0.0
 12
0.0
 22
0.0
 32
0.0
 14
0.0
 24
0.0
 34
0.0
 15
0.0
 25
0.0
 35
0.0
146
0.0
 13
0.0
 23
0.0
 33
0.0
 16
1.0
 26
0.0
 36
0.0
 17
0.0
 27
1.0
 37
0.0
 76
     0
330
23
  0
LAYOUT
  5
22
102
{ACAD_REACTORS
330
1A
102
}
330
1A
100
AcDbPlotSettings
  1

  2
none_device
  4
ANSI_A_(11.00_x_8.50_Inches)
  6

 40
6.35
 41
19.05
 42
6.35000508
 43
19.05000254
 44
279.4
 45
215.9
 46
-635.735042753
 47
-448.2182264345
 48
0.0
 49
0.0
140
0.0
141
0.0
142
0.0044922859
143
1.0
 70
  1696
 72
     0
 73
     0
 74
     0
  7

 75
     0
147
0.0179189148
148
-1300.4909072572
149
0.0
100
AcDbLayout
  1
Model
 70
     1
 71
     0
 10
0.0
 20
0.0
 11
420.0
 21
297.0
 12
0.0
 22
0.0
 32
0.0
 14
6049.0178918514
 24
3770.6609264859
 34
0.0
 15
7431.3969513276
 25
5643.872078921
 35
0.0
146
0.0
 13
0.0
 23
0.0
 33
0.0
 16
1.0
 26
0.0
 36
0.0
 17
0.0
 27
1.0
 37
0.0
 76
     0
330
1F
331
29
  0
MLINESTYLE
  5
18
102
{ACAD_REACTORS
330
17
102
}
330
17
100
AcDbMlineStyle
  2
Standard
 70
     0
  3

 62
   256
 51
90.0
 52
90.0
 71
     2
 49
0.5
 62
   256
  6
BYLAYER
 49
-0.5
 62
   256
  6
BYLAYER
  0
ACDBPLACEHOLDER
  5
F
102
{ACAD_REACTORS
330
E
102
}
330
E
  0
SCALE
  5
48
102
{ACAD_REACTORS
330
47
102
}
330
47
100
AcDbScale
 70
     0
300
1:1
140
1.0
141
1.0
290
     1
  0
SCALE
  5
49
102
{ACAD_REACTORS
330
47
102
}
330
47
100
AcDbScale
 70
     0
300
1:2
140
1.0
141
2.0
290
     0
  0
SCALE
  5
4A
102
{ACAD_REACTORS
330
47
102
}
330
47
100
AcDbScale
 70
     0
300
1:4
140
1.0
141
4.0
290
     0
  0
SCALE
  5
4B
102
{ACAD_REACTORS
330
47
102
}
330
47
100
AcDbScale
 70
     0
300
1:5
140
1.0
141
5.0
290
     0
  0
SCALE
  5
4C
102
{ACAD_REACTORS
330
47
102
}
330
47
100
AcDbScale
 70
     0
300
1:8
140
1.0
141
8.0
290
     0
  0
SCALE
  5
4D
102
{ACAD_REACTORS
330
47
102
}
330
47
100
AcDbScale
 70
     0
300
1:10
140
1.0
141
10.0
290
     0
  0
SCALE
  5
4E
102
{ACAD_REACTORS
330
47
102
}
330
47
100
AcDbScale
 70
     0
300
1:16
140
1.0
141
16.0
290
     0
  0
SCALE
  5
4F
102
{ACAD_REACTORS
330
47
102
}
330
47
100
AcDbScale
 70
     0
300
1:20
140
1.0
141
20.0
290
     0
  0
SCALE
  5
50
102
{ACAD_REACTORS
330
47
102
}
330
47
100
AcDbScale
 70
     0
300
1:30
140
1.0
141
30.0
290
     0
  0
SCALE
  5
51
102
{ACAD_REACTORS
330
47
102
}
330
47
100
AcDbScale
 70
     0
300
1:40
140
1.0
141
40.0
290
     0
  0
SCALE
  5
52
102
{ACAD_REACTORS
330
47
102
}
330
47
100
AcDbScale
 70
     0
300
1:50
140
1.0
141
50.0
290
     0
  0
SCALE
  5
53
102
{ACAD_REACTORS
330
47
102
}
330
47
100
AcDbScale
 70
     0
300
1:100
140
1.0
141
100.0
290
     0
  0
SCALE
  5
54
102
{ACAD_REACTORS
330
47
102
}
330
47
100
AcDbScale
 70
     0
300
2:1
140
2.0
141
1.0
290
     0
  0
SCALE
  5
55
102
{ACAD_REACTORS
330
47
102
}
330
47
100
AcDbScale
 70
     0
300
4:1
140
4.0
141
1.0
290
     0
  0
SCALE
  5
56
102
{ACAD_REACTORS
330
47
102
}
330
47
100
AcDbScale
 70
     0
300
8:1
140
8.0
141
1.0
290
     0
  0
SCALE
  5
57
102
{ACAD_REACTORS
330
47
102
}
330
47
100
AcDbScale
 70
     0
300
10:1
140
10.0
141
1.0
290
     0
  0
SCALE
  5
58
102
{ACAD_REACTORS
330
47
102
}
330
47
100
AcDbScale
 70
     0
300
100:1
140
100.0
141
1.0
290
     0
  0
SCALE
  5
59
102
{ACAD_REACTORS
330
47
102
}
330
47
100
AcDbScale
 70
     0
300
1/128" = 1'-0"
140
0.0078125
141
12.0
290
     0
  0
SCALE
  5
5A
102
{ACAD_REACTORS
330
47
102
}
330
47
100
AcDbScale
 70
     0
300
1/64" = 1'-0"
140
0.015625
141
12.0
290
     0
  0
SCALE
  5
5B
102
{ACAD_REACTORS
330
47
102
}
330
47
100
AcDbScale
 70
     0
300
1/32" = 1'-0"
140
0.03125
141
12.0
290
     0
  0
SCALE
  5
5C
102
{ACAD_REACTORS
330
47
102
}
330
47
100
AcDbScale
 70
     0
300
1/16" = 1'-0"
140
0.0625
141
12.0
290
     0
  0
SCALE
  5
5D
102
{ACAD_REACTORS
330
47
102
}
330
47
100
AcDbScale
 70
     0
300
3/32" = 1'-0"
140
0.09375
141
12.0
290
     0
  0
SCALE
  5
5E
102
{ACAD_REACTORS
330
47
102
}
330
47
100
AcDbScale
 70
     0
300
1/8" = 1'-0"
140
0.125
141
12.0
290
     0
  0
SCALE
  5
5F
102
{ACAD_REACTORS
330
47
102
}
330
47
100
AcDbScale
 70
     0
300
3/16" = 1'-0"
140
0.1875
141
12.0
290
     0
  0
SCALE
  5
60
102
{ACAD_REACTORS
330
47
102
}
330
47
100
AcDbScale
 70
     0
300
1/4" = 1'-0"
140
0.25
141
12.0
290
     0
  0
SCALE
  5
61
102
{ACAD_REACTORS
330
47
102
}
330
47
100
AcDbScale
 70
     0
300
3/8" = 1'-0"
140
0.375
141
12.0
290
     0
  0
SCALE
  5
62
102
{ACAD_REACTORS
330
47
102
}
330
47
100
AcDbScale
 70
     0
300
1/2" = 1'-0"
140
0.5
141
12.0
290
     0
  0
SCALE
  5
63
102
{ACAD_REACTORS
330
47
102
}
330
47
100
AcDbScale
 70
     0
300
3/4" = 1'-0"
140
0.75
141
12.0
290
     0
  0
SCALE
  5
64
102
{ACAD_REACTORS
330
47
102
}
330
47
100
AcDbScale
 70
     0
300
1" = 1'-0"
140
1.0
141
12.0
290
     0
  0
SCALE
  5
65
102
{ACAD_REACTORS
330
47
102
}
330
47
100
AcDbScale
 70
     0
300
1-1/2" = 1'-0"
140
1.5
141
12.0
290
     0
  0
SCALE
  5
66
102
{ACAD_REACTORS
330
47
102
}
330
47
100
AcDbScale
 70
     0
300
3" = 1'-0"
140
3.0
141
12.0
290
     0
  0
SCALE
  5
67
102
{ACAD_REACTORS
330
47
102
}
330
47
100
AcDbScale
 70
     0
300
6" = 1'-0"
140
6.0
141
12.0
290
     0
  0
SCALE
  5
68
102
{ACAD_REACTORS
330
47
102
}
330
47
100
AcDbScale
 70
     0
300
1'-0" = 1'-0"
140
12.0
141
12.0
290
     0
  0
ENDSEC
  0
EOF
