  0
SECTION
  2
HEADER
  9
$ACADVER
  1
AC1015
  9
$ACADMAINTVER
 70
     6
  9
$DWGCODEPAGE
  3
ANSI_1250
  9
$INSBASE
 10
0.0
 20
0.0
 30
0.0
  9
$EXTMIN
 10
6049.0176911413
 20
3862.9241214944
 30
0.0
  9
$EXTMAX
 10
7425.402678662
 20
5640.8106577116
 30
0.0
  9
$LIMMIN
 10
0.0
 20
0.0
  9
$LIMMAX
 10
420.0
 20
297.0
  9
$ORTHOMODE
 70
     0
  9
$REGENMODE
 70
     1
  9
$FILLMODE
 70
     1
  9
$QTEXTMODE
 70
     0
  9
$MIRRTEXT
 70
     1
  9
$LTSCALE
 40
1.0
  9
$ATTMODE
 70
     1
  9
$TEXTSIZE
 40
3.5
  9
$TRACEWID
 40
1.0
  9
$TEXTSTYLE
  7
Standard
  9
$CLAYER
  8
0
  9
$CELTYPE
  6
ByLayer
  9
$CECOLOR
 62
   256
  9
$CELTSCALE
 40
1.0
  9
$DISPSILH
 70
     0
  9
$DIMSCALE
 40
1.0
  9
$DIMASZ
 40
3.302
  9
$DIMEXO
 40
0.0
  9
$DIMDLI
 40
3.75
  9
$DIMRND
 40
0.0
  9
$DIMDLE
 40
0.0
  9
$DIMEXE
 40
1.0
  9
$DIMTP
 40
0.0
  9
$DIMTM
 40
0.0
  9
$DIMTXT
 40
3.5
  9
$DIMCEN
 40
2.5
  9
$DIMTSZ
 40
0.0
  9
$DIMTOL
 70
     0
  9
$DIMLIM
 70
     0
  9
$DIMTIH
 70
     1
  9
$DIMTOH
 70
     1
  9
$DIMSE1
 70
     0
  9
$DIMSE2
 70
     0
  9
$DIMTAD
 70
     1
  9
$DIMZIN
 70
     0
  9
$DIMBLK
  1

  9
$DIMASO
 70
     1
  9
$DIMSHO
 70
     1
  9
$DIMPOST
  1

  9
$DIMAPOST
  1

  9
$DIMALT
 70
     0
  9
$DIMALTD
 70
     3
  9
$DIMALTF
 40
0.0393700787
  9
$DIMLFAC
 40
1.0
  9
$DIMTOFL
 70
     1
  9
$DIMTVP
 40
0.0
  9
$DIMTIX
 70
     0
  9
$DIMSOXD
 70
     0
  9
$DIMSAH
 70
     0
  9
$DIMBLK1
  1

  9
$DIMBLK2
  1

  9
$DIMSTYLE
  2
ISO-25
  9
$DIMCLRD
 70
     0
  9
$DIMCLRE
 70
     0
  9
$DIMCLRT
 70
     0
  9
$DIMTFAC
 40
1.0
  9
$DIMGAP
 40
1.524
  9
$DIMJUST
 70
     0
  9
$DIMSD1
 70
     0
  9
$DIMSD2
 70
     0
  9
$DIMTOLJ
 70
     0
  9
$DIMTZIN
 70
     0
  9
$DIMALTZ
 70
     0
  9
$DIMALTTZ
 70
     0
  9
$DIMUPT
 70
     0
  9
$DIMDEC
 70
     2
  9
$DIMTDEC
 70
     2
  9
$DIMALTU
 70
     2
  9
$DIMALTTD
 70
     3
  9
$DIMTXSTY
  7
Standard
  9
$DIMAUNIT
 70
     0
  9
$DIMADEC
 70
     2
  9
$DIMALTRND
 40
0.0
  9
$DIMAZIN
 70
     0
  9
$DIMDSEP
 70
    44
  9
$DIMATFIT
 70
     3
  9
$DIMFRAC
 70
     0
  9
$DIMLDRBLK
  1

  9
$DIMLUNIT
 70
     2
  9
$DIMLWD
 70
    -2
  9
$DIMLWE
 70
    -2
  9
$DIMTMOVE
 70
     0
  9
$LUNITS
 70
     2
  9
$LUPREC
 70
     2
  9
$SKETCHINC
 40
1.0
  9
$FILLETRAD
 40
10.0
  9
$AUNITS
 70
     0
  9
$AUPREC
 70
     2
  9
$MENU
  1
.
  9
$ELEVATION
 40
0.0
  9
$PELEVATION
 40
0.0
  9
$THICKNESS
 40
0.0
  9
$LIMCHECK
 70
     0
  9
$CHAMFERA
 40
0.0
  9
$CHAMFERB
 40
0.0
  9
$CHAMFERC
 40
0.0
  9
$CHAMFERD
 40
0.0
  9
$SKPOLY
 70
     0
  9
$TDCREATE
 40
2459096.391530752
  9
$TDUCREATE
 40
2459096.308197419
  9
$TDUPDATE
 40
2459096.391610822
  9
$TDUUPDATE
 40
2459096.308277488
  9
$TDINDWG
 40
0.0000000116
  9
$TDUSRTIMER
 40
0.0000000116
  9
$USRTIMER
 70
     1
  9
$ANGBASE
 50
0.0
  9
$ANGDIR
 70
     0
  9
$PDMODE
 70
     0
  9
$PDSIZE
 40
-1.0
  9
$PLINEWID
 40
0.0
  9
$SPLFRAME
 70
     0
  9
$SPLINETYPE
 70
     6
  9
$SPLINESEGS
 70
     8
  9
$HANDSEED
  5
632
  9
$SURFTAB1
 70
     6
  9
$SURFTAB2
 70
     6
  9
$SURFTYPE
 70
     6
  9
$SURFU
 70
     6
  9
$SURFV
 70
     6
  9
$UCSBASE
  2

  9
$UCSNAME
  2

  9
$UCSORG
 10
0.0
 20
0.0
 30
0.0
  9
$UCSXDIR
 10
1.0
 20
0.0
 30
0.0
  9
$UCSYDIR
 10
0.0
 20
1.0
 30
0.0
  9
$UCSORTHOREF
  2

  9
$UCSORTHOVIEW
 70
     0
  9
$UCSORGTOP
 10
0.0
 20
0.0
 30
0.0
  9
$UCSORGBOTTOM
 10
0.0
 20
0.0
 30
0.0
  9
$UCSORGLEFT
 10
0.0
 20
0.0
 30
0.0
  9
$UCSORGRIGHT
 10
0.0
 20
0.0
 30
0.0
  9
$UCSORGFRONT
 10
0.0
 20
0.0
 30
0.0
  9
$UCSORGBACK
 10
0.0
 20
0.0
 30
0.0
  9
$PUCSBASE
  2

  9
$PUCSNAME
  2

  9
$PUCSORG
 10
0.0
 20
0.0
 30
0.0
  9
$PUCSXDIR
 10
1.0
 20
0.0
 30
0.0
  9
$PUCSYDIR
 10
0.0
 20
1.0
 30
0.0
  9
$PUCSORTHOREF
  2

  9
$PUCSORTHOVIEW
 70
     0
  9
$PUCSORGTOP
 10
0.0
 20
0.0
 30
0.0
  9
$PUCSORGBOTTOM
 10
0.0
 20
0.0
 30
0.0
  9
$PUCSORGLEFT
 10
0.0
 20
0.0
 30
0.0
  9
$PUCSORGRIGHT
 10
0.0
 20
0.0
 30
0.0
  9
$PUCSORGFRONT
 10
0.0
 20
0.0
 30
0.0
  9
$PUCSORGBACK
 10
0.0
 20
0.0
 30
0.0
  9
$USERI1
 70
     0
  9
$USERI2
 70
     0
  9
$USERI3
 70
     0
  9
$USERI4
 70
     0
  9
$USERI5
 70
     0
  9
$USERR1
 40
0.0
  9
$USERR2
 40
0.0
  9
$USERR3
 40
0.0
  9
$USERR4
 40
0.0
  9
$USERR5
 40
0.0
  9
$WORLDVIEW
 70
     1
  9
$SHADEDGE
 70
     3
  9
$SHADEDIF
 70
    70
  9
$TILEMODE
 70
     1
  9
$MAXACTVP
 70
    64
  9
$PINSBASE
 10
0.0
 20
0.0
 30
0.0
  9
$PLIMCHECK
 70
     0
  9
$PEXTMIN
 10
1.0000000000E+20
 20
1.0000000000E+20
 30
1.0000000000E+20
  9
$PEXTMAX
 10
-1.0000000000E+20
 20
-1.0000000000E+20
 30
-1.0000000000E+20
  9
$PLIMMIN
 10
0.0
 20
0.0
  9
$PLIMMAX
 10
420.0
 20
297.0
  9
$UNITMODE
 70
     0
  9
$VISRETAIN
 70
     1
  9
$PLINEGEN
 70
     0
  9
$PSLTSCALE
 70
     1
  9
$TREEDEPTH
 70
  3020
  9
$CMLSTYLE
  2
Standard
  9
$CMLJUST
 70
     0
  9
$CMLSCALE
 40
20.0
  9
$PROXYGRAPHICS
 70
     1
  9
$MEASUREMENT
 70
     1
  9
$CELWEIGHT
370
    -1
  9
$ENDCAPS
280
     0
  9
$JOINSTYLE
280
     0
  9
$LWDISPLAY
290
     1
  9
$INSUNITS
 70
     4
  9
$HYPERLINKBASE
  1

  9
$STYLESHEET
  1

  9
$XEDIT
290
     1
  9
$CEPSNTYPE
380
     0
  9
$PSTYLEMODE
290
     1
  9
$FINGERPRINTGUID
  2
{084f4c76-581e-4920-b2da-164e76b7299b}
  9
$VERSIONGUID
  2
{FAEB1C32-E019-11D5-929B-00C0DF256EC4}
  9
$EXTNAMES
290
     1
  9
$PSVPSCALE
 40
0.0
  9
$OLESTARTUP
290
     0
  0
ENDSEC
  0
SECTION
  2
CLASSES
  0
CLASS
  1
ACDBDICTIONARYWDFLT
  2
AcDbDictionaryWithDefault
  3
ObjectDBX Classes
 90
        0
280
     0
281
     0
  0
CLASS
  1
VISUALSTYLE
  2
AcDbVisualStyle
  3
ObjectDBX Classes
 90
     4095
280
     0
281
     0
  0
CLASS
  1
MATERIAL
  2
AcDbMaterial
  3
ObjectDBX Classes
 90
     1153
280
     0
281
     0
  0
CLASS
  1
SCALE
  2
AcDbScale
  3
ObjectDBX Classes
 90
     1153
280
     0
281
     0
  0
CLASS
  1
TABLESTYLE
  2
AcDbTableStyle
  3
ObjectDBX Classes
 90
     4095
280
     0
281
     0
  0
CLASS
  1
MLEADERSTYLE
  2
AcDbMLeaderStyle
  3
ACDB_MLEADERSTYLE_CLASS
 90
     4095
280
     0
281
     0
  0
CLASS
  1
SUN
  2
AcDbSun
  3
SCENEOE
 90
     1153
280
     0
281
     0
  0
CLASS
  1
ACDBPLACEHOLDER
  2
AcDbPlaceHolder
  3
ObjectDBX Classes
 90
        0
280
     0
281
     0
  0
CLASS
  1
LAYOUT
  2
AcDbLayout
  3
ObjectDBX Classes
 90
        0
280
     0
281
     0
  0
ENDSEC
  0
SECTION
  2
TABLES
  0
TABLE
  2
VPORT
  5
8
330
0
100
AcDbSymbolTable
 70
     1
  0
VPORT
  5
29
330
8
100
AcDbSymbolTableRecord
100
AcDbViewportTableRecord
  2
*Active
 70
     0
 10
0.0
 20
0.0
 11
1.0
 21
1.0
 12
6737.2101849017
 22
4751.867389603
 13
0.0
 23
0.0
 14
10.0
 24
10.0
 15
10.0
 25
10.0
 16
0.0
 26
0.0
 36
1.0
 17
0.0
 27
0.0
 37
0.0
 40
1813.4442669415
 41
0.7741691944
 42
50.0
 43
0.0
 44
0.0
 50
0.0
 51
0.0
 71
     0
 72
   100
 73
     1
 74
     3
 75
     0
 76
     0
 77
     0
 78
     0
281
     0
 65
     1
110
0.0
120
0.0
130
0.0
111
1.0
121
0.0
131
0.0
112
0.0
122
1.0
132
0.0
 79
     0
146
0.0
  0
ENDTAB
  0
TABLE
  2
LTYPE
  5
5
330
0
100
AcDbSymbolTable
 70
     6
  0
LTYPE
  5
14
330
5
100
AcDbSymbolTableRecord
100
AcDbLinetypeTableRecord
  2
ByBlock
 70
     0
  3

 72
    65
 73
     0
 40
0.0
  0
LTYPE
  5
15
330
5
100
AcDbSymbolTableRecord
100
AcDbLinetypeTableRecord
  2
ByLayer
 70
     0
  3

 72
    65
 73
     0
 40
0.0
  0
LTYPE
  5
16
330
5
100
AcDbSymbolTableRecord
100
AcDbLinetypeTableRecord
  2
Continuous
 70
     0
  3
Solid line
 72
    65
 73
     0
 40
0.0
  0
LTYPE
  5
6E
330
5
100
AcDbSymbolTableRecord
100
AcDbLinetypeTableRecord
  2
HIDDEN
 70
     0
  3
Hidden __ __ __ __ __ __ __ __ __ __ __ __ __ __
 72
    65
 73
     2
 40
1.905
 49
1.27
 74
     0
 49
-0.635
 74
     0
  0
LTYPE
  5
6F
330
5
100
AcDbSymbolTableRecord
100
AcDbLinetypeTableRecord
  2
PHANTOM
 70
     0
  3
Phantom ______  __  __  ______  __  __  ______
 72
    65
 73
     6
 40
12.7
 49
6.35
 74
     0
 49
-1.27
 74
     0
 49
1.27
 74
     0
 49
-1.27
 74
     0
 49
1.27
 74
     0
 49
-1.27
 74
     0
  0
LTYPE
  5
70
330
5
100
AcDbSymbolTableRecord
100
AcDbLinetypeTableRecord
  2
CENTER
 70
     0
  3
Center ____ _ ____ _ ____ _ ____ _ ____ _ ____
 72
    65
 73
     4
 40
10.16
 49
6.35
 74
     0
 49
-1.27
 74
     0
 49
1.27
 74
     0
 49
-1.27
 74
     0
  0
LTYPE
  5
71
330
5
100
AcDbSymbolTableRecord
100
AcDbLinetypeTableRecord
  2
CENTERX2
 70
     0
  3
Center (2x) ________  __  ________  __  _____
 72
    65
 73
     4
 40
20.32
 49
12.7
 74
     0
 49
-2.54
 74
     0
 49
2.54
 74
     0
 49
-2.54
 74
     0
  0
LTYPE
  5
72
330
5
100
AcDbSymbolTableRecord
100
AcDbLinetypeTableRecord
  2
DOT2
 70
     0
  3
Dot (.5x) ........................................
 72
    65
 73
     2
 40
0.635
 49
0.0
 74
     0
 49
-0.635
 74
     0
  0
ENDTAB
  0
TABLE
  2
LAYER
  5
2
330
0
100
AcDbSymbolTable
 70
     1
  0
LAYER
  5
10
330
2
100
AcDbSymbolTableRecord
100
AcDbLayerTableRecord
  2
0
 70
     0
 62
     7
  6
Continuous
370
    -3
390
F
  0
ENDTAB
  0
TABLE
  2
STYLE
  5
3
330
0
100
AcDbSymbolTable
 70
     1
  0
STYLE
  5
11
330
3
100
AcDbSymbolTableRecord
100
AcDbTextStyleTableRecord
  2
Standard
 70
     0
 40
0.0
 41
1.0
 50
0.0
 71
     0
 42
3.5
  3
txt
  4

  0
ENDTAB
  0
TABLE
  2
VIEW
  5
6
330
0
100
AcDbSymbolTable
 70
     0
  0
ENDTAB
  0
TABLE
  2
UCS
  5
7
330
0
100
AcDbSymbolTable
 70
     0
  0
ENDTAB
  0
TABLE
  2
APPID
  5
9
330
0
100
AcDbSymbolTable
 70
     1
  0
APPID
  5
12
330
9
100
AcDbSymbolTableRecord
100
AcDbRegAppTableRecord
  2
ACAD
 70
     0
  0
ENDTAB
  0
TABLE
  2
DIMSTYLE
  5
A
330
0
100
AcDbSymbolTable
 70
     1
100
AcDbDimStyleTable
  0
DIMSTYLE
105
27
330
A
100
AcDbSymbolTableRecord
100
AcDbDimStyleTableRecord
  2
ISO-25
 70
     0
 41
2.5
 42
0.625
 43
3.75
 44
1.25
 73
     0
 74
     0
 77
     1
 78
     8
140
2.5
141
2.5
143
0.0393700787
147
0.625
171
     3
172
     1
178
     0
271
     2
272
     2
274
     3
278
    44
283
     0
284
     8
340
11
  0
ENDTAB
  0
TABLE
  2
BLOCK_RECORD
  5
1
330
0
100
AcDbSymbolTable
 70
     1
  0
BLOCK_RECORD
  5
1F
330
1
100
AcDbSymbolTableRecord
100
AcDbBlockTableRecord
  2
*Model_Space
340
22
  0
BLOCK_RECORD
  5
1B
330
1
100
AcDbSymbolTableRecord
100
AcDbBlockTableRecord
  2
*Paper_Space
340
1E
  0
BLOCK_RECORD
  5
23
330
1
100
AcDbSymbolTableRecord
100
AcDbBlockTableRecord
  2
*Paper_Space0
340
26
  0
ENDTAB
  0
ENDSEC
  0
SECTION
  2
BLOCKS
  0
BLOCK
  5
20
330
1F
100
AcDbEntity
  8
0
100
AcDbBlockBegin
  2
*Model_Space
 70
     0
 10
0.0
 20
0.0
 30
0.0
  3
*Model_Space
  1

  0
ENDBLK
  5
21
330
1F
100
AcDbEntity
  8
0
100
AcDbBlockEnd
  0
BLOCK
  5
1C
330
1B
100
AcDbEntity
 67
     1
  8
0
100
AcDbBlockBegin
  2
*Paper_Space
 70
     0
 10
0.0
 20
0.0
 30
0.0
  3
*Paper_Space
  1

  0
ENDBLK
  5
1D
330
1B
100
AcDbEntity
 67
     1
  8
0
100
AcDbBlockEnd
  0
BLOCK
  5
24
330
23
100
AcDbEntity
  8
0
100
AcDbBlockBegin
  2
*Paper_Space0
 70
     0
 10
0.0
 20
0.0
 30
0.0
  3
*Paper_Space0
  1

  0
ENDBLK
  5
25
330
23
100
AcDbEntity
  8
0
100
AcDbBlockEnd
  0
ENDSEC
  0
SECTION
  2
ENTITIES
  0
ARC
  5
73
330
1F
100
AcDbEntity
  8
0
  6
Continuous
 62
     7
100
AcDbCircle
 10
6157.3999560571
 20
4789.520800041
 30
0.0
 40
3.000000000000165
100
AcDbArc
 50
185.8484233171
 51
269.999807545
  0
ARC
  5
74
330
1F
100
AcDbEntity
  8
0
  6
Continuous
 62
     7
100
AcDbCircle
 10
6205.6436089048
 20
4789.520621227
 30
0.0
 40
3.000000000001797
100
AcDbArc
 50
269.9998821605
 51
354.1527210036
  0
ARC
  5
75
330
1F
100
AcDbEntity
  8
0
  6
Continuous
 62
     7
100
AcDbCircle
 10
6274.0193038194
 20
5397.9563612413
 30
0.0
 40
35.48490445815681
100
AcDbArc
 50
87.5772979002
 51
92.4227020998
  0
ARC
  5
76
330
1F
100
AcDbEntity
  8
0
  6
Continuous
 62
     7
100
AcDbCircle
 10
6271.0080459793
 20
5419.4151255461
 30
0.0
 40
13.78443842207274
100
AcDbArc
 50
99.9519153
 51
109.0694581685
  0
ARC
  5
77
330
1F
100
AcDbEntity
  8
0
  6
Continuous
 62
     7
100
AcDbCircle
 10
6265.4555568167
 20
5431.0471848119
 30
0.0
 40
0.6845593080917621
100
AcDbArc
 50
145.4503491763
 51
214.5496508237
  0
ARC
  5
78
330
1F
100
AcDbEntity
  8
0
  6
Continuous
 62
     7
100
AcDbCircle
 10
6268.1043174864
 20
5435.3901200075
 30
0.0
 40
5.033951764740488
100
AcDbArc
 50
237.4899321662
 51
251.4693487278
  0
ARC
  5
79
330
1F
100
AcDbEntity
  8
0
  6
Continuous
 62
     7
100
AcDbCircle
 10
6271.0084713293
 20
5442.6805167147
 30
0.0
 40
13.78579670645905
100
AcDbArc
 50
250.9305900723
 51
260.0472332399
  0
ARC
  5
7A
330
1F
100
AcDbEntity
  8
0
  6
Continuous
 62
     7
100
AcDbCircle
 10
6273.617078036
 20
5458.4350096932
 30
0.0
 40
28.80523584139567
100
AcDbArc
 50
260.7449879161
 51
267.8158910615
  0
ARC
  5
7B
330
1F
100
AcDbEntity
  8
0
  6
Continuous
 62
     7
100
AcDbCircle
 10
6274.0194668652
 20
5464.1351038384
 30
0.0
 40
35.48205453973784
100
AcDbArc
 50
267.576821611
 51
272.4226092048
  0
ARC
  5
7C
330
1F
100
AcDbEntity
  8
0
  6
Continuous
 62
     7
100
AcDbCircle
 10
6274.4216970975
 20
5458.4343446005
 30
0.0
 40
28.804578887452
100
AcDbArc
 50
272.1837808745
 51
279.2548499206
  0
ARC
  5
7D
330
1F
100
AcDbEntity
  8
0
  6
Continuous
 62
     7
100
AcDbCircle
 10
6277.0299949934
 20
5442.6813163497
 30
0.0
 40
13.78663357880264
100
AcDbArc
 50
279.9526426983
 51
289.0687307691
  0
ARC
  5
7E
330
1F
100
AcDbEntity
  8
0
  6
Continuous
 62
     7
100
AcDbCircle
 10
6279.934059919
 20
5435.3905758284
 30
0.0
 40
5.03449359022018
100
AcDbArc
 50
288.5311242897
 51
302.5091444811
  0
ARC
  5
7F
330
1F
100
AcDbEntity
  8
0
  6
Continuous
 62
     7
100
AcDbCircle
 10
6282.5830254164
 20
5431.0471279123
 30
0.0
 40
0.6845694941580128
100
AcDbArc
 50
325.4506613042
 51
34.5487889195
  0
ARC
  5
80
330
1F
100
AcDbEntity
  8
0
  6
Continuous
 62
     7
100
AcDbCircle
 10
6277.0301775767
 20
5419.4140103175
 30
0.0
 40
13.78557325128861
100
AcDbArc
 50
70.9305160286
 51
80.0473072836
  0
ARC
  5
81
330
1F
100
AcDbEntity
  8
0
  6
Continuous
 62
     7
100
AcDbCircle
 10
6274.0193038194
 20
5399.7734898945
 30
0.0
 40
33.53836904448609
100
AcDbArc
 50
87.4365952348
 51
92.5634047652
  0
ARC
  5
82
330
1F
100
AcDbEntity
  8
0
  6
Continuous
 62
     7
100
AcDbCircle
 10
6276.8631922488
 20
5442.9994520689
 30
0.0
 40
13.02417062163571
100
AcDbArc
 50
279.6848209619
 51
289.3357980935
  0
ARC
  5
83
330
1F
100
AcDbEntity
  8
0
  6
Continuous
 62
     7
100
AcDbCircle
 10
6274.0194609057
 20
5463.2824754821
 30
0.0
 40
33.53409807616401
100
AcDbArc
 50
267.4359871301
 51
272.5634436857
  0
ARC
  5
84
330
1F
100
AcDbEntity
  8
0
  6
Continuous
 62
     7
100
AcDbCircle
 10
6271.1760227747
 20
5443.0012185746
 30
0.0
 40
13.02600257913365
100
AcDbArc
 50
250.6641112747
 51
260.3137608524
  0
ARC
  5
85
330
1F
100
AcDbEntity
  8
0
  6
Continuous
 62
     7
100
AcDbCircle
 10
6276.8630218303
 20
5420.0607459725
 30
0.0
 40
13.02422040550397
100
AcDbArc
 50
70.6634495029
 51
80.3144226242
  0
ARC
  5
86
330
1F
100
AcDbEntity
  8
0
  6
Continuous
 62
     7
100
AcDbCircle
 10
6271.1761001588
 20
5420.0584405207
 30
0.0
 40
13.02660953486703
100
AcDbArc
 50
99.6860955244
 51
109.3352779442
  0
ARC
  5
87
330
1F
100
AcDbEntity
  8
0
  6
Continuous
 62
     7
100
AcDbCircle
 10
6282.1126100385
 20
5431.0471351868
 30
0.0
 40
0.6546914555334177
100
AcDbArc
 50
323.6292309703
 51
36.3702192638
  0
ARC
  5
88
330
1F
100
AcDbEntity
  8
0
  6
Continuous
 62
     7
100
AcDbCircle
 10
6265.9259622053
 20
5431.0471797536
 30
0.0
 40
0.6546690359475691
100
AcDbArc
 50
143.6283208285
 51
216.3705795894
  0
ARC
  5
89
330
1F
100
AcDbEntity
  8
0
  6
Continuous
 62
     7
100
AcDbCircle
 10
6276.8624084175
 20
5442.0362090718
 30
0.0
 40
13.0269590544467
100
AcDbArc
 50
279.6862252748
 51
289.3351481887
  0
ARC
  5
8A
330
1F
100
AcDbEntity
  8
0
  6
Continuous
 62
     7
100
AcDbCircle
 10
6271.1755723406
 20
5442.0335403234
 30
0.0
 40
13.02419726171435
100
AcDbArc
 50
250.6634244612
 51
260.314398851
  0
ARC
  5
8B
330
1F
100
AcDbEntity
  8
0
  6
Continuous
 62
     7
100
AcDbCircle
 10
6274.019290781
 20
5462.3206809988
 30
0.0
 40
33.53822997471508
100
AcDbArc
 50
267.4365877836
 51
272.5634122164
  0
CIRCLE
  5
8C
330
1F
100
AcDbEntity
  8
0
  6
Continuous
 62
     7
100
AcDbCircle
 10
6274.0193217146
 20
5439.8100396375
 30
0.0
 40
29.50000000000072
  0
CIRCLE
  5
8D
330
1F
100
AcDbEntity
  8
0
  6
Continuous
 62
     7
100
AcDbCircle
 10
6274.0193217146
 20
5439.8100396375
 30
0.0
 40
30.00000000000044
  0
ARC
  5
8E
330
1F
100
AcDbEntity
  8
0
  6
Continuous
 62
     7
100
AcDbCircle
 10
6274.0193217146
 20
5439.8100396375
 30
0.0
 40
14.00000029286484
100
AcDbArc
 50
200.4422831738
 51
339.5573994716
  0
ARC
  5
8F
330
1F
100
AcDbEntity
  8
0
  6
Continuous
 62
     7
100
AcDbCircle
 10
6274.0193217146
 20
5439.8100396375
 30
0.0
 40
13.00000183880496
100
AcDbArc
 50
339.1744279076
 51
200.8252207651
  0
ARC
  5
90
330
1F
100
AcDbEntity
  8
0
  6
Continuous
 62
     7
100
AcDbCircle
 10
6274.0193217146
 20
5439.8100396375
 30
0.0
 40
14.00000029286484
100
AcDbArc
 50
339.5573994716
 51
200.4422831738
  0
ARC
  5
91
330
1F
100
AcDbEntity
  8
0
  6
Continuous
 62
     7
100
AcDbCircle
 10
6279.8882519618
 20
5435.1928365515
 30
0.0
 40
5.371811389663497
100
AcDbArc
 50
287.8418115017
 51
302.4324640349
  0
ARC
  5
92
330
1F
100
AcDbEntity
  8
0
  6
Continuous
 62
     7
100
AcDbCircle
 10
6274.3184777826
 20
5459.429392527
 30
0.0
 40
30.31824095482216
100
AcDbArc
 50
272.2699034081
 51
278.9864725874
  0
ARC
  5
93
330
1F
100
AcDbEntity
  8
0
  6
Continuous
 62
     7
100
AcDbCircle
 10
6273.7202774599
 20
5459.4298382173
 30
0.0
 40
30.31867828520443
100
AcDbArc
 50
261.0133329405
 51
267.7298008743
  0
ARC
  5
94
330
1F
100
AcDbEntity
  8
0
  6
Continuous
 62
     7
100
AcDbCircle
 10
6268.1502678405
 20
5435.1924857139
 30
0.0
 40
5.371427851173201
100
AcDbArc
 50
237.5658110716
 51
252.1576472376
  0
ARC
  5
95
330
1F
100
AcDbEntity
  8
0
  6
Continuous
 62
     7
100
AcDbCircle
 10
6274.0189522584
 20
5305.3439820492
 30
0.0
 40
19.99999999999982
100
AcDbArc
 50
204.014471728
 51
335.9851544008
  0
ARC
  5
96
330
1F
100
AcDbEntity
  8
0
  6
Continuous
 62
     7
100
AcDbCircle
 10
6274.0189522584
 20
5305.3439820492
 30
0.0
 40
20.00000168053379
100
AcDbArc
 50
24.014531331
 51
155.9851923916
  0
ARC
  5
97
330
1F
100
AcDbEntity
  8
0
  6
Continuous
 62
     7
100
AcDbCircle
 10
6050.6685391249
 20
5156.9445972726
 30
0.0
 40
1.650000000000238
100
AcDbArc
 50
179.9998415461
 51
255.8587313124
  0
ARC
  5
98
330
1F
100
AcDbEntity
  8
0
  6
Continuous
 62
     7
100
AcDbCircle
 10
6497.3685385995
 20
5156.9433619049
 30
0.0
 40
1.650000000000743
100
AcDbArc
 50
284.140951781
 51
323.7650382005
  0
ARC
  5
99
330
1F
100
AcDbEntity
  8
0
  6
Continuous
 62
     7
100
AcDbCircle
 10
6497.3685385995
 20
5156.9433619049
 30
0.0
 40
0.4499994762571915
100
AcDbArc
 50
269.9998415461
 51
0.0012775205
  0
ARC
  5
9A
330
1F
100
AcDbEntity
  8
0
  6
Continuous
 62
     7
100
AcDbCircle
 10
6050.6685392632
 20
5156.9945972726
 30
0.0
 40
0.4500000000006295
100
AcDbArc
 50
179.9998415454
 51
215.1820422169
  0
ARC
  5
9B
330
1F
100
AcDbEntity
  8
0
  6
Continuous
 62
     7
100
AcDbCircle
 10
6050.6685256063
 20
5156.9946025189
 30
0.0
 40
1.65000000000241
100
AcDbArc
 50
180.0000134851
 51
260.9592937397
  0
ARC
  5
9C
330
1F
100
AcDbEntity
  8
0
  6
Continuous
 62
     7
100
AcDbCircle
 10
6050.6686448154
 20
5193.694588207
 30
0.0
 40
1.649999999999184
100
AcDbArc
 50
89.9998062646
 51
179.9991588532
  0
ARC
  5
9D
330
1F
100
AcDbEntity
  8
0
  6
Continuous
 62
     7
100
AcDbCircle
 10
6050.6686448154
 20
5193.694588207
 30
0.0
 40
0.4500065611663162
100
AcDbArc
 50
90.0003580694
 51
179.9986873166
  0
ARC
  5
9E
330
1F
100
AcDbEntity
  8
0
  6
Continuous
 62
     7
100
AcDbCircle
 10
6497.3686423837
 20
5193.6933619047
 30
0.0
 40
0.4500000000004346
100
AcDbArc
 50
359.9998507894
 51
90.0000486768
  0
ARC
  5
9F
330
1F
100
AcDbEntity
  8
0
  6
Continuous
 62
     7
100
AcDbCircle
 10
6497.3686423837
 20
5193.6933619047
 30
0.0
 40
1.650004407102149
100
AcDbArc
 50
359.9999593063
 51
90.0000057956
  0
ARC
  5
A0
330
1F
100
AcDbEntity
  8
0
  6
Continuous
 62
     7
100
AcDbCircle
 10
6978.179339978
 20
4874.5206994282
 30
0.0
 40
20.00000000000201
100
AcDbArc
 50
270.0001478465
 51
286.4904956762
  0
ARC
  5
A1
330
1F
100
AcDbEntity
  8
0
  6
Continuous
 62
     7
100
AcDbCircle
 10
6977.8067414456
 20
5305.3439610367
 30
0.0
 40
28.00000000000106
100
AcDbArc
 50
314.4153229178
 51
345.3248713689
  0
ARC
  5
A2
330
1F
100
AcDbEntity
  8
0
  6
Continuous
 62
     7
100
AcDbCircle
 10
6977.8067435068
 20
5305.3439902705
 30
0.0
 40
28.00000000000159
100
AcDbArc
 50
14.6731066718
 51
45.5846829871
  0
ARC
  5
A3
330
1F
100
AcDbEntity
  8
0
  6
Continuous
 62
     7
100
AcDbCircle
 10
6995.3526642258
 20
5195.2946032751
 30
0.0
 40
0.5000000000001174
100
AcDbArc
 50
0.0007376602
 51
90.0001161205
  0
ARC
  5
A4
330
1F
100
AcDbEntity
  8
0
  6
Continuous
 62
     7
100
AcDbCircle
 10
7423.7526786621
 20
5156.9933641986
 30
0.0
 40
1.650000000001578
100
AcDbArc
 50
279.0401241539
 51
359.9995219983
  0
ARC
  5
A5
330
1F
100
AcDbEntity
  8
0
  6
Continuous
 62
     7
100
AcDbCircle
 10
7423.7526786622
 20
5193.694588207
 30
0.0
 40
1.649999999999974
100
AcDbArc
 50
0.0008411469
 51
90.0001937354
  0
ARC
  5
A6
330
1F
100
AcDbEntity
  8
0
  6
Continuous
 62
     7
100
AcDbCircle
 10
7423.752658349
 20
5193.6945972724
 30
0.0
 40
0.4500000000004493
100
AcDbArc
 50
0.0019299588
 51
89.9992491395
  0
ARC
  5
A7
330
1F
100
AcDbEntity
  8
0
  6
Continuous
 62
     7
100
AcDbCircle
 10
7423.7526583487
 20
5193.6933619047
 30
0.0
 40
0.4500000000004347
100
AcDbArc
 50
359.9998507842
 51
89.9992491072
  0
ARC
  5
A8
330
1F
100
AcDbEntity
  8
0
  6
Continuous
 62
     7
100
AcDbCircle
 10
6181.5224002
 20
4155.1474147376
 30
0.0
 40
15.00000000000106
100
AcDbArc
 50
174.2245575395
 51
204.2608383235
  0
ARC
  5
A9
330
1F
100
AcDbEntity
  8
0
  6
Continuous
 62
     7
100
AcDbCircle
 10
6181.5222927334
 20
4155.147466411
 30
0.0
 40
15.00000000000029
100
AcDbArc
 50
241.9953932651
 51
298.0056937734
  0
ARC
  5
AA
330
1F
100
AcDbEntity
  8
0
  6
Continuous
 62
     7
100
AcDbCircle
 10
6181.5221857977
 20
4155.1474095381
 30
0.0
 40
14.99999999999903
100
AcDbArc
 50
335.7396181004
 51
28.0047783393
  0
ARC
  5
AB
330
1F
100
AcDbEntity
  8
0
  6
Continuous
 62
     7
100
AcDbCircle
 10
6181.5221857977
 20
4155.1474095381
 30
0.0
 40
15.00000000000033
100
AcDbArc
 50
61.9938435868
 51
84.2599342752
  0
ARC
  5
AC
330
1F
100
AcDbEntity
  8
0
  6
Continuous
 62
     7
100
AcDbCircle
 10
6181.5224002
 20
4155.1474147376
 30
0.0
 40
14.99999581243069
100
AcDbArc
 50
95.7392408759
 51
118.0050804912
  0
ARC
  5
AD
330
1F
100
AcDbEntity
  8
0
  6
Continuous
 62
     7
100
AcDbCircle
 10
6181.5224002
 20
4155.1474147376
 30
0.0
 40
15.00000000000154
100
AcDbArc
 50
151.994670689
 51
174.2245575395
  0
ARC
  5
AE
330
1F
100
AcDbEntity
  8
0
  6
Continuous
 62
     7
100
AcDbCircle
 10
6181.5221857977
 20
4155.1474095381
 30
0.0
 40
15.00000000000182
100
AcDbArc
 50
269.9999999252
 51
298.0061564131
  0
ARC
  5
AF
330
1F
100
AcDbEntity
  8
0
  6
Continuous
 62
     7
100
AcDbCircle
 10
6181.5221857977
 20
4155.1474095381
 30
0.0
 40
14.99999999999903
100
AcDbArc
 50
335.7396181004
 51
28.0047783393
  0
ARC
  5
B0
330
1F
100
AcDbEntity
  8
0
  6
Continuous
 62
     7
100
AcDbCircle
 10
6181.5221857977
 20
4155.1474095381
 30
0.0
 40
15.00000000000033
100
AcDbArc
 50
61.9938435868
 51
84.2599342752
  0
ARC
  5
B1
330
1F
100
AcDbEntity
  8
0
  6
Continuous
 62
     7
100
AcDbCircle
 10
6181.5224552086
 20
4155.1474095381
 30
0.0
 40
5.250000000001203
100
AcDbArc
 50
98.2132107017
 51
261.7867892983
  0
ARC
  5
B2
330
1F
100
AcDbEntity
  8
0
  6
Continuous
 62
     7
100
AcDbCircle
 10
6181.5224552086
 20
4155.1474095381
 30
0.0
 40
5.250000000000553
100
AcDbArc
 50
278.2132107017
 51
81.7867892983
  0
ARC
  5
B3
330
1F
100
AcDbEntity
  8
0
  6
Continuous
 62
     7
100
AcDbCircle
 10
6181.5224552086
 20
4155.1474095381
 30
0.0
 40
5.250000967952831
100
AcDbArc
 50
179.9998415461
 51
269.9999788726
  0
ARC
  5
B4
330
1F
100
AcDbEntity
  8
0
  6
Continuous
 62
     7
100
AcDbCircle
 10
6181.5224552086
 20
4155.1474095381
 30
0.0
 40
5.250000967952541
100
AcDbArc
 50
90.0000211274
 51
179.9998415461
  0
ARC
  5
B5
330
1F
100
AcDbEntity
  8
0
  6
Continuous
 62
     7
100
AcDbCircle
 10
6181.5224552086
 20
4155.1474095381
 30
0.0
 40
5.250000000001203
100
AcDbArc
 50
81.7867892983
 51
98.2132107017
  0
ARC
  5
B6
330
1F
100
AcDbEntity
  8
0
  6
Continuous
 62
     7
100
AcDbCircle
 10
6181.5224552086
 20
4155.1474095381
 30
0.0
 40
5.250000000000303
100
AcDbArc
 50
261.7867892983
 51
278.2132107017
  0
CIRCLE
  5
B7
330
1F
100
AcDbEntity
  8
0
  6
Continuous
 62
     7
100
AcDbCircle
 10
6181.5224924975
 20
4155.1474095381
 30
0.0
 40
35.0
  0
ARC
  5
B8
330
1F
100
AcDbEntity
  8
0
  6
Continuous
 62
     7
100
AcDbCircle
 10
6181.5224924975
 20
4155.1474095381
 30
0.0
 40
35.00000096795071
100
AcDbArc
 50
179.9998415461
 51
269.9999967561
  0
ARC
  5
B9
330
1F
100
AcDbEntity
  8
0
  6
Continuous
 62
     7
100
AcDbCircle
 10
6181.5224924975
 20
4155.1474095381
 30
0.0
 40
35.00000096794989
100
AcDbArc
 50
90.0000030943
 51
179.9998415461
  0
CIRCLE
  5
BA
330
1F
100
AcDbEntity
  8
0
  6
Continuous
 62
     7
100
AcDbCircle
 10
6181.5224924975
 20
4155.1474095381
 30
0.0
 40
24.5
  0
CIRCLE
  5
BB
330
1F
100
AcDbEntity
  8
0
  6
Continuous
 62
     7
100
AcDbCircle
 10
6181.5224924975
 20
4155.1474095381
 30
0.0
 40
22.49999446889979
  0
ARC
  5
BC
330
1F
100
AcDbEntity
  8
0
  6
Continuous
 62
     7
100
AcDbCircle
 10
6181.5224707244
 20
4155.1474110531
 30
0.0
 40
22.5
100
AcDbArc
 50
269.9999999252
 51
89.9999999252
  0
CIRCLE
  5
BD
330
1F
100
AcDbEntity
  8
0
  6
Continuous
 62
     7
100
AcDbCircle
 10
6181.5224552086
 20
4155.1474095381
 30
0.0
 40
21.50000339079816
  0
CIRCLE
  5
BE
330
1F
100
AcDbEntity
  8
0
  6
Continuous
 62
     7
100
AcDbCircle
 10
6181.5224552086
 20
4155.1474095381
 30
0.0
 40
19.55298904895881
  0
CIRCLE
  5
BF
330
1F
100
AcDbEntity
  8
0
  6
Continuous
 62
     7
100
AcDbCircle
 10
6181.5224552086
 20
4155.1474095381
 30
0.0
 40
6.182049931964684
  0
ARC
  5
C0
330
1F
100
AcDbEntity
  8
0
  6
Continuous
 62
     7
100
AcDbCircle
 10
6181.5224552086
 20
4155.1474095381
 30
0.0
 40
19.50000085272974
100
AcDbArc
 50
166.949695641
 51
193.050304359
  0
ARC
  5
C1
330
1F
100
AcDbEntity
  8
0
  6
Continuous
 62
     7
100
AcDbCircle
 10
6166.4227854626
 20
4151.647409538
 30
0.0
 40
3.999999999905857
100
AcDbArc
 50
193.050304939
 51
13.050304939
  0
ARC
  5
C2
330
1F
100
AcDbEntity
  8
0
  6
Continuous
 62
     7
100
AcDbCircle
 10
6181.5224552086
 20
4155.1474095381
 30
0.0
 40
11.5000008529873
100
AcDbArc
 50
166.9496960456
 51
193.0503039555
  0
ARC
  5
C3
330
1F
100
AcDbEntity
  8
0
  6
Continuous
 62
     7
100
AcDbCircle
 10
6166.4227854626
 20
4158.6474095381
 30
0.0
 40
4.000000000000173
100
AcDbArc
 50
346.9496950594
 51
166.9496950594
  0
ARC
  5
C4
330
1F
100
AcDbEntity
  8
0
  6
Continuous
 62
     7
100
AcDbCircle
 10
6181.5224552086
 20
4155.1474095381
 30
0.0
 40
19.50000009887618
100
AcDbArc
 50
256.9496925544
 51
283.0503024333
  0
ARC
  5
C5
330
1F
100
AcDbEntity
  8
0
  6
Continuous
 62
     7
100
AcDbCircle
 10
6185.0224544
 20
4140.0477403786
 30
0.0
 40
4.00000000000086
100
AcDbArc
 50
283.0503049397
 51
103.0503049397
  0
ARC
  5
C6
330
1F
100
AcDbEntity
  8
0
  6
Continuous
 62
     7
100
AcDbCircle
 10
6181.5224552086
 20
4155.1474095381
 30
0.0
 40
11.50000009887489
100
AcDbArc
 50
256.9496908111
 51
283.0503006898
  0
ARC
  5
C7
330
1F
100
AcDbEntity
  8
0
  6
Continuous
 62
     7
100
AcDbCircle
 10
6178.0224543554
 20
4140.0477407638
 30
0.0
 40
4.000000000000719
100
AcDbArc
 50
76.9496950604
 51
256.9496950604
  0
ARC
  5
C8
330
1F
100
AcDbEntity
  8
0
  6
Continuous
 62
     7
100
AcDbCircle
 10
6181.5224552086
 20
4155.1474095381
 30
0.0
 40
19.49999914697242
100
AcDbArc
 50
346.9496944792
 51
13.0503055208
  0
ARC
  5
C9
330
1F
100
AcDbEntity
  8
0
  6
Continuous
 62
     7
100
AcDbCircle
 10
6196.6221232035
 20
4158.6474095382
 30
0.0
 40
3.999999999979947
100
AcDbArc
 50
13.0503049389
 51
193.0503049389
  0
ARC
  5
CA
330
1F
100
AcDbEntity
  8
0
  6
Continuous
 62
     7
100
AcDbCircle
 10
6181.5224552086
 20
4155.1474095381
 30
0.0
 40
11.49999914701362
100
AcDbArc
 50
346.9496940755
 51
13.0503059257
  0
ARC
  5
CB
330
1F
100
AcDbEntity
  8
0
  6
Continuous
 62
     7
100
AcDbCircle
 10
6196.6221232035
 20
4151.6474095381
 30
0.0
 40
4.000000000000378
100
AcDbArc
 50
166.9496950594
 51
346.9496950594
  0
ARC
  5
CC
330
1F
100
AcDbEntity
  8
0
  6
Continuous
 62
     7
100
AcDbCircle
 10
6181.5224552086
 20
4155.1474095381
 30
0.0
 40
19.50000135827086
100
AcDbArc
 50
76.9496975666
 51
103.0503074457
  0
ARC
  5
CD
330
1F
100
AcDbEntity
  8
0
  6
Continuous
 62
     7
100
AcDbCircle
 10
6178.022454071
 20
4170.2470795393
 30
0.0
 40
3.999999999969738
100
AcDbArc
 50
103.0503049391
 51
283.0503049391
  0
ARC
  5
CE
330
1F
100
AcDbEntity
  8
0
  6
Continuous
 62
     7
100
AcDbCircle
 10
6181.5224552086
 20
4155.1474095381
 30
0.0
 40
11.50000135833249
100
AcDbArc
 50
76.94969931
 51
103.0503091894
  0
ARC
  5
CF
330
1F
100
AcDbEntity
  8
0
  6
Continuous
 62
     7
100
AcDbCircle
 10
6185.0224546844
 20
4170.2470799245
 30
0.0
 40
3.999999999969837
100
AcDbArc
 50
256.9496950604
 51
76.9496950604
  0
ARC
  5
D0
330
1F
100
AcDbEntity
  8
0
  6
Continuous
 62
     7
100
AcDbCircle
 10
6166.4227854626
 20
4158.6474095381
 30
0.0
 40
4.000000000000173
100
AcDbArc
 50
346.9496950594
 51
90.0000276549
  0
ARC
  5
D1
330
1F
100
AcDbEntity
  8
0
  6
Continuous
 62
     7
100
AcDbCircle
 10
6166.4227854626
 20
4151.647409538
 30
0.0
 40
3.999999999904974
100
AcDbArc
 50
269.9999721961
 51
13.050304939
  0
ARC
  5
D2
330
1F
100
AcDbEntity
  8
0
  6
Continuous
 62
     7
100
AcDbCircle
 10
6181.5224552086
 20
4155.1474095381
 30
0.0
 40
11.5000008529873
100
AcDbArc
 50
166.9496960456
 51
193.0503039555
  0
CIRCLE
  5
D3
330
1F
100
AcDbEntity
  8
0
  6
Continuous
 62
     7
100
AcDbCircle
 10
6181.5224552086
 20
4155.1474095381
 30
0.0
 40
5.682049561464737
  0
ARC
  5
D4
330
1F
100
AcDbEntity
  8
0
  6
Continuous
 62
     7
100
AcDbCircle
 10
6181.5224707244
 20
4155.1474110531
 30
0.0
 40
19.49999637887283
100
AcDbArc
 50
76.9497409731
 51
90.0001415246
  0
ARC
  5
D5
330
1F
100
AcDbEntity
  8
0
  6
Continuous
 62
     7
100
AcDbCircle
 10
6181.5224552086
 20
4155.1474095381
 30
0.0
 40
19.50000009887618
100
AcDbArc
 50
269.9999917394
 51
283.0503024333
  0
ARC
  5
D6
330
1F
100
AcDbEntity
  8
0
  6
Continuous
 62
     7
100
AcDbCircle
 10
6181.5224552086
 20
4155.1474095381
 30
0.0
 40
11.50000135833249
100
AcDbArc
 50
90.0001626732
 51
103.0503091894
  0
ARC
  5
D7
330
1F
100
AcDbEntity
  8
0
  6
Continuous
 62
     7
100
AcDbCircle
 10
6181.5224552086
 20
4155.1474095381
 30
0.0
 40
11.50000009887489
100
AcDbArc
 50
256.9496908111
 51
269.9999859929
  0
ARC
  5
D8
330
1F
100
AcDbEntity
  8
0
  6
Continuous
 62
     7
100
AcDbCircle
 10
6185.0224546844
 20
4170.2470799245
 30
0.0
 40
3.999999999969548
100
AcDbArc
 50
269.9999721955
 51
76.9496950604
  0
ARC
  5
D9
330
1F
100
AcDbEntity
  8
0
  6
Continuous
 62
     7
100
AcDbCircle
 10
6185.0224544
 20
4140.0477403786
 30
0.0
 40
4.000000000000654
100
AcDbArc
 50
283.0503049397
 51
90.0000276548
  0
ARC
  5
DA
330
1F
100
AcDbEntity
  8
0
  6
Continuous
 62
     7
100
AcDbCircle
 10
6196.6221232035
 20
4158.6474095382
 30
0.0
 40
3.999999999987733
100
AcDbArc
 50
13.0503049389
 51
90.0000276548
  0
ARC
  5
DB
330
1F
100
AcDbEntity
  8
0
  6
Continuous
 62
     7
100
AcDbCircle
 10
6196.6221232035
 20
4151.6474095381
 30
0.0
 40
4.000000000000471
100
AcDbArc
 50
269.9999721955
 51
346.9496950594
  0
ARC
  5
DC
330
1F
100
AcDbEntity
  8
0
  6
Continuous
 62
     7
100
AcDbCircle
 10
6181.5224552086
 20
4155.1474095381
 30
0.0
 40
19.49999914697242
100
AcDbArc
 50
346.9496944792
 51
13.0503055208
  0
ARC
  5
DD
330
1F
100
AcDbEntity
  8
0
  6
Continuous
 62
     7
100
AcDbCircle
 10
6051.0177050374
 20
3864.9241359102
 30
0.0
 40
2.000000000000074
100
AcDbArc
 50
190.0786581091
 51
203.5781784788
  0
ARC
  5
DE
330
1F
100
AcDbEntity
  8
0
  6
Continuous
 62
     7
100
AcDbCircle
 10
6051.0185347001
 20
3864.9241359102
 30
0.0
 40
2.000000000000379
100
AcDbArc
 50
190.0786581091
 51
203.5781784787
  0
ARC
  5
DF
330
1F
100
AcDbEntity
  8
0
  6
Continuous
 62
     7
100
AcDbCircle
 10
6051.0185347001
 20
3864.9241359102
 30
0.0
 40
1.000000000000563
100
AcDbArc
 50
200.4873151155
 51
233.1301023543
  0
ARC
  5
E0
330
1F
100
AcDbEntity
  8
0
  6
Continuous
 62
     7
100
AcDbCircle
 10
6497.018534388
 20
3864.9241355663
 30
0.0
 40
0.9999998280445104
100
AcDbArc
 50
269.9524816101
 51
317.9286852554
  0
ARC
  5
E1
330
1F
100
AcDbEntity
  8
0
  6
Continuous
 62
     7
100
AcDbCircle
 10
6497.018534388
 20
3864.9241355663
 30
0.0
 40
0.9999998280445104
100
AcDbArc
 50
270.0000177867
 51
317.9286852554
  0
ARC
  5
E2
330
1F
100
AcDbEntity
  8
0
  6
Continuous
 62
     7
100
AcDbCircle
 10
6497.018534388
 20
3864.9241355663
 30
0.0
 40
1.999999732531729
100
AcDbArc
 50
270.0000088933
 51
293.5783332021
  0
ARC
  5
E3
330
1F
100
AcDbEntity
  8
0
  6
Continuous
 62
     7
100
AcDbCircle
 10
7232.3088332074
 20
4078.8434413558
 30
0.0
 40
1142.892858560847
100
AcDbArc
 50
175.549804541
 51
184.4540947921
  0
ARC
  5
E4
330
1F
100
AcDbEntity
  8
0
  6
Continuous
 62
     7
100
AcDbCircle
 10
6175.5186370793
 20
3996.5241353095
 30
0.0
 40
82.90135539657993
100
AcDbArc
 50
184.4540934917
 51
266.2216176841
  0
ARC
  5
E5
330
1F
100
AcDbEntity
  8
0
  6
Continuous
 62
     7
100
AcDbCircle
 10
6176.5229008414
 20
4160.1474092837
 30
0.0
 40
83.98580246229464
100
AcDbArc
 50
94.3632816554
 51
174.9615857871
  0
ARC
  5
E6
330
1F
100
AcDbEntity
  8
0
  6
Continuous
 62
     7
100
AcDbCircle
 10
6273.9159770502
 20
5273.9684235527
 30
0.0
 40
1364.125000566735
100
AcDbArc
 50
265.6334480791
 51
274.3632827604
  0
ARC
  5
E7
330
1F
100
AcDbEntity
  8
0
  6
Continuous
 62
     7
100
AcDbCircle
 10
6273.9159676306
 20
2883.7184235528
 30
0.0
 40
1364.125000000005
100
AcDbArc
 50
90.5836950065
 51
94.3632824481
  0
ARC
  5
E8
330
1F
100
AcDbEntity
  8
0
  6
Continuous
 62
     7
100
AcDbCircle
 10
6273.9160140153
 20
2883.7184200136
 30
0.0
 40
1364.125000000005
100
AcDbArc
 50
85.6367187879
 51
89.4076243844
  0
ARC
  5
E9
330
1F
100
AcDbEntity
  8
0
  6
Continuous
 62
     7
100
AcDbCircle
 10
6371.3090486787
 20
3997.5394352385
 30
0.0
 40
83.9858000850464
100
AcDbArc
 50
274.3632835697
 51
354.9615858456
  0
ARC
  5
EA
330
1F
100
AcDbEntity
  8
0
  6
Continuous
 62
     7
100
AcDbCircle
 10
6371.3090483496
 20
4160.1474110634
 30
0.0
 40
83.9857996280189
100
AcDbArc
 50
5.038408062
 51
85.6367160669
  0
ARC
  5
EB
330
1F
100
AcDbEntity
  8
0
  6
Continuous
 62
     7
100
AcDbCircle
 10
5315.5231189257
 20
4078.8434186829
 30
0.0
 40
1142.892854783448
100
AcDbArc
 50
355.5498037608
 51
4.4501962392
  0
ARC
  5
EC
330
1F
100
AcDbEntity
  8
0
  6
Continuous
 62
     7
100
AcDbCircle
 10
6371.3087553617
 20
4160.1474081726
 30
0.0
 40
83.98580228785136
100
AcDbArc
 50
5.0384098818
 51
85.6367182071
  0
ARC
  5
ED
330
1F
100
AcDbEntity
  8
0
  6
Continuous
 62
     7
100
AcDbCircle
 10
6371.3087556907
 20
3997.5394381293
 30
0.0
 40
83.9858027448787
100
AcDbArc
 50
274.3632814293
 51
354.9615840258
  0
ARC
  5
EE
330
1F
100
AcDbEntity
  8
0
  6
Continuous
 62
     7
100
AcDbCircle
 10
5315.5228230127
 20
4078.8434186829
 30
0.0
 40
1142.892860107647
100
AcDbArc
 50
355.5498037816
 51
4.4501962184
  0
CIRCLE
  5
EF
330
1F
100
AcDbEntity
  8
0
  6
Continuous
 62
     7
100
AcDbCircle
 10
6181.5224924975
 20
4155.1474095381
 30
0.0
 40
37.50000337727215
  0
ARC
  5
F0
330
1F
100
AcDbEntity
  8
0
  6
Continuous
 62
     7
100
AcDbCircle
 10
6050.6686448156
 20
4336.3241387321
 30
0.0
 40
1.649999999999973
100
AcDbArc
 50
89.9998062705
 51
180.0001937295
  0
ARC
  5
F1
330
1F
100
AcDbEntity
  8
0
  6
Continuous
 62
     7
100
AcDbCircle
 10
6497.3686465645
 20
4336.3241387321
 30
0.0
 40
1.650000000000555
100
AcDbArc
 50
0.000060464
 51
90.0001509724
  0
ARC
  5
F2
330
1F
100
AcDbEntity
  8
0
  6
Continuous
 62
     7
100
AcDbCircle
 10
6050.6698870239
 20
4336.2741448035
 30
0.0
 40
0.4500000000005793
100
AcDbArc
 50
121.5411954856
 51
180.0015911389
  0
ARC
  5
F3
330
1F
100
AcDbEntity
  8
0
  6
Continuous
 62
     7
100
AcDbCircle
 10
6050.6698667108
 20
4336.2741378857
 30
0.0
 40
1.649999999999973
100
AcDbArc
 50
89.9998062704
 51
180.0001937295
  0
ARC
  5
F4
330
1F
100
AcDbEntity
  8
0
  6
Continuous
 62
     7
100
AcDbCircle
 10
6050.6686448156
 20
4336.2741378857
 30
0.0
 40
1.650000000000883
100
AcDbArc
 50
89.9998062705
 51
180.0001937295
  0
ARC
  5
F5
330
1F
100
AcDbEntity
  8
0
  6
Continuous
 62
     7
100
AcDbCircle
 10
6497.369869691
 20
4336.2741378857
 30
0.0
 40
1.650000000000883
100
AcDbArc
 50
359.9998062699
 51
89.9996762896
  0
ARC
  5
F6
330
1F
100
AcDbEntity
  8
0
  6
Continuous
 62
     7
100
AcDbCircle
 10
6497.369879888
 20
4336.2733340995
 30
0.0
 40
0.4500000000002375
100
AcDbArc
 50
0.1016309446
 51
57.0648721817
  0
ARC
  5
F7
330
1F
100
AcDbEntity
  8
0
  6
Continuous
 62
     7
100
AcDbCircle
 10
6497.3686423837
 20
4336.274138638
 30
0.0
 40
0.4500000000007592
100
AcDbArc
 50
359.9991938782
 51
56.8769366389
  0
ARC
  5
F8
330
1F
100
AcDbEntity
  8
0
  6
Continuous
 62
     7
100
AcDbCircle
 10
6050.6686448156
 20
4294.5741360975
 30
0.0
 40
1.649999999999973
100
AcDbArc
 50
180.000064987
 51
270.0001937292
  0
ARC
  5
F9
330
1F
100
AcDbEntity
  8
0
  6
Continuous
 62
     7
100
AcDbCircle
 10
6274.0186453201
 20
5273.6491359102
 30
0.0
 40
1365.125000000023
100
AcDbArc
 50
265.6336630093
 51
274.3632828071
  0
ARC
  5
FA
330
1F
100
AcDbEntity
  8
0
  6
Continuous
 62
     7
100
AcDbCircle
 10
6371.4117190625
 20
3997.2201492751
 30
0.0
 40
84.98580103166957
100
AcDbArc
 50
274.3632828039
 51
354.9650587449
  0
ARC
  5
FB
330
1F
100
AcDbEntity
  8
0
  6
Continuous
 62
     7
100
AcDbCircle
 10
5315.6257881796
 20
4078.5241358838
 30
0.0
 40
1143.892857142868
100
AcDbArc
 50
355.5495473974
 51
4.4504526026
  0
ARC
  5
FC
330
1F
100
AcDbEntity
  8
0
  6
Continuous
 62
     7
100
AcDbCircle
 10
6371.4117190578
 20
4159.8281225458
 30
0.0
 40
84.98580103164828
100
AcDbArc
 50
5.0349412193
 51
85.6367171927
  0
ARC
  5
FD
330
1F
100
AcDbEntity
  8
0
  6
Continuous
 62
     7
100
AcDbCircle
 10
6274.0186453227
 20
2883.3991359272
 30
0.0
 40
1365.125000000098
100
AcDbArc
 50
90.5875771347
 51
94.3632828071
  0
ARC
  5
FE
330
1F
100
AcDbEntity
  8
0
  6
Continuous
 62
     7
100
AcDbCircle
 10
6274.0186453227
 20
2883.3991359272
 30
0.0
 40
1365.124999983051
100
AcDbArc
 50
85.6367171929
 51
89.4123661106
  0
ARC
  5
FF
330
1F
100
AcDbEntity
  8
0
  6
Continuous
 62
     7
100
AcDbCircle
 10
6176.6255715806
 20
4159.8281225623
 30
0.0
 40
84.98580103174191
100
AcDbArc
 50
94.3632828039
 51
174.9650587502
  0
ARC
  5
100
330
1F
100
AcDbEntity
  8
0
  6
Continuous
 62
     7
100
AcDbCircle
 10
7232.411502462
 20
4078.5241359367
 30
0.0
 40
1143.892857142919
100
AcDbArc
 50
175.549547397
 51
184.4540939364
  0
ARC
  5
101
330
1F
100
AcDbEntity
  8
0
  6
Continuous
 62
     7
100
AcDbCircle
 10
6175.6213058144
 20
3996.2048476175
 30
0.0
 40
83.9013548373931
100
AcDbArc
 50
184.4540939376
 51
266.2181040993
  0
ARC
  5
102
330
1F
100
AcDbEntity
  8
0
  6
Continuous
 62
     7
100
AcDbCircle
 10
6274.0186453201
 20
5273.6491359102
 30
0.0
 40
1365.125000000023
100
AcDbArc
 50
269.9999997859
 51
274.3632828071
  0
ARC
  5
103
330
1F
100
AcDbEntity
  8
0
  6
Continuous
 62
     7
100
AcDbCircle
 10
6274.0186453227
 20
2883.3991359272
 30
0.0
 40
1365.124999983051
100
AcDbArc
 50
85.6367171929
 51
89.4123661106
  0
ARC
  5
104
330
1F
100
AcDbEntity
  8
0
  6
Continuous
 62
     7
100
AcDbCircle
 10
6371.4117190578
 20
4159.8281225458
 30
0.0
 40
84.98580103164828
100
AcDbArc
 50
5.0349412193
 51
85.6367171927
  0
ARC
  5
105
330
1F
100
AcDbEntity
  8
0
  6
Continuous
 62
     7
100
AcDbCircle
 10
6371.4117190625
 20
3997.2201492751
 30
0.0
 40
84.98580103166957
100
AcDbArc
 50
274.3632828039
 51
354.9650587449
  0
ARC
  5
106
330
1F
100
AcDbEntity
  8
0
  6
Continuous
 62
     7
100
AcDbCircle
 10
5315.6257881796
 20
4078.5241358838
 30
0.0
 40
1143.892857142868
100
AcDbArc
 50
355.5495473974
 51
4.4504526026
  0
ARC
  5
107
330
1F
100
AcDbEntity
  8
0
  6
Continuous
 62
     7
100
AcDbCircle
 10
6273.9156885831
 20
5273.9684235525
 30
0.0
 40
1364.125000000007
100
AcDbArc
 50
269.9999999252
 51
274.3632824485
  0
ARC
  5
108
330
1F
100
AcDbEntity
  8
0
  6
Continuous
 62
     7
100
AcDbCircle
 10
6273.9156717176
 20
2883.7184235528
 30
0.0
 40
1364.125000000006
100
AcDbArc
 50
85.636716834
 51
89.4076100065
  0
LINE
  5
109
330
1F
100
AcDbEntity
  8
0
  6
Continuous
 62
     7
100
AcDbLine
 10
6147.6424719154
 20
4855.3443164098
 30
0.0
 11
6154.4155712186
 21
4789.2151087987
 31
0.0
  0
LINE
  5
10A
330
1F
100
AcDbEntity
  8
0
  6
Continuous
 62
     7
100
AcDbLine
 10
6208.627999848
 20
4789.2149895894
 30
0.0
 11
6215.4014716803
 21
4855.3441375959
 31
0.0
  0
LINE
  5
10B
330
1F
100
AcDbEntity
  8
0
  6
Continuous
 62
     7
100
AcDbLine
 10
6272.4286253511
 20
5425.9007037151
 30
0.0
 11
6272.5192840158
 21
5425.8100450504
 31
0.0
  0
LINE
  5
10C
330
1F
100
AcDbEntity
  8
0
  6
Continuous
 62
     7
100
AcDbLine
 10
6275.5192826449
 20
5425.8100301492
 30
0.0
 11
6275.6099413096
 21
5425.9006888139
 31
0.0
  0
LINE
  5
10D
330
1F
100
AcDbEntity
  8
0
  6
Continuous
 62
     7
100
AcDbLine
 10
6264.7693018376
 20
5431.6508830059
 30
0.0
 11
6264.769294387
 21
5431.0471773612
 31
0.0
  0
LINE
  5
10E
330
1F
100
AcDbEntity
  8
0
  6
Continuous
 62
     7
100
AcDbLine
 10
6283.2692983507
 20
5431.0471326578
 30
0.0
 11
6283.2692983507
 21
5431.6508383024
 31
0.0
  0
LINE
  5
10F
330
1F
100
AcDbEntity
  8
0
  6
Continuous
 62
     7
100
AcDbLine
 10
6281.5192985295
 20
5432.0130557287
 30
0.0
 11
6281.5193022548
 21
5432.43924384
 31
0.0
  0
LINE
  5
110
330
1F
100
AcDbEntity
  8
0
  6
Continuous
 62
     7
100
AcDbLine
 10
6266.5193016588
 20
5432.4392885435
 30
0.0
 11
6266.5193016588
 21
5432.0131004322
 31
0.0
  0
LINE
  5
111
330
1F
100
AcDbEntity
  8
0
  6
Continuous
 62
     7
100
AcDbLine
 10
6275.6692814587
 20
5425.9051740634
 30
0.0
 11
6275.6692814587
 21
5425.9076029527
 31
0.0
  0
LINE
  5
112
330
1F
100
AcDbEntity
  8
0
  6
Continuous
 62
     7
100
AcDbLine
 10
6497.665860778
 20
5640.8094209152
 30
0.0
 11
6050.3737862169
 21
5640.8106577116
 31
0.0
  0
LINE
  5
113
330
1F
100
AcDbEntity
  8
0
  6
Continuous
 62
     7
100
AcDbLine
 10
6157.3999459802
 20
4786.520800041
 30
0.0
 11
6157.5758243858
 21
4786.520800041
 31
0.0
  0
LINE
  5
114
330
1F
100
AcDbEntity
  8
0
  6
Continuous
 62
     7
100
AcDbLine
 10
6157.5758243858
 20
4786.520800041
 30
0.0
 11
6158.1008966028
 21
4786.520800041
 31
0.0
  0
LINE
  5
115
330
1F
100
AcDbEntity
  8
0
  6
Continuous
 62
     7
100
AcDbLine
 10
6158.1008966028
 20
4786.520800041
 30
0.0
 11
6158.967473632
 21
4786.520800041
 31
0.0
  0
LINE
  5
116
330
1F
100
AcDbEntity
  8
0
  6
Continuous
 62
     7
100
AcDbLine
 10
6158.967473632
 20
4786.520800041
 30
0.0
 11
6160.1629639922
 21
4786.520800041
 31
0.0
  0
LINE
  5
117
330
1F
100
AcDbEntity
  8
0
  6
Continuous
 62
     7
100
AcDbLine
 10
6160.1629639922
 20
4786.520800041
 30
0.0
 11
6161.6699035226
 21
4786.5207404363
 31
0.0
  0
LINE
  5
118
330
1F
100
AcDbEntity
  8
0
  6
Continuous
 62
     7
100
AcDbLine
 10
6161.6699035226
 20
4786.5207404363
 30
0.0
 11
6163.4663279115
 21
4786.5207404363
 31
0.0
  0
LINE
  5
119
330
1F
100
AcDbEntity
  8
0
  6
Continuous
 62
     7
100
AcDbLine
 10
6163.4663279115
 20
4786.5207404363
 30
0.0
 11
6165.5260558187
 21
4786.5207404363
 31
0.0
  0
LINE
  5
11A
330
1F
100
AcDbEntity
  8
0
  6
Continuous
 62
     7
100
AcDbLine
 10
6165.5260558187
 20
4786.5207404363
 30
0.0
 11
6167.8190167009
 21
4786.5207404363
 31
0.0
  0
LINE
  5
11B
330
1F
100
AcDbEntity
  8
0
  6
Continuous
 62
     7
100
AcDbLine
 10
6167.8190167009
 20
4786.5207404363
 30
0.0
 11
6170.3118021547
 21
4786.5207404363
 31
0.0
  0
LINE
  5
11C
330
1F
100
AcDbEntity
  8
0
  6
Continuous
 62
     7
100
AcDbLine
 10
6170.3118021547
 20
4786.5207404363
 30
0.0
 11
6172.9680682479
 21
4786.5207404363
 31
0.0
  0
LINE
  5
11D
330
1F
100
AcDbEntity
  8
0
  6
Continuous
 62
     7
100
AcDbLine
 10
6172.9680682479
 20
4786.5207404363
 30
0.0
 11
6175.7490421592
 21
4786.5207404363
 31
0.0
  0
LINE
  5
11E
330
1F
100
AcDbEntity
  8
0
  6
Continuous
 62
     7
100
AcDbLine
 10
6175.7490421592
 20
4786.5207404363
 30
0.0
 11
6178.6142225324
 21
4786.5207404363
 31
0.0
  0
LINE
  5
11F
330
1F
100
AcDbEntity
  8
0
  6
Continuous
 62
     7
100
AcDbLine
 10
6178.6142225324
 20
4786.5207404363
 30
0.0
 11
6181.521781808
 21
4786.5207404363
 31
0.0
  0
LINE
  5
120
330
1F
100
AcDbEntity
  8
0
  6
Continuous
 62
     7
100
AcDbLine
 10
6181.521781808
 20
4786.5207404363
 30
0.0
 11
6184.4293410837
 21
4786.5206808317
 31
0.0
  0
LINE
  5
121
330
1F
100
AcDbEntity
  8
0
  6
Continuous
 62
     7
100
AcDbLine
 10
6184.4293410837
 20
4786.5206808317
 30
0.0
 11
6187.2945065557
 21
4786.5206808317
 31
0.0
  0
LINE
  5
122
330
1F
100
AcDbEntity
  8
0
  6
Continuous
 62
     7
100
AcDbLine
 10
6187.2945065557
 20
4786.5206808317
 30
0.0
 11
6190.0754953681
 21
4786.5206808317
 31
0.0
  0
LINE
  5
123
330
1F
100
AcDbEntity
  8
0
  6
Continuous
 62
     7
100
AcDbLine
 10
6190.0754953681
 20
4786.5206808317
 30
0.0
 11
6192.7317465602
 21
4786.5206808317
 31
0.0
  0
LINE
  5
124
330
1F
100
AcDbEntity
  8
0
  6
Continuous
 62
     7
100
AcDbLine
 10
6192.7317465602
 20
4786.5206808317
 30
0.0
 11
6195.2245469152
 21
4786.5206808317
 31
0.0
  0
LINE
  5
125
330
1F
100
AcDbEntity
  8
0
  6
Continuous
 62
     7
100
AcDbLine
 10
6195.2245469152
 20
4786.5206808317
 30
0.0
 11
6197.5175077974
 21
4786.5206808317
 31
0.0
  0
LINE
  5
126
330
1F
100
AcDbEntity
  8
0
  6
Continuous
 62
     7
100
AcDbLine
 10
6197.5175077974
 20
4786.5206808317
 30
0.0
 11
6199.5772208034
 21
4786.5206808317
 31
0.0
  0
LINE
  5
127
330
1F
100
AcDbEntity
  8
0
  6
Continuous
 62
     7
100
AcDbLine
 10
6199.5772208034
 20
4786.5206808317
 30
0.0
 11
6201.3736600934
 21
4786.5206808317
 31
0.0
  0
LINE
  5
128
330
1F
100
AcDbEntity
  8
0
  6
Continuous
 62
     7
100
AcDbLine
 10
6201.3736600934
 20
4786.5206808317
 30
0.0
 11
6202.8805996238
 21
4786.5206808317
 31
0.0
  0
LINE
  5
129
330
1F
100
AcDbEntity
  8
0
  6
Continuous
 62
     7
100
AcDbLine
 10
6202.8805996238
 20
4786.5206808317
 30
0.0
 11
6204.0760750829
 21
4786.5206808317
 31
0.0
  0
LINE
  5
12A
330
1F
100
AcDbEntity
  8
0
  6
Continuous
 62
     7
100
AcDbLine
 10
6204.0760750829
 20
4786.5206808317
 30
0.0
 11
6204.9426670133
 21
4786.520621227
 31
0.0
  0
LINE
  5
12B
330
1F
100
AcDbEntity
  8
0
  6
Continuous
 62
     7
100
AcDbLine
 10
6204.9426670133
 20
4786.520621227
 30
0.0
 11
6205.4677392303
 21
4786.520621227
 31
0.0
  0
LINE
  5
12C
330
1F
100
AcDbEntity
  8
0
  6
Continuous
 62
     7
100
AcDbLine
 10
6205.4677392303
 20
4786.520621227
 30
0.0
 11
6205.6436027347
 21
4786.520621227
 31
0.0
  0
LINE
  5
12D
330
1F
100
AcDbEntity
  8
0
  6
Continuous
 62
     7
100
AcDbLine
 10
6275.5192826449
 20
5425.8100301492
 30
0.0
 11
6275.5174274503
 21
5425.8100301492
 31
0.0
  0
LINE
  5
12E
330
1F
100
AcDbEntity
  8
0
  6
Continuous
 62
     7
100
AcDbLine
 10
6275.5174274503
 20
5425.8100301492
 30
0.0
 11
6275.3748382388
 21
5425.8100301492
 31
0.0
  0
LINE
  5
12F
330
1F
100
AcDbEntity
  8
0
  6
Continuous
 62
     7
100
AcDbLine
 10
6275.3748382388
 20
5425.8100301492
 30
0.0
 11
6275.0258753954
 21
5425.8100301492
 31
0.0
  0
LINE
  5
130
330
1F
100
AcDbEntity
  8
0
  6
Continuous
 62
     7
100
AcDbLine
 10
6275.0258753954
 20
5425.8100301492
 30
0.0
 11
6274.5236727356
 21
5425.8100450504
 31
0.0
  0
LINE
  5
131
330
1F
100
AcDbEntity
  8
0
  6
Continuous
 62
     7
100
AcDbLine
 10
6274.5236727356
 20
5425.8100450504
 30
0.0
 11
6273.9446769415
 21
5425.8100450504
 31
0.0
  0
LINE
  5
132
330
1F
100
AcDbEntity
  8
0
  6
Continuous
 62
     7
100
AcDbLine
 10
6273.9446769415
 20
5425.8100450504
 30
0.0
 11
6273.3770432829
 21
5425.8100450504
 31
0.0
  0
LINE
  5
133
330
1F
100
AcDbEntity
  8
0
  6
Continuous
 62
     7
100
AcDbLine
 10
6273.3770432829
 20
5425.8100450504
 30
0.0
 11
6272.9071798681
 21
5425.8100450504
 31
0.0
  0
LINE
  5
134
330
1F
100
AcDbEntity
  8
0
  6
Continuous
 62
     7
100
AcDbLine
 10
6272.9071798681
 20
5425.8100450504
 30
0.0
 11
6272.6066271721
 21
5425.8100450504
 31
0.0
  0
LINE
  5
135
330
1F
100
AcDbEntity
  8
0
  6
Continuous
 62
     7
100
AcDbLine
 10
6272.6066271721
 20
5425.8100450504
 30
0.0
 11
6272.5192840158
 21
5425.8100450504
 31
0.0
  0
LINE
  5
136
330
1F
100
AcDbEntity
  8
0
  6
Continuous
 62
     7
100
AcDbLine
 10
6275.5193049966
 20
5433.573326515
 30
0.0
 11
6275.5193049966
 21
5433.4095478523
 31
0.0
  0
LINE
  5
137
330
1F
100
AcDbEntity
  8
0
  6
Continuous
 62
     7
100
AcDbLine
 10
6272.5193026422
 20
5433.5733414161
 30
0.0
 11
6272.5193026422
 21
5433.4095478523
 31
0.0
  0
LINE
  5
138
330
1F
100
AcDbEntity
  8
0
  6
Continuous
 62
     7
100
AcDbLine
 10
6268.6257968603
 20
5433.1881165969
 30
0.0
 11
6268.6257968603
 21
5432.9921514261
 31
0.0
  0
LINE
  5
139
330
1F
100
AcDbEntity
  8
0
  6
Continuous
 62
     7
100
AcDbLine
 10
6266.5044750034
 20
5432.7053040731
 30
0.0
 11
6266.5044750034
 21
5432.4431181419
 31
0.0
  0
LINE
  5
13A
330
1F
100
AcDbEntity
  8
0
  6
Continuous
 62
     7
100
AcDbLine
 10
6264.8917297779
 20
5432.0225924718
 30
0.0
 11
6264.8917297779
 21
5431.435412215
 31
0.0
  0
LINE
  5
13B
330
1F
100
AcDbEntity
  8
0
  6
Continuous
 62
     7
100
AcDbLine
 10
6266.5044675528
 20
5430.6171596515
 30
0.0
 11
6266.5044675528
 21
5429.6512365806
 31
0.0
  0
LINE
  5
13C
330
1F
100
AcDbEntity
  8
0
  6
Continuous
 62
     7
100
AcDbLine
 10
6281.5341214596
 20
5430.617114948
 30
0.0
 11
6281.5341177343
 21
5429.6511918771
 31
0.0
  0
LINE
  5
13D
330
1F
100
AcDbEntity
  8
0
  6
Continuous
 62
     7
100
AcDbLine
 10
6283.146866685
 20
5432.0225477683
 30
0.0
 11
6283.146866685
 21
5431.4353526103
 31
0.0
  0
LINE
  5
13E
330
1F
100
AcDbEntity
  8
0
  6
Continuous
 62
     7
100
AcDbLine
 10
6281.5341289102
 20
5432.7052593696
 30
0.0
 11
6281.5341251849
 21
5432.4430734384
 31
0.0
  0
LINE
  5
13F
330
1F
100
AcDbEntity
  8
0
  6
Continuous
 62
     7
100
AcDbLine
 10
6279.4128070532
 20
5433.1880867946
 30
0.0
 11
6279.4128070532
 21
5432.9921216237
 31
0.0
  0
LINE
  5
140
330
1F
100
AcDbEntity
  8
0
  6
Continuous
 62
     7
100
AcDbLine
 10
6272.5193026422
 20
5433.4095478523
 30
0.0
 11
6272.5193026422
 21
5433.2782984245
 31
0.0
  0
LINE
  5
141
330
1F
100
AcDbEntity
  8
0
  6
Continuous
 62
     7
100
AcDbLine
 10
6275.5193049966
 20
5433.4095478523
 30
0.0
 11
6275.5193049966
 21
5433.2782984245
 31
0.0
  0
LINE
  5
142
330
1F
100
AcDbEntity
  8
0
  6
Continuous
 62
     7
100
AcDbLine
 10
6282.2693000494
 20
5432.0130557287
 30
0.0
 11
6282.0890146254
 21
5431.5691203344
 31
0.0
  0
LINE
  5
143
330
1F
100
AcDbEntity
  8
0
  6
Continuous
 62
     7
100
AcDbLine
 10
6282.0890146254
 20
5431.5691203344
 30
0.0
 11
6281.5560485183
 21
5431.1445713508
 31
0.0
  0
LINE
  5
144
330
1F
100
AcDbEntity
  8
0
  6
Continuous
 62
     7
100
AcDbLine
 10
6281.5560485183
 20
5431.1445713508
 30
0.0
 11
6280.6936847924
 21
5430.757990526
 31
0.0
  0
LINE
  5
145
330
1F
100
AcDbEntity
  8
0
  6
Continuous
 62
     7
100
AcDbLine
 10
6280.6936847924
 20
5430.757990526
 30
0.0
 11
6279.5396233856
 21
5430.4262608755
 31
0.0
  0
LINE
  5
146
330
1F
100
AcDbEntity
  8
0
  6
Continuous
 62
     7
100
AcDbLine
 10
6279.5396233856
 20
5430.4262608755
 30
0.0
 11
6278.1442935525
 21
5430.1638812292
 31
0.0
  0
LINE
  5
147
330
1F
100
AcDbEntity
  8
0
  6
Continuous
 62
     7
100
AcDbLine
 10
6278.1442935525
 20
5430.1638812292
 30
0.0
 11
6276.5686857461
 21
5429.9823254812
 31
0.0
  0
LINE
  5
148
330
1F
100
AcDbEntity
  8
0
  6
Continuous
 62
     7
100
AcDbLine
 10
6276.5686857461
 20
5429.9823254812
 30
0.0
 11
6274.8816545068
 21
5429.8895210493
 31
0.0
  0
LINE
  5
149
330
1F
100
AcDbEntity
  8
0
  6
Continuous
 62
     7
100
AcDbLine
 10
6274.8816545068
 20
5429.8895210493
 30
0.0
 11
6273.1569345056
 21
5429.8895210493
 31
0.0
  0
LINE
  5
14A
330
1F
100
AcDbEntity
  8
0
  6
Continuous
 62
     7
100
AcDbLine
 10
6273.1569345056
 20
5429.8895210493
 30
0.0
 11
6271.4699032663
 21
5429.9823403823
 31
0.0
  0
LINE
  5
14B
330
1F
100
AcDbEntity
  8
0
  6
Continuous
 62
     7
100
AcDbLine
 10
6271.4699032663
 20
5429.9823403823
 30
0.0
 11
6269.8942954599
 21
5430.1639110315
 31
0.0
  0
LINE
  5
14C
330
1F
100
AcDbEntity
  8
0
  6
Continuous
 62
     7
100
AcDbLine
 10
6269.8942954599
 20
5430.1639110315
 30
0.0
 11
6268.4989656268
 21
5430.4262906778
 31
0.0
  0
LINE
  5
14D
330
1F
100
AcDbEntity
  8
0
  6
Continuous
 62
     7
100
AcDbLine
 10
6268.4989656268
 20
5430.4262906778
 30
0.0
 11
6267.3449079453
 21
5430.7580352294
 31
0.0
  0
LINE
  5
14E
330
1F
100
AcDbEntity
  8
0
  6
Continuous
 62
     7
100
AcDbLine
 10
6267.3449079453
 20
5430.7580352294
 30
0.0
 11
6266.4825479447
 21
5431.1446160543
 31
0.0
  0
LINE
  5
14F
330
1F
100
AcDbEntity
  8
0
  6
Continuous
 62
     7
100
AcDbLine
 10
6266.4825479447
 20
5431.1446160543
 30
0.0
 11
6265.9495781123
 21
5431.5691650379
 31
0.0
  0
LINE
  5
150
330
1F
100
AcDbEntity
  8
0
  6
Continuous
 62
     7
100
AcDbLine
 10
6265.9495781123
 20
5431.5691650379
 30
0.0
 11
6265.7692964136
 21
5432.0131004322
 31
0.0
  0
LINE
  5
151
330
1F
100
AcDbEntity
  8
0
  6
Continuous
 62
     7
100
AcDbLine
 10
6265.7692964136
 20
5432.0131004322
 30
0.0
 11
6265.9495855628
 21
5432.4570507276
 31
0.0
  0
LINE
  5
152
330
1F
100
AcDbEntity
  8
0
  6
Continuous
 62
     7
100
AcDbLine
 10
6265.9495855628
 20
5432.4570507276
 30
0.0
 11
6266.0645703732
 21
5432.5792402494
 31
0.0
  0
LINE
  5
153
330
1F
100
AcDbEntity
  8
0
  6
Continuous
 62
     7
100
AcDbLine
 10
6282.0028039574
 20
5432.5513899791
 30
0.0
 11
6282.0890183507
 21
5432.4570060241
 31
0.0
  0
LINE
  5
154
330
1F
100
AcDbEntity
  8
0
  6
Continuous
 62
     7
100
AcDbLine
 10
6282.0890183507
 20
5432.4570060241
 30
0.0
 11
6282.2693000494
 21
5432.0130557287
 31
0.0
  0
LINE
  5
155
330
1F
100
AcDbEntity
  8
0
  6
Continuous
 62
     7
100
AcDbLine
 10
6281.1755473672
 20
5430.7099193799
 30
0.0
 11
6281.5341214596
 21
5430.617114948
 31
0.0
  0
LINE
  5
156
330
1F
100
AcDbEntity
  8
0
  6
Continuous
 62
     7
100
AcDbLine
 10
6266.8630416452
 20
5430.7099640834
 30
0.0
 11
6266.5044675528
 21
5430.6171596515
 31
0.0
  0
LINE
  5
157
330
1F
100
AcDbEntity
  8
0
  6
Continuous
 62
     7
100
AcDbLine
 10
6282.0554981886
 20
5432.4960172641
 30
0.0
 11
6281.5560485183
 21
5432.1104944217
 31
0.0
  0
LINE
  5
158
330
1F
100
AcDbEntity
  8
0
  6
Continuous
 62
     7
100
AcDbLine
 10
6281.5560485183
 20
5432.1104944217
 30
0.0
 11
6281.5192985295
 21
5432.0894390809
 31
0.0
  0
LINE
  5
159
330
1F
100
AcDbEntity
  8
0
  6
Continuous
 62
     7
100
AcDbLine
 10
6266.5193016588
 20
5432.0894837844
 30
0.0
 11
6266.4825479447
 21
5432.1105391252
 31
0.0
  0
LINE
  5
15A
330
1F
100
AcDbEntity
  8
0
  6
Continuous
 62
     7
100
AcDbLine
 10
6266.4825479447
 20
5432.1105391252
 30
0.0
 11
6265.9831057249
 21
5432.4960619676
 31
0.0
  0
LINE
  5
15B
330
1F
100
AcDbEntity
  8
0
  6
Continuous
 62
     7
100
AcDbLine
 10
6279.0542366861
 20
5433.2458138931
 30
0.0
 11
6279.0542329608
 21
5432.8993171918
 31
0.0
  0
LINE
  5
15C
330
1F
100
AcDbEntity
  8
0
  6
Continuous
 62
     7
100
AcDbLine
 10
6279.0542329608
 20
5432.8993171918
 30
0.0
 11
6279.4128070532
 21
5432.9921216237
 31
0.0
  0
LINE
  5
15D
330
1F
100
AcDbEntity
  8
0
  6
Continuous
 62
     7
100
AcDbLine
 10
6268.9843709527
 20
5433.2458436954
 30
0.0
 11
6268.9843709527
 21
5432.8993469942
 31
0.0
  0
LINE
  5
15E
330
1F
100
AcDbEntity
  8
0
  6
Continuous
 62
     7
100
AcDbLine
 10
6268.9843709527
 20
5432.8993469942
 30
0.0
 11
6268.6257968603
 21
5432.9921514261
 31
0.0
  0
LINE
  5
15F
330
1F
100
AcDbEntity
  8
0
  6
Continuous
 62
     7
100
AcDbLine
 10
6281.1755548178
 20
5432.3502690065
 30
0.0
 11
6281.5341251849
 21
5432.4430734384
 31
0.0
  0
LINE
  5
160
330
1F
100
AcDbEntity
  8
0
  6
Continuous
 62
     7
100
AcDbLine
 10
6266.8630490958
 20
5432.35031371
 30
0.0
 11
6266.5044750034
 21
5432.4431181419
 31
0.0
  0
LINE
  5
161
330
1F
100
AcDbEntity
  8
0
  6
Continuous
 62
     7
100
AcDbLine
 10
6281.3685993611
 20
5432.4002326
 30
0.0
 11
6281.5192985295
 21
5432.0130557287
 31
0.0
  0
LINE
  5
162
330
1F
100
AcDbEntity
  8
0
  6
Continuous
 62
     7
100
AcDbLine
 10
6281.5192985295
 20
5432.0130557287
 30
0.0
 11
6281.3439528405
 21
5431.5957785118
 31
0.0
  0
LINE
  5
163
330
1F
100
AcDbEntity
  8
0
  6
Continuous
 62
     7
100
AcDbLine
 10
6281.3439528405
 20
5431.5957785118
 30
0.0
 11
6280.8261114119
 21
5431.1979920137
 31
0.0
  0
LINE
  5
164
330
1F
100
AcDbEntity
  8
0
  6
Continuous
 62
     7
100
AcDbLine
 10
6280.8261114119
 20
5431.1979920137
 30
0.0
 11
6279.9899960815
 21
5430.8383375871
 31
0.0
  0
LINE
  5
165
330
1F
100
AcDbEntity
  8
0
  6
Continuous
 62
     7
100
AcDbLine
 10
6279.9899960815
 20
5430.8383375871
 30
0.0
 11
6278.8746925949
 21
5430.5336088407
 31
0.0
  0
LINE
  5
166
330
1F
100
AcDbEntity
  8
0
  6
Continuous
 62
     7
100
AcDbLine
 10
6278.8746925949
 20
5430.5336088407
 30
0.0
 11
6277.5323587417
 21
5430.2980512845
 31
0.0
  0
LINE
  5
167
330
1F
100
AcDbEntity
  8
0
  6
Continuous
 62
     7
100
AcDbLine
 10
6277.5323587417
 20
5430.2980512845
 30
0.0
 11
6276.0257582127
 21
5430.1426917779
 31
0.0
  0
LINE
  5
168
330
1F
100
AcDbEntity
  8
0
  6
Continuous
 62
     7
100
AcDbLine
 10
6276.0257582127
 20
5430.1426917779
 30
0.0
 11
6274.4253362476
 21
5430.0747871864
 31
0.0
  0
LINE
  5
169
330
1F
100
AcDbEntity
  8
0
  6
Continuous
 62
     7
100
AcDbLine
 10
6274.4253362476
 20
5430.0747871864
 30
0.0
 11
6272.8059302031
 21
5430.0975114572
 31
0.0
  0
LINE
  5
16A
330
1F
100
AcDbEntity
  8
0
  6
Continuous
 62
     7
100
AcDbLine
 10
6272.8059302031
 20
5430.0975114572
 30
0.0
 11
6271.2432603299
 21
5430.209806608
 31
0.0
  0
LINE
  5
16B
330
1F
100
AcDbEntity
  8
0
  6
Continuous
 62
     7
100
AcDbLine
 10
6271.2432603299
 20
5430.209806608
 30
0.0
 11
6269.8103907465
 21
5430.4064274299
 31
0.0
  0
LINE
  5
16C
330
1F
100
AcDbEntity
  8
0
  6
Continuous
 62
     7
100
AcDbLine
 10
6269.8103907465
 20
5430.4064274299
 30
0.0
 11
6268.5743282496
 21
5430.6781799066
 31
0.0
  0
LINE
  5
16D
330
1F
100
AcDbEntity
  8
0
  6
Continuous
 62
     7
100
AcDbLine
 10
6268.5743282496
 20
5430.6781799066
 30
0.0
 11
6267.5928707181
 21
5431.0123384464
 31
0.0
  0
LINE
  5
16E
330
1F
100
AcDbEntity
  8
0
  6
Continuous
 62
     7
100
AcDbLine
 10
6267.5928707181
 20
5431.0123384464
 30
0.0
 11
6266.9119025527
 21
5431.3932866323
 31
0.0
  0
LINE
  5
16F
330
1F
100
AcDbEntity
  8
0
  6
Continuous
 62
     7
100
AcDbLine
 10
6266.9119025527
 20
5431.3932866323
 30
0.0
 11
6266.5632675349
 21
5431.8032324779
 31
0.0
  0
LINE
  5
170
330
1F
100
AcDbEntity
  8
0
  6
Continuous
 62
     7
100
AcDbLine
 10
6266.5632675349
 20
5431.8032324779
 30
0.0
 11
6266.5632675349
 21
5432.2229832876
 31
0.0
  0
LINE
  5
171
330
1F
100
AcDbEntity
  8
0
  6
Continuous
 62
     7
100
AcDbLine
 10
6266.5632675349
 20
5432.2229832876
 30
0.0
 11
6266.6700045525
 21
5432.4002773035
 31
0.0
  0
LINE
  5
172
330
1F
100
AcDbEntity
  8
0
  6
Continuous
 62
     7
100
AcDbLine
 10
6282.6397689937
 20
5431.4353675115
 30
0.0
 11
6282.6397652685
 21
5430.658897804
 31
0.0
  0
LINE
  5
173
330
1F
100
AcDbEntity
  8
0
  6
Continuous
 62
     7
100
AcDbLine
 10
6282.6397689937
 20
5432.2938532102
 30
0.0
 11
6282.6397689937
 21
5431.4353675115
 31
0.0
  0
LINE
  5
174
330
1F
100
AcDbEntity
  8
0
  6
Continuous
 62
     7
100
AcDbLine
 10
6283.146866685
 20
5431.4353526103
 30
0.0
 11
6282.6397689937
 21
5431.4353675115
 31
0.0
  0
LINE
  5
175
330
1F
100
AcDbEntity
  8
0
  6
Continuous
 62
     7
100
AcDbLine
 10
6283.1468629598
 20
5430.658897804
 30
0.0
 11
6282.6397652685
 21
5430.658897804
 31
0.0
  0
LINE
  5
176
330
1F
100
AcDbEntity
  8
0
  6
Continuous
 62
     7
100
AcDbLine
 10
6264.8917297779
 20
5430.6589574087
 30
0.0
 11
6265.3988237439
 21
5430.6589574087
 31
0.0
  0
LINE
  5
177
330
1F
100
AcDbEntity
  8
0
  6
Continuous
 62
     7
100
AcDbLine
 10
6264.8917297779
 20
5431.435412215
 30
0.0
 11
6265.3988311945
 21
5431.435412215
 31
0.0
  0
LINE
  5
178
330
1F
100
AcDbEntity
  8
0
  6
Continuous
 62
     7
100
AcDbLine
 10
6265.3988311945
 20
5432.2938979137
 30
0.0
 11
6265.3988311945
 21
5431.435412215
 31
0.0
  0
LINE
  5
179
330
1F
100
AcDbEntity
  8
0
  6
Continuous
 62
     7
100
AcDbLine
 10
6265.3988311945
 20
5431.435412215
 30
0.0
 11
6265.3988237439
 21
5430.6589574087
 31
0.0
  0
LINE
  5
17A
330
1F
100
AcDbEntity
  8
0
  6
Continuous
 62
     7
100
AcDbLine
 10
6281.1755473672
 20
5430.7099193799
 30
0.0
 11
6281.1755473672
 21
5429.743996309
 31
0.0
  0
LINE
  5
17B
330
1F
100
AcDbEntity
  8
0
  6
Continuous
 62
     7
100
AcDbLine
 10
6279.0542255103
 20
5430.1609009969
 30
0.0
 11
6279.0542255103
 21
5429.1949630249
 31
0.0
  0
LINE
  5
17C
330
1F
100
AcDbEntity
  8
0
  6
Continuous
 62
     7
100
AcDbLine
 10
6281.1755473672
 20
5429.743996309
 30
0.0
 11
6281.5341177343
 21
5429.6511918771
 31
0.0
  0
LINE
  5
17D
330
1F
100
AcDbEntity
  8
0
  6
Continuous
 62
     7
100
AcDbLine
 10
6266.8630416452
 20
5429.7440410125
 30
0.0
 11
6266.5044675528
 21
5429.6512365806
 31
0.0
  0
LINE
  5
17E
330
1F
100
AcDbEntity
  8
0
  6
Continuous
 62
     7
100
AcDbLine
 10
6268.9843597769
 20
5429.1949928272
 30
0.0
 11
6268.6257856845
 21
5429.1021883953
 31
0.0
  0
LINE
  5
17F
330
1F
100
AcDbEntity
  8
0
  6
Continuous
 62
     7
100
AcDbLine
 10
6266.8630416452
 20
5430.7099640834
 30
0.0
 11
6266.8630416452
 21
5429.7440410125
 31
0.0
  0
LINE
  5
180
330
1F
100
AcDbEntity
  8
0
  6
Continuous
 62
     7
100
AcDbLine
 10
6268.9843635022
 20
5430.1609158981
 30
0.0
 11
6268.9843597769
 21
5429.1949928272
 31
0.0
  0
LINE
  5
181
330
1F
100
AcDbEntity
  8
0
  6
Continuous
 62
     7
100
AcDbLine
 10
6279.0542255103
 20
5429.1949630249
 30
0.0
 11
6279.4127958773
 21
5429.1021585929
 31
0.0
  0
LINE
  5
182
330
1F
100
AcDbEntity
  8
0
  6
Continuous
 62
     7
100
AcDbLine
 10
6272.5192914664
 20
5428.6847770679
 30
0.0
 11
6272.5192914664
 21
5428.8160115945
 31
0.0
  0
LINE
  5
183
330
1F
100
AcDbEntity
  8
0
  6
Continuous
 62
     7
100
AcDbLine
 10
6275.5192900955
 20
5428.6847621667
 30
0.0
 11
6275.5192900955
 21
5428.8160115945
 31
0.0
  0
LINE
  5
184
330
1F
100
AcDbEntity
  8
0
  6
Continuous
 62
     7
100
AcDbLine
 10
6275.5192938207
 20
5429.7819346654
 30
0.0
 11
6275.5192900955
 21
5428.8160115945
 31
0.0
  0
LINE
  5
185
330
1F
100
AcDbEntity
  8
0
  6
Continuous
 62
     7
100
AcDbLine
 10
6272.5192951917
 20
5429.7819495666
 30
0.0
 11
6272.5192914664
 21
5428.8160115945
 31
0.0
  0
LINE
  5
186
330
1F
100
AcDbEntity
  8
0
  6
Continuous
 62
     7
100
AcDbLine
 10
6261.8686194478
 20
5435.188299464
 30
0.0
 11
6286.1699956416
 21
5435.1882249582
 31
0.0
  0
LINE
  5
187
330
1F
100
AcDbEntity
  8
0
  6
Continuous
 62
     7
100
AcDbLine
 10
6287.1376378337
 20
5434.9202757986
 30
0.0
 11
6286.1699956416
 21
5435.1882249582
 31
0.0
  0
LINE
  5
188
330
1F
100
AcDbEntity
  8
0
  6
Continuous
 62
     7
100
AcDbLine
 10
6261.8686194478
 20
5435.188299464
 30
0.0
 11
6260.9009785119
 21
5434.9203484595
 31
0.0
  0
LINE
  5
189
330
1F
100
AcDbEntity
  8
0
  6
Continuous
 62
     7
100
AcDbLine
 10
6274.0193056821
 20
5433.6029947269
 30
0.0
 11
6275.8881608902
 21
5433.5568011272
 31
0.0
  0
LINE
  5
18A
330
1F
100
AcDbEntity
  8
0
  6
Continuous
 62
     7
100
AcDbLine
 10
6275.8881608902
 20
5433.5568011272
 30
0.0
 11
6277.6894691347
 21
5433.4199041593
 31
0.0
  0
LINE
  5
18B
330
1F
100
AcDbEntity
  8
0
  6
Continuous
 62
     7
100
AcDbLine
 10
6277.6894691347
 20
5433.4199041593
 30
0.0
 11
6279.3581309675
 21
5433.1972510087
 31
0.0
  0
LINE
  5
18C
330
1F
100
AcDbEntity
  8
0
  6
Continuous
 62
     7
100
AcDbLine
 10
6279.3581309675
 20
5433.1972510087
 30
0.0
 11
6280.8338339387
 21
5432.8968883026
 31
0.0
  0
LINE
  5
18D
330
1F
100
AcDbEntity
  8
0
  6
Continuous
 62
     7
100
AcDbLine
 10
6280.8338339387
 20
5432.8968883026
 30
0.0
 11
6282.0632393419
 21
5432.5296640861
 31
0.0
  0
LINE
  5
18E
330
1F
100
AcDbEntity
  8
0
  6
Continuous
 62
     7
100
AcDbLine
 10
6282.0632393419
 20
5432.5296640861
 30
0.0
 11
6283.0019156395
 21
5432.1088701951
 31
0.0
  0
LINE
  5
18F
330
1F
100
AcDbEntity
  8
0
  6
Continuous
 62
     7
100
AcDbLine
 10
6283.0019156395
 20
5432.1088701951
 30
0.0
 11
6283.615936613
 21
5431.649690913
 31
0.0
  0
LINE
  5
190
330
1F
100
AcDbEntity
  8
0
  6
Continuous
 62
     7
100
AcDbLine
 10
6283.615936613
 20
5431.649690913
 30
0.0
 11
6283.8831107079
 21
5431.1687410343
 31
0.0
  0
LINE
  5
191
330
1F
100
AcDbEntity
  8
0
  6
Continuous
 62
     7
100
AcDbLine
 10
6283.8831107079
 20
5431.1687410343
 30
0.0
 11
6283.7937819718
 21
5430.683395313
 31
0.0
  0
LINE
  5
192
330
1F
100
AcDbEntity
  8
0
  6
Continuous
 62
     7
100
AcDbLine
 10
6283.7937819718
 20
5430.683395313
 30
0.0
 11
6283.3511765062
 21
5430.2111924159
 31
0.0
  0
LINE
  5
193
330
1F
100
AcDbEntity
  8
0
  6
Continuous
 62
     7
100
AcDbLine
 10
6283.3511765062
 20
5430.2111924159
 30
0.0
 11
6282.5712944328
 21
5429.7692090738
 31
0.0
  0
LINE
  5
194
330
1F
100
AcDbEntity
  8
0
  6
Continuous
 62
     7
100
AcDbLine
 10
6282.5712944328
 20
5429.7692090738
 30
0.0
 11
6281.482321298
 21
5429.3734193313
 31
0.0
  0
LINE
  5
195
330
1F
100
AcDbEntity
  8
0
  6
Continuous
 62
     7
100
AcDbLine
 10
6281.482321298
 20
5429.3734193313
 30
0.0
 11
6280.1236110686
 21
5429.0381134021
 31
0.0
  0
LINE
  5
196
330
1F
100
AcDbEntity
  8
0
  6
Continuous
 62
     7
100
AcDbLine
 10
6280.1236110686
 20
5429.0381134021
 30
0.0
 11
6278.5442779719
 21
5428.7754208314
 31
0.0
  0
LINE
  5
197
330
1F
100
AcDbEntity
  8
0
  6
Continuous
 62
     7
100
AcDbLine
 10
6278.5442779719
 20
5428.7754208314
 30
0.0
 11
6276.8014009057
 21
5428.5948336589
 31
0.0
  0
LINE
  5
198
330
1F
100
AcDbEntity
  8
0
  6
Continuous
 62
     7
100
AcDbLine
 10
6276.8014009057
 20
5428.5948336589
 30
0.0
 11
6274.9579670786
 21
5428.5028934944
 31
0.0
  0
LINE
  5
199
330
1F
100
AcDbEntity
  8
0
  6
Continuous
 62
     7
100
AcDbLine
 10
6274.9579670786
 20
5428.5028934944
 30
0.0
 11
6273.080610758
 21
5428.5028934944
 31
0.0
  0
LINE
  5
19A
330
1F
100
AcDbEntity
  8
0
  6
Continuous
 62
     7
100
AcDbLine
 10
6273.080610758
 20
5428.5028934944
 30
0.0
 11
6271.2371806561
 21
5428.5948485601
 31
0.0
  0
LINE
  5
19B
330
1F
100
AcDbEntity
  8
0
  6
Continuous
 62
     7
100
AcDbLine
 10
6271.2371806561
 20
5428.5948485601
 30
0.0
 11
6269.49430359
 21
5428.7754506338
 31
0.0
  0
LINE
  5
19C
330
1F
100
AcDbEntity
  8
0
  6
Continuous
 62
     7
100
AcDbLine
 10
6269.49430359
 20
5428.7754506338
 30
0.0
 11
6267.9149742185
 21
5429.0381432044
 31
0.0
  0
LINE
  5
19D
330
1F
100
AcDbEntity
  8
0
  6
Continuous
 62
     7
100
AcDbLine
 10
6267.9149742185
 20
5429.0381432044
 30
0.0
 11
6266.5562639891
 21
5429.3734640348
 31
0.0
  0
LINE
  5
19E
330
1F
100
AcDbEntity
  8
0
  6
Continuous
 62
     7
100
AcDbLine
 10
6266.5562639891
 20
5429.3734640348
 30
0.0
 11
6265.4672945796
 21
5429.7692686784
 31
0.0
  0
LINE
  5
19F
330
1F
100
AcDbEntity
  8
0
  6
Continuous
 62
     7
100
AcDbLine
 10
6265.4672945796
 20
5429.7692686784
 30
0.0
 11
6264.6874125062
 21
5430.2112520206
 31
0.0
  0
LINE
  5
1A0
330
1F
100
AcDbEntity
  8
0
  6
Continuous
 62
     7
100
AcDbLine
 10
6264.6874125062
 20
5430.2112520206
 30
0.0
 11
6264.2448107659
 21
5430.6834549177
 31
0.0
  0
LINE
  5
1A1
330
1F
100
AcDbEntity
  8
0
  6
Continuous
 62
     7
100
AcDbLine
 10
6264.2448107659
 20
5430.6834549177
 30
0.0
 11
6264.1554857551
 21
5431.1688006389
 31
0.0
  0
LINE
  5
1A2
330
1F
100
AcDbEntity
  8
0
  6
Continuous
 62
     7
100
AcDbLine
 10
6264.1554857551
 20
5431.1688006389
 30
0.0
 11
6264.4226561247
 21
5431.6497505176
 31
0.0
  0
LINE
  5
1A3
330
1F
100
AcDbEntity
  8
0
  6
Continuous
 62
     7
100
AcDbLine
 10
6264.4226561247
 20
5431.6497505176
 30
0.0
 11
6265.0366808235
 21
5432.1089148986
 31
0.0
  0
LINE
  5
1A4
330
1F
100
AcDbEntity
  8
0
  6
Continuous
 62
     7
100
AcDbLine
 10
6265.0366808235
 20
5432.1089148986
 30
0.0
 11
6265.9753645717
 21
5432.5297087896
 31
0.0
  0
LINE
  5
1A5
330
1F
100
AcDbEntity
  8
0
  6
Continuous
 62
     7
100
AcDbLine
 10
6265.9753645717
 20
5432.5297087896
 30
0.0
 11
6267.2047699748
 21
5432.8969181049
 31
0.0
  0
LINE
  5
1A6
330
1F
100
AcDbEntity
  8
0
  6
Continuous
 62
     7
100
AcDbLine
 10
6267.2047699748
 20
5432.8969181049
 30
0.0
 11
6268.6804766713
 21
5433.1972808111
 31
0.0
  0
LINE
  5
1A7
330
1F
100
AcDbEntity
  8
0
  6
Continuous
 62
     7
100
AcDbLine
 10
6268.6804766713
 20
5433.1972808111
 30
0.0
 11
6270.3491385042
 21
5433.4199190605
 31
0.0
  0
LINE
  5
1A8
330
1F
100
AcDbEntity
  8
0
  6
Continuous
 62
     7
100
AcDbLine
 10
6270.3491385042
 20
5433.4199190605
 30
0.0
 11
6272.1504467486
 21
5433.5568160284
 31
0.0
  0
LINE
  5
1A9
330
1F
100
AcDbEntity
  8
0
  6
Continuous
 62
     7
100
AcDbLine
 10
6272.1504467486
 20
5433.5568160284
 30
0.0
 11
6274.0193056821
 21
5433.6029947269
 31
0.0
  0
LINE
  5
1AA
330
1F
100
AcDbEntity
  8
0
  6
Continuous
 62
     7
100
AcDbLine
 10
6283.2692983507
 20
5431.9250047672
 30
0.0
 11
6283.3942967414
 21
5431.5300941932
 31
0.0
  0
LINE
  5
1AB
330
1F
100
AcDbEntity
  8
0
  6
Continuous
 62
     7
100
AcDbLine
 10
6283.3942967414
 20
5431.5300941932
 30
0.0
 11
6283.2692983507
 21
5431.1351836193
 31
0.0
  0
LINE
  5
1AC
330
1F
100
AcDbEntity
  8
0
  6
Continuous
 62
     7
100
AcDbLine
 10
6264.769294387
 20
5431.1352283227
 30
0.0
 11
6264.6442959963
 21
5431.5301388967
 31
0.0
  0
LINE
  5
1AD
330
1F
100
AcDbEntity
  8
0
  6
Continuous
 62
     7
100
AcDbLine
 10
6264.6442959963
 20
5431.5301388967
 30
0.0
 11
6264.7693018376
 21
5431.9250494707
 31
0.0
  0
LINE
  5
1AE
330
1F
100
AcDbEntity
  8
0
  6
Continuous
 62
     7
100
AcDbLine
 10
6281.5189632534
 20
5309.6439451444
 30
0.0
 11
6279.6793515741
 21
5309.6439749467
 31
0.0
  0
LINE
  5
1AF
330
1F
100
AcDbEntity
  8
0
  6
Continuous
 62
     7
100
AcDbLine
 10
6279.6793515741
 20
5309.6439749467
 30
0.0
 11
6277.8094607352
 21
5309.6439749467
 31
0.0
  0
LINE
  5
1B0
330
1F
100
AcDbEntity
  8
0
  6
Continuous
 62
     7
100
AcDbLine
 10
6277.8094607352
 20
5309.6439749467
 30
0.0
 11
6275.9192931413
 21
5309.6439749467
 31
0.0
  0
LINE
  5
1B1
330
1F
100
AcDbEntity
  8
0
  6
Continuous
 62
     7
100
AcDbLine
 10
6275.9192931413
 20
5309.6439749467
 30
0.0
 11
6274.0189629554
 21
5309.6439749467
 31
0.0
  0
LINE
  5
1B2
330
1F
100
AcDbEntity
  8
0
  6
Continuous
 62
     7
100
AcDbLine
 10
6274.0189629554
 20
5309.6439749467
 30
0.0
 11
6272.1186290442
 21
5309.6439749467
 31
0.0
  0
LINE
  5
1B3
330
1F
100
AcDbEntity
  8
0
  6
Continuous
 62
     7
100
AcDbLine
 10
6272.1186290442
 20
5309.6439749467
 30
0.0
 11
6270.2284614502
 21
5309.6440047491
 31
0.0
  0
LINE
  5
1B4
330
1F
100
AcDbEntity
  8
0
  6
Continuous
 62
     7
100
AcDbLine
 10
6270.2284614502
 20
5309.6440047491
 30
0.0
 11
6268.3585743367
 21
5309.6440047491
 31
0.0
  0
LINE
  5
1B5
330
1F
100
AcDbEntity
  8
0
  6
Continuous
 62
     7
100
AcDbLine
 10
6268.3585743367
 20
5309.6440047491
 30
0.0
 11
6266.5189589321
 21
5309.6440047491
 31
0.0
  0
LINE
  5
1B6
330
1F
100
AcDbEntity
  8
0
  6
Continuous
 62
     7
100
AcDbLine
 10
6266.5189291297
 20
5298.6439973581
 30
0.0
 11
6268.3585445343
 21
5298.6439973581
 31
0.0
  0
LINE
  5
1B7
330
1F
100
AcDbEntity
  8
0
  6
Continuous
 62
     7
100
AcDbLine
 10
6268.3585445343
 20
5298.6439973581
 30
0.0
 11
6270.2284316479
 21
5298.6439973581
 31
0.0
  0
LINE
  5
1B8
330
1F
100
AcDbEntity
  8
0
  6
Continuous
 62
     7
100
AcDbLine
 10
6270.2284316479
 20
5298.6439973581
 30
0.0
 11
6272.1185992419
 21
5298.6439973581
 31
0.0
  0
LINE
  5
1B9
330
1F
100
AcDbEntity
  8
0
  6
Continuous
 62
     7
100
AcDbLine
 10
6272.1185992419
 20
5298.6439973581
 30
0.0
 11
6274.0189294278
 21
5298.6439675558
 31
0.0
  0
LINE
  5
1BA
330
1F
100
AcDbEntity
  8
0
  6
Continuous
 62
     7
100
AcDbLine
 10
6274.0189294278
 20
5298.6439675558
 30
0.0
 11
6275.9192633389
 21
5298.6439675558
 31
0.0
  0
LINE
  5
1BB
330
1F
100
AcDbEntity
  8
0
  6
Continuous
 62
     7
100
AcDbLine
 10
6275.9192633389
 20
5298.6439675558
 30
0.0
 11
6277.8094309329
 21
5298.6439675558
 31
0.0
  0
LINE
  5
1BC
330
1F
100
AcDbEntity
  8
0
  6
Continuous
 62
     7
100
AcDbLine
 10
6277.8094309329
 20
5298.6439675558
 30
0.0
 11
6279.6793180465
 21
5298.6439675558
 31
0.0
  0
LINE
  5
1BD
330
1F
100
AcDbEntity
  8
0
  6
Continuous
 62
     7
100
AcDbLine
 10
6279.6793180465
 20
5298.6439675558
 30
0.0
 11
6281.5189297258
 21
5298.6439675558
 31
0.0
  0
LINE
  5
1BE
330
1F
100
AcDbEntity
  8
0
  6
Continuous
 62
     7
100
AcDbLine
 10
6051.0185296594
 20
5155.3445965517
 30
0.0
 11
6051.0177249967
 21
4857.3445886838
 31
0.0
  0
LINE
  5
1BF
330
1F
100
AcDbEntity
  8
0
  6
Continuous
 62
     7
100
AcDbLine
 10
6497.0185394346
 20
5155.3433746564
 30
0.0
 11
6051.0185296594
 21
5155.3445965517
 31
0.0
  0
LINE
  5
1C0
330
1F
100
AcDbEntity
  8
0
  6
Continuous
 62
     7
100
AcDbLine
 10
6497.0177049695
 20
4857.3433369863
 30
0.0
 11
6497.0185394346
 21
5155.3433746564
 31
0.0
  0
LINE
  5
1C1
330
1F
100
AcDbEntity
  8
0
  6
Continuous
 62
     7
100
AcDbLine
 10
6051.0177249967
 20
4857.3445886838
 30
0.0
 11
6497.0177049695
 21
4857.3433369863
 31
0.0
  0
LINE
  5
1C2
330
1F
100
AcDbEntity
  8
0
  6
Continuous
 62
     7
100
AcDbLine
 10
6051.0176951944
 20
4855.344614433
 30
0.0
 11
6051.0177249967
 21
4857.3445886838
 31
0.0
  0
LINE
  5
1C3
330
1F
100
AcDbEntity
  8
0
  6
Continuous
 62
     7
100
AcDbLine
 10
6049.0176911413
 20
4855.344614433
 30
0.0
 11
6049.0177209436
 21
4857.3445886838
 31
0.0
  0
LINE
  5
1C4
330
1F
100
AcDbEntity
  8
0
  6
Continuous
 62
     7
100
AcDbLine
 10
6049.0177209436
 20
4857.3445886838
 30
0.0
 11
6049.0185256063
 21
5155.3445965517
 31
0.0
  0
LINE
  5
1C5
330
1F
100
AcDbEntity
  8
0
  6
Continuous
 62
     7
100
AcDbLine
 10
6049.0185256063
 20
5155.3445965517
 30
0.0
 11
6051.0185296594
 21
5155.3445965517
 31
0.0
  0
LINE
  5
1C6
330
1F
100
AcDbEntity
  8
0
  6
Continuous
 62
     7
100
AcDbLine
 10
6051.0176951944
 20
4855.344614433
 30
0.0
 11
6049.0176911413
 21
4855.344614433
 31
0.0
  0
LINE
  5
1C7
330
1F
100
AcDbEntity
  8
0
  6
Continuous
 62
     7
100
AcDbLine
 10
6051.7248148977
 20
4855.344614433
 30
0.0
 11
6496.3106001674
 21
4855.3433627355
 31
0.0
  0
LINE
  5
1C8
330
1F
100
AcDbEntity
  8
0
  6
Continuous
 62
     7
100
AcDbLine
 10
6499.0177090227
 20
4857.3433369863
 30
0.0
 11
6499.0185285865
 21
5155.3433448541
 31
0.0
  0
LINE
  5
1C9
330
1F
100
AcDbEntity
  8
0
  6
Continuous
 62
     7
100
AcDbLine
 10
6499.0177090227
 20
4855.3433627355
 30
0.0
 11
6499.0177090227
 21
4857.3433369863
 31
0.0
  0
LINE
  5
1CA
330
1F
100
AcDbEntity
  8
0
  6
Continuous
 62
     7
100
AcDbLine
 10
6499.0177090227
 20
4855.3433627355
 30
0.0
 11
6497.0177049695
 21
4855.3433627355
 31
0.0
  0
LINE
  5
1CB
330
1F
100
AcDbEntity
  8
0
  6
Continuous
 62
     7
100
AcDbLine
 10
6497.0177049695
 20
4855.3433627355
 30
0.0
 11
6497.0177049695
 21
4857.3433369863
 31
0.0
  0
LINE
  5
1CC
330
1F
100
AcDbEntity
  8
0
  6
Continuous
 62
     7
100
AcDbLine
 10
6497.0185394346
 20
5155.3433746564
 30
0.0
 11
6497.4087114393
 21
5155.3433746564
 31
0.0
  0
LINE
  5
1CD
330
1F
100
AcDbEntity
  8
0
  6
Continuous
 62
     7
100
AcDbLine
 10
6497.4087114393
 20
5155.3433746564
 30
0.0
 11
6497.783907777
 21
5155.3433746564
 31
0.0
  0
LINE
  5
1CE
330
1F
100
AcDbEntity
  8
0
  6
Continuous
 62
     7
100
AcDbLine
 10
6497.783907777
 20
5155.3433746564
 30
0.0
 11
6498.1296743213
 21
5155.3433746564
 31
0.0
  0
LINE
  5
1CF
330
1F
100
AcDbEntity
  8
0
  6
Continuous
 62
     7
100
AcDbLine
 10
6498.1296743213
 20
5155.3433746564
 30
0.0
 11
6498.4327490388
 21
5155.3433448541
 31
0.0
  0
LINE
  5
1D0
330
1F
100
AcDbEntity
  8
0
  6
Continuous
 62
     7
100
AcDbLine
 10
6498.4327490388
 20
5155.3433448541
 30
0.0
 11
6498.6814792215
 21
5155.3433448541
 31
0.0
  0
LINE
  5
1D1
330
1F
100
AcDbEntity
  8
0
  6
Continuous
 62
     7
100
AcDbLine
 10
6498.6814792215
 20
5155.3433448541
 30
0.0
 11
6498.8662983238
 21
5155.3433448541
 31
0.0
  0
LINE
  5
1D2
330
1F
100
AcDbEntity
  8
0
  6
Continuous
 62
     7
100
AcDbLine
 10
6498.8662983238
 20
5155.3433448541
 30
0.0
 11
6498.9800984918
 21
5155.3433448541
 31
0.0
  0
LINE
  5
1D3
330
1F
100
AcDbEntity
  8
0
  6
Continuous
 62
     7
100
AcDbLine
 10
6498.9800984918
 20
5155.3433448541
 30
0.0
 11
6499.0185285865
 21
5155.3433448541
 31
0.0
  0
LINE
  5
1D4
330
1F
100
AcDbEntity
  8
0
  6
Continuous
 62
     7
100
AcDbLine
 10
6051.0176951944
 20
4855.344614433
 30
0.0
 11
6051.7248148977
 21
4855.344614433
 31
0.0
  0
LINE
  5
1D5
330
1F
100
AcDbEntity
  8
0
  6
Continuous
 62
     7
100
AcDbLine
 10
6051.0176951944
 20
4856.3446015584
 30
0.0
 11
6051.2537295877
 21
4856.3446015584
 31
0.0
  0
LINE
  5
1D6
330
1F
100
AcDbEntity
  8
0
  6
Continuous
 62
     7
100
AcDbLine
 10
6496.3106001674
 20
4855.3433627355
 30
0.0
 11
6497.0177049695
 21
4855.3433627355
 31
0.0
  0
LINE
  5
1D7
330
1F
100
AcDbEntity
  8
0
  6
Continuous
 62
     7
100
AcDbLine
 10
6496.778139001
 20
4856.3433498609
 30
0.0
 11
6497.0177049695
 21
4856.3433498609
 31
0.0
  0
LINE
  5
1D8
330
1F
100
AcDbEntity
  8
0
  6
Continuous
 62
     7
100
AcDbLine
 10
6049.0186448156
 20
5195.2946097124
 30
0.0
 11
6049.0186448156
 21
5193.6946124303
 31
0.0
  0
LINE
  5
1D9
330
1F
100
AcDbEntity
  8
0
  6
Continuous
 62
     7
100
AcDbLine
 10
6050.2186353265
 20
5195.2946097124
 30
0.0
 11
6049.0186448156
 21
5195.2946097124
 31
0.0
  0
LINE
  5
1DA
330
1F
100
AcDbEntity
  8
0
  6
Continuous
 62
     7
100
AcDbLine
 10
6050.2186353265
 20
5195.2820629346
 30
0.0
 11
6050.2186353265
 21
5195.2946097124
 31
0.0
  0
LINE
  5
1DB
330
1F
100
AcDbEntity
  8
0
  6
Continuous
 62
     7
100
AcDbLine
 10
6049.0186448156
 20
5195.7946032751
 30
0.0
 11
6050.2186353265
 21
5195.7946032751
 31
0.0
  0
LINE
  5
1DC
330
1F
100
AcDbEntity
  8
0
  6
Continuous
 62
     7
100
AcDbLine
 10
6049.0186448156
 20
5195.2946097124
 30
0.0
 11
6049.0186448156
 21
5195.7946032751
 31
0.0
  0
LINE
  5
1DD
330
1F
100
AcDbEntity
  8
0
  6
Continuous
 62
     7
100
AcDbLine
 10
6050.2186353265
 20
5195.7946032751
 30
0.0
 11
6050.2186353265
 21
5195.2946097124
 31
0.0
  0
LINE
  5
1DE
330
1F
100
AcDbEntity
  8
0
  6
Continuous
 62
     7
100
AcDbLine
 10
6499.0185434877
 20
5156.9433719385
 30
0.0
 11
6499.0042830764
 21
5156.726917671
 31
0.0
  0
LINE
  5
1DF
330
1F
100
AcDbEntity
  8
0
  6
Continuous
 62
     7
100
AcDbLine
 10
6499.0186467908
 20
5195.2933580148
 30
0.0
 11
6497.8186423837
 21
5195.2933580148
 31
0.0
  0
LINE
  5
1E0
330
1F
100
AcDbEntity
  8
0
  6
Continuous
 62
     7
100
AcDbLine
 10
6499.0185434877
 20
5156.9433719385
 30
0.0
 11
6499.0185434877
 21
5156.9933504331
 31
0.0
  0
LINE
  5
1E1
330
1F
100
AcDbEntity
  8
0
  6
Continuous
 62
     7
100
AcDbLine
 10
6499.0186467908
 20
5193.6933607328
 30
0.0
 11
6499.0186467908
 21
5195.2933580148
 31
0.0
  0
LINE
  5
1E2
330
1F
100
AcDbEntity
  8
0
  6
Continuous
 62
     7
100
AcDbLine
 10
6497.8186423837
 20
5195.2933580148
 30
0.0
 11
6497.8186423837
 21
5195.2808112371
 31
0.0
  0
LINE
  5
1E3
330
1F
100
AcDbEntity
  8
0
  6
Continuous
 62
     7
100
AcDbLine
 10
6497.8185380756
 20
5156.9933504331
 30
0.0
 11
6497.8185380756
 21
5156.9433719385
 31
0.0
  0
LINE
  5
1E4
330
1F
100
AcDbEntity
  8
0
  6
Continuous
 62
     7
100
AcDbLine
 10
6497.8186423837
 20
5195.7933515775
 30
0.0
 11
6499.0186467908
 21
5195.7933515775
 31
0.0
  0
LINE
  5
1E5
330
1F
100
AcDbEntity
  8
0
  6
Continuous
 62
     7
100
AcDbLine
 10
6499.0186467908
 20
5195.7933515775
 30
0.0
 11
6499.0186467908
 21
5195.2933580148
 31
0.0
  0
LINE
  5
1E6
330
1F
100
AcDbEntity
  8
0
  6
Continuous
 62
     7
100
AcDbLine
 10
6497.8186423837
 20
5195.2933580148
 30
0.0
 11
6497.8186423837
 21
5195.7933515775
 31
0.0
  0
LINE
  5
1E7
330
1F
100
AcDbEntity
  8
0
  6
Continuous
 62
     7
100
AcDbLine
 10
6050.6686448154
 20
5193.694588207
 30
0.0
 11
6497.3686423837
 21
5193.6933619047
 31
0.0
  0
LINE
  5
1E8
330
1F
100
AcDbEntity
  8
0
  6
Continuous
 62
     7
100
AcDbLine
 10
6497.3685379087
 20
5156.9933504331
 30
0.0
 11
6497.3686423837
 21
5193.6933619047
 31
0.0
  0
LINE
  5
1E9
330
1F
100
AcDbEntity
  8
0
  6
Continuous
 62
     7
100
AcDbLine
 10
6050.2892370283
 20
5156.9946021306
 30
0.0
 11
6497.3685379087
 21
5156.9933504331
 31
0.0
  0
LINE
  5
1EA
330
1F
100
AcDbEntity
  8
0
  6
Continuous
 62
     7
100
AcDbLine
 10
6049.0185256063
 20
5156.9946021306
 30
0.0
 11
6050.2892370283
 21
5156.9946021306
 31
0.0
  0
LINE
  5
1EB
330
1F
100
AcDbEntity
  8
0
  6
Continuous
 62
     7
100
AcDbLine
 10
6049.0186448156
 20
5193.6946124303
 30
0.0
 11
6049.0185256063
 21
5156.9946021306
 31
0.0
  0
LINE
  5
1EC
330
1F
100
AcDbEntity
  8
0
  6
Continuous
 62
     7
100
AcDbLine
 10
6050.6686448154
 20
5193.694588207
 30
0.0
 11
6049.0186448156
 21
5193.6946124303
 31
0.0
  0
LINE
  5
1ED
330
1F
100
AcDbEntity
  8
0
  6
Continuous
 62
     7
100
AcDbLine
 10
6497.8186423837
 20
5193.6933607328
 30
0.0
 11
6497.8185380756
 21
5156.9933504331
 31
0.0
  0
LINE
  5
1EE
330
1F
100
AcDbEntity
  8
0
  6
Continuous
 62
     7
100
AcDbLine
 10
6499.0186467908
 20
5193.6933607328
 30
0.0
 11
6497.8186423837
 21
5193.6933607328
 31
0.0
  0
LINE
  5
1EF
330
1F
100
AcDbEntity
  8
0
  6
Continuous
 62
     7
100
AcDbLine
 10
6499.0186467908
 20
5193.6933607328
 30
0.0
 11
6499.0185434877
 21
5156.9933504331
 31
0.0
  0
LINE
  5
1F0
330
1F
100
AcDbEntity
  8
0
  6
Continuous
 62
     7
100
AcDbLine
 10
6497.8185380756
 20
5156.9933504331
 30
0.0
 11
6499.0185434877
 21
5156.9933504331
 31
0.0
  0
LINE
  5
1F1
330
1F
100
AcDbEntity
  8
0
  6
Continuous
 62
     7
100
AcDbLine
 10
6050.6686503946
 20
5195.344588207
 30
0.0
 11
6050.6686448154
 21
5193.694588207
 31
0.0
  0
LINE
  5
1F2
330
1F
100
AcDbEntity
  8
0
  6
Continuous
 62
     7
100
AcDbLine
 10
6050.6686503946
 20
5195.344588207
 30
0.0
 11
6497.3686422168
 21
5195.3433663118
 31
0.0
  0
LINE
  5
1F3
330
1F
100
AcDbEntity
  8
0
  6
Continuous
 62
     7
100
AcDbLine
 10
6497.3686423837
 20
5193.6933619047
 30
0.0
 11
6497.3686422168
 21
5195.3433663118
 31
0.0
  0
LINE
  5
1F4
330
1F
100
AcDbEntity
  8
0
  6
Continuous
 62
     7
100
AcDbLine
 10
6497.3685379087
 20
5155.3638488519
 30
0.0
 11
6497.3685379087
 21
5156.9933504331
 31
0.0
  0
LINE
  5
1F5
330
1F
100
AcDbEntity
  8
0
  6
Continuous
 62
     7
100
AcDbLine
 10
6497.3685379087
 20
5155.3638488519
 30
0.0
 11
6497.3685379087
 21
5155.3433746564
 31
0.0
  0
LINE
  5
1F6
330
1F
100
AcDbEntity
  8
0
  6
Continuous
 62
     7
100
AcDbLine
 10
6050.4092509805
 20
5155.3651005495
 30
0.0
 11
6050.4639382421
 21
5155.7087213266
 31
0.0
  0
LINE
  5
1F7
330
1F
100
AcDbEntity
  8
0
  6
Continuous
 62
     7
100
AcDbLine
 10
6050.6686503946
 20
5195.7946032751
 30
0.0
 11
6497.3686422168
 21
5195.7933515775
 31
0.0
  0
LINE
  5
1F8
330
1F
100
AcDbEntity
  8
0
  6
Continuous
 62
     7
100
AcDbLine
 10
6497.3686422168
 20
5195.7933515775
 30
0.0
 11
6497.3686422168
 21
5195.3433663118
 31
0.0
  0
LINE
  5
1F9
330
1F
100
AcDbEntity
  8
0
  6
Continuous
 62
     7
100
AcDbLine
 10
6050.6686503946
 20
5195.7946032751
 30
0.0
 11
6050.6686503946
 21
5195.344588207
 31
0.0
  0
LINE
  5
1FA
330
1F
100
AcDbEntity
  8
0
  6
Continuous
 62
     7
100
AcDbLine
 10
6497.7491284667
 20
5624.4108802173
 30
0.0
 11
6497.7491284667
 21
5625.5385111551
 31
0.0
  0
LINE
  5
1FB
330
1F
100
AcDbEntity
  8
0
  6
Continuous
 62
     7
100
AcDbLine
 10
6050.2905483304
 20
5624.4121174793
 30
0.0
 11
6050.2905483304
 21
5625.5397488828
 31
0.0
  0
LINE
  5
1FC
330
1F
100
AcDbEntity
  8
0
  6
Continuous
 62
     7
100
AcDbLine
 10
6050.2198274194
 20
5624.0602354053
 30
0.0
 11
6050.2198274194
 21
5624.095724849
 31
0.0
  0
LINE
  5
1FD
330
1F
100
AcDbEntity
  8
0
  6
Continuous
 62
     7
100
AcDbLine
 10
6050.6698424875
 20
5623.9892546552
 30
0.0
 11
6050.2198274194
 21
5624.095724849
 31
0.0
  0
LINE
  5
1FE
330
1F
100
AcDbEntity
  8
0
  6
Continuous
 62
     7
100
AcDbLine
 10
6050.6698424875
 20
5623.9892546552
 30
0.0
 11
6050.2198274194
 21
5624.0602354053
 31
0.0
  0
LINE
  5
1FF
330
1F
100
AcDbEntity
  8
0
  6
Continuous
 62
     7
100
AcDbLine
 10
6497.8198344766
 20
5624.0944899152
 30
0.0
 11
6497.8198344766
 21
5624.0589972119
 31
0.0
  0
LINE
  5
200
330
1F
100
AcDbEntity
  8
0
  6
Continuous
 62
     7
100
AcDbLine
 10
6497.8198344766
 20
5624.0589972119
 30
0.0
 11
6497.3698343097
 21
5623.9880192558
 31
0.0
  0
LINE
  5
201
330
1F
100
AcDbEntity
  8
0
  6
Continuous
 62
     7
100
AcDbLine
 10
6497.3698343097
 20
5623.9880192558
 30
0.0
 11
6497.8198344766
 21
5624.0944899152
 31
0.0
  0
LINE
  5
202
330
1F
100
AcDbEntity
  8
0
  6
Continuous
 62
     7
100
AcDbLine
 10
6049.0198369085
 20
5624.3928907904
 30
0.0
 11
6049.0186448156
 21
5195.7946032751
 31
0.0
  0
LINE
  5
203
330
1F
100
AcDbEntity
  8
0
  6
Continuous
 62
     7
100
AcDbLine
 10
6049.0416820108
 20
5624.3510143365
 30
0.0
 11
6049.0198369085
 21
5624.3928907904
 31
0.0
  0
LINE
  5
204
330
1F
100
AcDbEntity
  8
0
  6
Continuous
 62
     7
100
AcDbLine
 10
6049.0416820108
 20
5624.3510143365
 30
0.0
 11
6049.0603978692
 21
5624.3357955943
 31
0.0
  0
LINE
  5
205
330
1F
100
AcDbEntity
  8
0
  6
Continuous
 62
     7
100
AcDbLine
 10
6050.6698424875
 20
5623.9892546552
 30
0.0
 11
6050.6686503946
 21
5195.7946032751
 31
0.0
  0
LINE
  5
206
330
1F
100
AcDbEntity
  8
0
  6
Continuous
 62
     7
100
AcDbLine
 10
6050.2186353265
 20
5195.7946032751
 30
0.0
 11
6050.6686503946
 21
5195.7946032751
 31
0.0
  0
LINE
  5
207
330
1F
100
AcDbEntity
  8
0
  6
Continuous
 62
     7
100
AcDbLine
 10
6499.0186467908
 20
5195.7933515775
 30
0.0
 11
6499.0198239825
 21
5624.3916460778
 31
0.0
  0
LINE
  5
208
330
1F
100
AcDbEntity
  8
0
  6
Continuous
 62
     7
100
AcDbLine
 10
6497.3686422168
 20
5195.7933515775
 30
0.0
 11
6497.8186423837
 21
5195.7933515775
 31
0.0
  0
LINE
  5
209
330
1F
100
AcDbEntity
  8
0
  6
Continuous
 62
     7
100
AcDbLine
 10
6497.3686422168
 20
5195.7933515775
 30
0.0
 11
6497.3698343097
 21
5623.9880192558
 31
0.0
  0
LINE
  5
20A
330
1F
100
AcDbEntity
  8
0
  6
Continuous
 62
     7
100
AcDbLine
 10
6498.9979798852
 20
5624.349783128
 30
0.0
 11
6498.9792640268
 21
5624.3345406371
 31
0.0
  0
LINE
  5
20B
330
1F
100
AcDbEntity
  8
0
  6
Continuous
 62
     7
100
AcDbLine
 10
6499.0198239825
 20
5624.3916460778
 30
0.0
 11
6498.9979798852
 21
5624.349783128
 31
0.0
  0
LINE
  5
20C
330
1F
100
AcDbEntity
  8
0
  6
Continuous
 62
     7
100
AcDbLine
 10
6497.3698343097
 20
5623.9880192558
 30
0.0
 11
6050.6698424875
 21
5623.9892546552
 31
0.0
  0
LINE
  5
20D
330
1F
100
AcDbEntity
  8
0
  6
Continuous
 62
     7
100
AcDbLine
 10
6497.7491284667
 20
5625.5385111551
 30
0.0
 11
6050.2905483304
 21
5625.5397488828
 31
0.0
  0
LINE
  5
20E
330
1F
100
AcDbEntity
  8
0
  6
Continuous
 62
     7
100
AcDbLine
 10
6050.2198274194
 20
5624.095724849
 30
0.0
 11
6050.2198274194
 21
5624.2084106895
 31
0.0
  0
LINE
  5
20F
330
1F
100
AcDbEntity
  8
0
  6
Continuous
 62
     7
100
AcDbLine
 10
6049.0416820108
 20
5624.3510143365
 30
0.0
 11
6050.2198274194
 21
5624.2084106895
 31
0.0
  0
LINE
  5
210
330
1F
100
AcDbEntity
  8
0
  6
Continuous
 62
     7
100
AcDbLine
 10
6497.8198344766
 20
5624.0944899152
 30
0.0
 11
6497.8198344766
 21
5624.2071729618
 31
0.0
  0
LINE
  5
211
330
1F
100
AcDbEntity
  8
0
  6
Continuous
 62
     7
100
AcDbLine
 10
6498.9979798852
 20
5624.349783128
 30
0.0
 11
6497.8198195754
 21
5624.2072116117
 31
0.0
  0
LINE
  5
212
330
1F
100
AcDbEntity
  8
0
  6
Continuous
 62
     7
100
AcDbLine
 10
6497.8198344766
 20
5624.2071729618
 30
0.0
 11
6497.3698343097
 21
5623.9880192558
 31
0.0
  0
LINE
  5
213
330
1F
100
AcDbEntity
  8
0
  6
Continuous
 62
     7
100
AcDbLine
 10
6050.2198274194
 20
5624.2084106895
 30
0.0
 11
6050.6698424875
 21
5623.9892546552
 31
0.0
  0
LINE
  5
214
330
1F
100
AcDbEntity
  8
0
  6
Continuous
 62
     7
100
AcDbLine
 10
6050.2198274194
 20
5624.3928875308
 30
0.0
 11
6049.0198369085
 21
5624.3928907904
 31
0.0
  0
LINE
  5
215
330
1F
100
AcDbEntity
  8
0
  6
Continuous
 62
     7
100
AcDbLine
 10
6050.2198274194
 20
5624.2084106895
 30
0.0
 11
6050.2198274194
 21
5624.3928875308
 31
0.0
  0
LINE
  5
216
330
1F
100
AcDbEntity
  8
0
  6
Continuous
 62
     7
100
AcDbLine
 10
6497.8198195754
 20
5624.2072116117
 30
0.0
 11
6497.8198344766
 21
5624.3916493374
 31
0.0
  0
LINE
  5
217
330
1F
100
AcDbEntity
  8
0
  6
Continuous
 62
     7
100
AcDbLine
 10
6497.8198344766
 20
5624.3916493374
 30
0.0
 11
6499.0198239825
 21
5624.3916460778
 31
0.0
  0
LINE
  5
218
330
1F
100
AcDbEntity
  8
0
  6
Continuous
 62
     7
100
AcDbLine
 10
6497.7491731702
 20
5640.7099128234
 30
0.0
 11
6050.2905781328
 21
5640.7111514825
 31
0.0
  0
LINE
  5
219
330
1F
100
AcDbEntity
  8
0
  6
Continuous
 62
     7
100
AcDbLine
 10
6497.7491284667
 20
5625.5385111551
 30
0.0
 11
6497.7491731702
 21
5640.7099128234
 31
0.0
  0
LINE
  5
21A
330
1F
100
AcDbEntity
  8
0
  6
Continuous
 62
     7
100
AcDbLine
 10
6050.2905781328
 20
5640.7111514825
 30
0.0
 11
6050.2905483304
 21
5625.5397488828
 31
0.0
  0
LINE
  5
21B
330
1F
100
AcDbEntity
  8
0
  6
Continuous
 62
     7
100
AcDbLine
 10
6049.0198667108
 20
5639.5704489666
 30
0.0
 11
6050.2198870241
 21
5639.5704452413
 31
0.0
  0
LINE
  5
21C
330
1F
100
AcDbEntity
  8
0
  6
Continuous
 62
     7
100
AcDbLine
 10
6049.0198667108
 20
5639.5704489666
 30
0.0
 11
6049.0198369085
 21
5624.3928907904
 31
0.0
  0
LINE
  5
21D
330
1F
100
AcDbEntity
  8
0
  6
Continuous
 62
     7
100
AcDbLine
 10
6050.2198870241
 20
5639.5704452413
 30
0.0
 11
6050.2198274194
 21
5624.3928875308
 31
0.0
  0
LINE
  5
21E
330
1F
100
AcDbEntity
  8
0
  6
Continuous
 62
     7
100
AcDbLine
 10
6497.8198791801
 20
5639.5692084449
 30
0.0
 11
6497.8198344766
 21
5624.3916493374
 31
0.0
  0
LINE
  5
21F
330
1F
100
AcDbEntity
  8
0
  6
Continuous
 62
     7
100
AcDbLine
 10
6499.019868686
 20
5639.5692047197
 30
0.0
 11
6497.8198791801
 21
5639.5692084449
 31
0.0
  0
LINE
  5
220
330
1F
100
AcDbEntity
  8
0
  6
Continuous
 62
     7
100
AcDbLine
 10
6499.019868686
 20
5639.5692047197
 30
0.0
 11
6499.0198239825
 21
5624.3916460778
 31
0.0
  0
LINE
  5
221
330
1F
100
AcDbEntity
  8
0
  6
Continuous
 62
     7
100
AcDbLine
 10
6497.7491731702
 20
5640.7099128234
 30
0.0
 11
6497.665860778
 21
5640.7938920426
 31
0.0
  0
LINE
  5
222
330
1F
100
AcDbEntity
  8
0
  6
Continuous
 62
     7
100
AcDbLine
 10
6050.2905781328
 20
5639.0957110095
 30
0.0
 11
6050.2198870241
 21
5639.0957110095
 31
0.0
  0
LINE
  5
223
330
1F
100
AcDbEntity
  8
0
  6
Continuous
 62
     7
100
AcDbLine
 10
6497.8198791801
 20
5639.0944742131
 30
0.0
 11
6497.7491582691
 21
5639.0944742131
 31
0.0
  0
LINE
  5
224
330
1F
100
AcDbEntity
  8
0
  6
Continuous
 62
     7
100
AcDbLine
 10
6281.5689305722
 20
5298.7939626443
 30
0.0
 11
6279.7175507008
 21
5298.7939626443
 31
0.0
  0
LINE
  5
225
330
1F
100
AcDbEntity
  8
0
  6
Continuous
 62
     7
100
AcDbLine
 10
6279.7175507008
 20
5298.7939626443
 30
0.0
 11
6277.8352658211
 21
5298.7939626443
 31
0.0
  0
LINE
  5
226
330
1F
100
AcDbEntity
  8
0
  6
Continuous
 62
     7
100
AcDbLine
 10
6277.8352658211
 20
5298.7939626443
 30
0.0
 11
6275.9322869538
 21
5298.7939626443
 31
0.0
  0
LINE
  5
227
330
1F
100
AcDbEntity
  8
0
  6
Continuous
 62
     7
100
AcDbLine
 10
6275.9322869538
 20
5298.7939626443
 30
0.0
 11
6274.018933153
 21
5298.7939924467
 31
0.0
  0
LINE
  5
228
330
1F
100
AcDbEntity
  8
0
  6
Continuous
 62
     7
100
AcDbLine
 10
6274.018933153
 20
5298.7939924467
 30
0.0
 11
6272.105575627
 21
5298.7939924467
 31
0.0
  0
LINE
  5
229
330
1F
100
AcDbEntity
  8
0
  6
Continuous
 62
     7
100
AcDbLine
 10
6272.105575627
 20
5298.7939924467
 30
0.0
 11
6270.2025967597
 21
5298.7939924467
 31
0.0
  0
LINE
  5
22A
330
1F
100
AcDbEntity
  8
0
  6
Continuous
 62
     7
100
AcDbLine
 10
6270.2025967597
 20
5298.7939924467
 30
0.0
 11
6268.3203156053
 21
5298.7939924467
 31
0.0
  0
LINE
  5
22B
330
1F
100
AcDbEntity
  8
0
  6
Continuous
 62
     7
100
AcDbLine
 10
6268.3203156053
 20
5298.7939924467
 30
0.0
 11
6266.4689282833
 21
5298.7939924467
 31
0.0
  0
LINE
  5
22C
330
1F
100
AcDbEntity
  8
0
  6
Continuous
 62
     7
100
AcDbLine
 10
6281.5689603745
 20
5309.4439715612
 30
0.0
 11
6279.7175805031
 21
5309.4439715612
 31
0.0
  0
LINE
  5
22D
330
1F
100
AcDbEntity
  8
0
  6
Continuous
 62
     7
100
AcDbLine
 10
6279.7175805031
 20
5309.4439715612
 30
0.0
 11
6277.8352956234
 21
5309.4439715612
 31
0.0
  0
LINE
  5
22E
330
1F
100
AcDbEntity
  8
0
  6
Continuous
 62
     7
100
AcDbLine
 10
6277.8352956234
 20
5309.4439715612
 30
0.0
 11
6275.9323167561
 21
5309.4439715612
 31
0.0
  0
LINE
  5
22F
330
1F
100
AcDbEntity
  8
0
  6
Continuous
 62
     7
100
AcDbLine
 10
6275.9323167561
 20
5309.4439715612
 30
0.0
 11
6274.0189592301
 21
5309.4439715612
 31
0.0
  0
LINE
  5
230
330
1F
100
AcDbEntity
  8
0
  6
Continuous
 62
     7
100
AcDbLine
 10
6274.0189592301
 20
5309.4439715612
 30
0.0
 11
6272.1056054293
 21
5309.4439715612
 31
0.0
  0
LINE
  5
231
330
1F
100
AcDbEntity
  8
0
  6
Continuous
 62
     7
100
AcDbLine
 10
6272.1056054293
 20
5309.4439715612
 30
0.0
 11
6270.202626562
 21
5309.4440013635
 31
0.0
  0
LINE
  5
232
330
1F
100
AcDbEntity
  8
0
  6
Continuous
 62
     7
100
AcDbLine
 10
6270.202626562
 20
5309.4440013635
 30
0.0
 11
6268.320337957
 21
5309.4440013635
 31
0.0
  0
LINE
  5
233
330
1F
100
AcDbEntity
  8
0
  6
Continuous
 62
     7
100
AcDbLine
 10
6268.320337957
 20
5309.4440013635
 30
0.0
 11
6266.4689580857
 21
5309.4440013635
 31
0.0
  0
LINE
  5
234
330
1F
100
AcDbEntity
  8
0
  6
Continuous
 62
     7
100
AcDbLine
 10
6281.5689305722
 20
5298.8439709413
 30
0.0
 11
6279.7175507008
 21
5298.8439709413
 31
0.0
  0
LINE
  5
235
330
1F
100
AcDbEntity
  8
0
  6
Continuous
 62
     7
100
AcDbLine
 10
6279.7175507008
 20
5298.8439709413
 30
0.0
 11
6277.8352658211
 21
5298.8439709413
 31
0.0
  0
LINE
  5
236
330
1F
100
AcDbEntity
  8
0
  6
Continuous
 62
     7
100
AcDbLine
 10
6277.8352658211
 20
5298.8439709413
 30
0.0
 11
6275.9322869538
 21
5298.8439709413
 31
0.0
  0
LINE
  5
237
330
1F
100
AcDbEntity
  8
0
  6
Continuous
 62
     7
100
AcDbLine
 10
6275.9322869538
 20
5298.8439709413
 30
0.0
 11
6274.018933153
 21
5298.8439709413
 31
0.0
  0
LINE
  5
238
330
1F
100
AcDbEntity
  8
0
  6
Continuous
 62
     7
100
AcDbLine
 10
6274.018933153
 20
5298.8439709413
 30
0.0
 11
6272.105575627
 21
5298.8439709413
 31
0.0
  0
LINE
  5
239
330
1F
100
AcDbEntity
  8
0
  6
Continuous
 62
     7
100
AcDbLine
 10
6272.105575627
 20
5298.8439709413
 30
0.0
 11
6270.2025967597
 21
5298.8440007436
 31
0.0
  0
LINE
  5
23A
330
1F
100
AcDbEntity
  8
0
  6
Continuous
 62
     7
100
AcDbLine
 10
6270.2025967597
 20
5298.8440007436
 30
0.0
 11
6268.3203156053
 21
5298.8440007436
 31
0.0
  0
LINE
  5
23B
330
1F
100
AcDbEntity
  8
0
  6
Continuous
 62
     7
100
AcDbLine
 10
6268.3203156053
 20
5298.8440007436
 30
0.0
 11
6266.4689282833
 21
5298.8440007436
 31
0.0
  0
LINE
  5
23C
330
1F
100
AcDbEntity
  8
0
  6
Continuous
 62
     7
100
AcDbLine
 10
6154.4155712186
 20
4789.2151087987
 30
0.0
 11
6154.4266278802
 21
4789.2151087987
 31
0.0
  0
LINE
  5
23D
330
1F
100
AcDbEntity
  8
0
  6
Continuous
 62
     7
100
AcDbLine
 10
6154.4266278802
 20
4789.2151087987
 30
0.0
 11
6154.6914811193
 21
4789.2151087987
 31
0.0
  0
LINE
  5
23E
330
1F
100
AcDbEntity
  8
0
  6
Continuous
 62
     7
100
AcDbLine
 10
6154.6914811193
 20
4789.2151087987
 30
0.0
 11
6155.3060944139
 21
4789.2151087987
 31
0.0
  0
LINE
  5
23F
330
1F
100
AcDbEntity
  8
0
  6
Continuous
 62
     7
100
AcDbLine
 10
6155.3060944139
 20
4789.2151087987
 30
0.0
 11
6156.2624807416
 21
4789.2151087987
 31
0.0
  0
LINE
  5
240
330
1F
100
AcDbEntity
  8
0
  6
Continuous
 62
     7
100
AcDbLine
 10
6156.2624807416
 20
4789.2151087987
 30
0.0
 11
6157.5481529294
 21
4789.2151087987
 31
0.0
  0
LINE
  5
241
330
1F
100
AcDbEntity
  8
0
  6
Continuous
 62
     7
100
AcDbLine
 10
6157.5481529294
 20
4789.2151087987
 30
0.0
 11
6159.1463769733
 21
4789.2151087987
 31
0.0
  0
LINE
  5
242
330
1F
100
AcDbEntity
  8
0
  6
Continuous
 62
     7
100
AcDbLine
 10
6159.1463769733
 20
4789.2151087987
 30
0.0
 11
6161.0362763463
 21
4789.2151087987
 31
0.0
  0
LINE
  5
243
330
1F
100
AcDbEntity
  8
0
  6
Continuous
 62
     7
100
AcDbLine
 10
6161.0362763463
 20
4789.2151087987
 30
0.0
 11
6163.1932492315
 21
4789.2151087987
 31
0.0
  0
LINE
  5
244
330
1F
100
AcDbEntity
  8
0
  6
Continuous
 62
     7
100
AcDbLine
 10
6163.1932492315
 20
4789.2151087987
 30
0.0
 11
6165.5891622363
 21
4789.2151087987
 31
0.0
  0
LINE
  5
245
330
1F
100
AcDbEntity
  8
0
  6
Continuous
 62
     7
100
AcDbLine
 10
6165.5891622363
 20
4789.2151087987
 30
0.0
 11
6168.1927676259
 21
4789.2150491941
 31
0.0
  0
LINE
  5
246
330
1F
100
AcDbEntity
  8
0
  6
Continuous
 62
     7
100
AcDbLine
 10
6168.1927676259
 20
4789.2150491941
 30
0.0
 11
6170.9701503574
 21
4789.2150491941
 31
0.0
  0
LINE
  5
247
330
1F
100
AcDbEntity
  8
0
  6
Continuous
 62
     7
100
AcDbLine
 10
6170.9701503574
 20
4789.2150491941
 30
0.0
 11
6173.8850857078
 21
4789.2150491941
 31
0.0
  0
LINE
  5
248
330
1F
100
AcDbEntity
  8
0
  6
Continuous
 62
     7
100
AcDbLine
 10
6173.8850857078
 20
4789.2150491941
 30
0.0
 11
6176.8995757161
 21
4789.2150491941
 31
0.0
  0
LINE
  5
249
330
1F
100
AcDbEntity
  8
0
  6
Continuous
 62
     7
100
AcDbLine
 10
6176.8995757161
 20
4789.2150491941
 30
0.0
 11
6179.9743260204
 21
4789.2150491941
 31
0.0
  0
LINE
  5
24A
330
1F
100
AcDbEntity
  8
0
  6
Continuous
 62
     7
100
AcDbLine
 10
6179.9743260204
 20
4789.2150491941
 30
0.0
 11
6183.0692524968
 21
4789.2150491941
 31
0.0
  0
LINE
  5
24B
330
1F
100
AcDbEntity
  8
0
  6
Continuous
 62
     7
100
AcDbLine
 10
6183.0692524968
 20
4789.2150491941
 30
0.0
 11
6186.1440028011
 21
4789.2150491941
 31
0.0
  0
LINE
  5
24C
330
1F
100
AcDbEntity
  8
0
  6
Continuous
 62
     7
100
AcDbLine
 10
6186.1440028011
 20
4789.2150491941
 30
0.0
 11
6189.1584928094
 21
4789.2149895894
 31
0.0
  0
LINE
  5
24D
330
1F
100
AcDbEntity
  8
0
  6
Continuous
 62
     7
100
AcDbLine
 10
6189.1584928094
 20
4789.2149895894
 30
0.0
 11
6192.0734281598
 21
4789.2149895894
 31
0.0
  0
LINE
  5
24E
330
1F
100
AcDbEntity
  8
0
  6
Continuous
 62
     7
100
AcDbLine
 10
6192.0734281598
 20
4789.2149895894
 30
0.0
 11
6194.8508108913
 21
4789.2149895894
 31
0.0
  0
LINE
  5
24F
330
1F
100
AcDbEntity
  8
0
  6
Continuous
 62
     7
100
AcDbLine
 10
6194.8508108913
 20
4789.2149895894
 30
0.0
 11
6197.4544162809
 21
4789.2149895894
 31
0.0
  0
LINE
  5
250
330
1F
100
AcDbEntity
  8
0
  6
Continuous
 62
     7
100
AcDbLine
 10
6197.4544162809
 20
4789.2149895894
 30
0.0
 11
6199.8503292858
 21
4789.2149895894
 31
0.0
  0
LINE
  5
251
330
1F
100
AcDbEntity
  8
0
  6
Continuous
 62
     7
100
AcDbLine
 10
6199.8503292858
 20
4789.2149895894
 30
0.0
 11
6202.0073021709
 21
4789.2149895894
 31
0.0
  0
LINE
  5
252
330
1F
100
AcDbEntity
  8
0
  6
Continuous
 62
     7
100
AcDbLine
 10
6202.0073021709
 20
4789.2149895894
 30
0.0
 11
6203.8972015439
 21
4789.2149895894
 31
0.0
  0
LINE
  5
253
330
1F
100
AcDbEntity
  8
0
  6
Continuous
 62
     7
100
AcDbLine
 10
6203.8972015439
 20
4789.2149895894
 30
0.0
 11
6205.4954106866
 21
4789.2149895894
 31
0.0
  0
LINE
  5
254
330
1F
100
AcDbEntity
  8
0
  6
Continuous
 62
     7
100
AcDbLine
 10
6205.4954106866
 20
4789.2149895894
 30
0.0
 11
6206.7810977756
 21
4789.2149895894
 31
0.0
  0
LINE
  5
255
330
1F
100
AcDbEntity
  8
0
  6
Continuous
 62
     7
100
AcDbLine
 10
6206.7810977756
 20
4789.2149895894
 30
0.0
 11
6207.7374766528
 21
4789.2149895894
 31
0.0
  0
LINE
  5
256
330
1F
100
AcDbEntity
  8
0
  6
Continuous
 62
     7
100
AcDbLine
 10
6207.7374766528
 20
4789.2149895894
 30
0.0
 11
6208.3520973979
 21
4789.2149895894
 31
0.0
  0
LINE
  5
257
330
1F
100
AcDbEntity
  8
0
  6
Continuous
 62
     7
100
AcDbLine
 10
6208.3520973979
 20
4789.2149895894
 30
0.0
 11
6208.616950637
 21
4789.2149895894
 31
0.0
  0
LINE
  5
258
330
1F
100
AcDbEntity
  8
0
  6
Continuous
 62
     7
100
AcDbLine
 10
6208.616950637
 20
4789.2149895894
 30
0.0
 11
6208.627999848
 21
4789.2149895894
 31
0.0
  0
LINE
  5
259
330
1F
100
AcDbEntity
  8
0
  6
Continuous
 62
     7
100
AcDbLine
 10
6963.1793872649
 20
4854.5206994283
 30
0.0
 11
6978.1793915862
 21
4854.5206994283
 31
0.0
  0
LINE
  5
25A
330
1F
100
AcDbEntity
  8
0
  6
Continuous
 62
     7
100
AcDbLine
 10
7099.2998630936
 20
4855.3444952238
 30
0.0
 11
7106.0731784636
 21
4789.2150491941
 31
0.0
  0
LINE
  5
25B
330
1F
100
AcDbEntity
  8
0
  6
Continuous
 62
     7
100
AcDbLine
 10
7160.2855996425
 20
4789.2150491941
 30
0.0
 11
7167.0589224631
 21
4855.3444952238
 31
0.0
  0
LINE
  5
25C
330
1F
100
AcDbEntity
  8
0
  6
Continuous
 62
     7
100
AcDbLine
 10
6950.0474185879
 20
4884.4515163916
 30
0.0
 11
6950.4026622707
 21
4884.4515163916
 31
0.0
  0
LINE
  5
25D
330
1F
100
AcDbEntity
  8
0
  6
Continuous
 62
     7
100
AcDbLine
 10
6950.4026622707
 20
4904.8515171277
 30
0.0
 11
6950.0474185879
 21
4904.8515171277
 31
0.0
  0
LINE
  5
25E
330
1F
100
AcDbEntity
  8
0
  6
Continuous
 62
     7
100
AcDbLine
 10
6948.5376403863
 20
4884.6515160518
 30
0.0
 11
6950.0474185879
 21
4884.6515160518
 31
0.0
  0
LINE
  5
25F
330
1F
100
AcDbEntity
  8
0
  6
Continuous
 62
     7
100
AcDbLine
 10
6946.5838001305
 20
4884.6515160518
 30
0.0
 11
6946.8284697468
 21
4884.6515160518
 31
0.0
  0
LINE
  5
260
330
1F
100
AcDbEntity
  8
0
  6
Continuous
 62
     7
100
AcDbLine
 10
6944.6299524242
 20
4884.6515160518
 30
0.0
 11
6944.8746220404
 21
4884.6515160518
 31
0.0
  0
LINE
  5
261
330
1F
100
AcDbEntity
  8
0
  6
Continuous
 62
     7
100
AcDbLine
 10
6942.6761047179
 20
4884.6515160518
 30
0.0
 11
6942.9207743341
 21
4884.6515160518
 31
0.0
  0
LINE
  5
262
330
1F
100
AcDbEntity
  8
0
  6
Continuous
 62
     7
100
AcDbLine
 10
6940.7222570116
 20
4884.6515160518
 30
0.0
 11
6940.9669340784
 21
4884.6515160518
 31
0.0
  0
LINE
  5
263
330
1F
100
AcDbEntity
  8
0
  6
Continuous
 62
     7
100
AcDbLine
 10
6939.9896488721
 20
4904.6515174674
 30
0.0
 11
6939.7457392151
 21
4904.6515174674
 31
0.0
  0
LINE
  5
264
330
1F
100
AcDbEntity
  8
0
  6
Continuous
 62
     7
100
AcDbLine
 10
6941.9434891278
 20
4904.6515174674
 30
0.0
 11
6941.6995869214
 21
4904.6515174674
 31
0.0
  0
LINE
  5
265
330
1F
100
AcDbEntity
  8
0
  6
Continuous
 62
     7
100
AcDbLine
 10
6943.8973368341
 20
4904.6515174674
 30
0.0
 11
6943.6534346277
 21
4904.6515174674
 31
0.0
  0
LINE
  5
266
330
1F
100
AcDbEntity
  8
0
  6
Continuous
 62
     7
100
AcDbLine
 10
6945.8511845404
 20
4904.6515174674
 30
0.0
 11
6945.6072748834
 21
4904.6515174674
 31
0.0
  0
LINE
  5
267
330
1F
100
AcDbEntity
  8
0
  6
Continuous
 62
     7
100
AcDbLine
 10
6950.0474185879
 20
4904.6515174674
 30
0.0
 11
6947.5611225898
 21
4904.6515174674
 31
0.0
  0
LINE
  5
268
330
1F
100
AcDbEntity
  8
0
  6
Continuous
 62
     7
100
AcDbLine
 10
6950.25135588
 20
5057.1595639455
 30
0.0
 11
6950.4026622707
 21
5057.8236788976
 31
0.0
  0
LINE
  5
269
330
1F
100
AcDbEntity
  8
0
  6
Continuous
 62
     7
100
AcDbLine
 10
6938.5247902209
 20
4903.6288898903
 30
0.0
 11
6938.0474166209
 21
4903.1515181529
 31
0.0
  0
LINE
  5
26A
330
1F
100
AcDbEntity
  8
0
  6
Continuous
 62
     7
100
AcDbLine
 10
6938.0474166209
 20
4886.1515190917
 30
0.0
 11
6939.14818775
 21
4885.0507479625
 31
0.0
  0
LINE
  5
26B
330
1F
100
AcDbEntity
  8
0
  6
Continuous
 62
     7
100
AcDbLine
 10
6941.5772260362
 20
4885.7090663629
 30
0.0
 11
6942.0560450489
 21
4885.7090663629
 31
0.0
  0
LINE
  5
26C
330
1F
100
AcDbEntity
  8
0
  6
Continuous
 62
     7
100
AcDbLine
 10
6943.5310737426
 20
4885.7090663629
 30
0.0
 11
6944.0098927552
 21
4885.7090663629
 31
0.0
  0
LINE
  5
26D
330
1F
100
AcDbEntity
  8
0
  6
Continuous
 62
     7
100
AcDbLine
 10
6945.4849214489
 20
4885.7090663629
 30
0.0
 11
6945.9637330109
 21
4885.7090663629
 31
0.0
  0
LINE
  5
26E
330
1F
100
AcDbEntity
  8
0
  6
Continuous
 62
     7
100
AcDbLine
 10
6947.4387691552
 20
4885.7090663629
 30
0.0
 11
6947.9175807173
 21
4885.7090663629
 31
0.0
  0
LINE
  5
26F
330
1F
100
AcDbEntity
  8
0
  6
Continuous
 62
     7
100
AcDbLine
 10
6941.0887659723
 20
4903.5939671564
 30
0.0
 11
6940.6099544102
 21
4903.5939671564
 31
0.0
  0
LINE
  5
270
330
1F
100
AcDbEntity
  8
0
  6
Continuous
 62
     7
100
AcDbLine
 10
6943.0426136786
 20
4903.5939671564
 30
0.0
 11
6942.5638021166
 21
4903.5939671564
 31
0.0
  0
LINE
  5
271
330
1F
100
AcDbEntity
  8
0
  6
Continuous
 62
     7
100
AcDbLine
 10
6944.9964613849
 20
4903.5939671564
 30
0.0
 11
6944.5176423723
 21
4903.5939671564
 31
0.0
  0
LINE
  5
272
330
1F
100
AcDbEntity
  8
0
  6
Continuous
 62
     7
100
AcDbLine
 10
6946.9503016407
 20
4903.5939671564
 30
0.0
 11
6946.4714900786
 21
4903.5939671564
 31
0.0
  0
LINE
  5
273
330
1F
100
AcDbEntity
  8
0
  6
Continuous
 62
     7
100
AcDbLine
 10
6939.134918266
 20
4903.5939671564
 30
0.0
 11
6938.6464582021
 21
4903.5939671564
 31
0.0
  0
LINE
  5
274
330
1F
100
AcDbEntity
  8
0
  6
Continuous
 62
     7
100
AcDbLine
 10
6939.6233783299
 20
4885.7090663629
 30
0.0
 11
6940.1021973426
 21
4885.7090663629
 31
0.0
  0
LINE
  5
275
330
1F
100
AcDbEntity
  8
0
  6
Continuous
 62
     7
100
AcDbLine
 10
6950.0474185879
 20
4884.4515163916
 30
0.0
 11
6950.0474185879
 21
4904.8515171277
 31
0.0
  0
LINE
  5
276
330
1F
100
AcDbEntity
  8
0
  6
Continuous
 62
     7
100
AcDbLine
 10
6938.0474166209
 20
4886.1515190917
 30
0.0
 11
6938.0474166209
 21
4903.1515181529
 31
0.0
  0
LINE
  5
277
330
1F
100
AcDbEntity
  8
0
  6
Continuous
 62
     7
100
AcDbLine
 10
6997.9026654
 20
5469.810044812
 30
0.0
 11
6995.4026640589
 21
5469.810044812
 31
0.0
  0
LINE
  5
278
330
1F
100
AcDbEntity
  8
0
  6
Continuous
 62
     7
100
AcDbLine
 10
6995.4026640589
 20
5409.8100424278
 30
0.0
 11
6997.9026654
 21
5409.8100424278
 31
0.0
  0
LINE
  5
279
330
1F
100
AcDbEntity
  8
0
  6
Continuous
 62
     7
100
AcDbLine
 10
6997.9026654
 20
5409.8100424278
 30
0.0
 11
6998.402662688
 21
5410.3100359905
 31
0.0
  0
LINE
  5
27A
330
1F
100
AcDbEntity
  8
0
  6
Continuous
 62
     7
100
AcDbLine
 10
6998.402662688
 20
5469.3100363481
 30
0.0
 11
6997.9026654
 21
5469.810044812
 31
0.0
  0
LINE
  5
27B
330
1F
100
AcDbEntity
  8
0
  6
Continuous
 62
     7
100
AcDbLine
 10
7009.9026636416
 20
5425.8100450504
 30
0.0
 11
7129.4026673967
 21
5425.8100450504
 31
0.0
  0
LINE
  5
27C
330
1F
100
AcDbEntity
  8
0
  6
Continuous
 62
     7
100
AcDbLine
 10
6998.402662688
 20
5425.8100450504
 30
0.0
 11
7003.773352244
 21
5425.8100450504
 31
0.0
  0
LINE
  5
27D
330
1F
100
AcDbEntity
  8
0
  6
Continuous
 62
     7
100
AcDbLine
 10
7163.4026692445
 20
5453.8100421894
 30
0.0
 11
6998.402662688
 21
5453.8100421894
 31
0.0
  0
LINE
  5
27E
330
1F
100
AcDbEntity
  8
0
  6
Continuous
 62
     7
100
AcDbLine
 10
7164.402671271
 20
5452.8100401628
 30
0.0
 11
7163.4026692445
 21
5453.8100421894
 31
0.0
  0
LINE
  5
27F
330
1F
100
AcDbEntity
  8
0
  6
Continuous
 62
     7
100
AcDbLine
 10
6995.4026640589
 20
5285.3439659345
 30
0.0
 11
6997.4026643867
 21
5285.3439659345
 31
0.0
  0
LINE
  5
280
330
1F
100
AcDbEntity
  8
0
  6
Continuous
 62
     7
100
AcDbLine
 10
6997.4026643867
 20
5325.3439873922
 30
0.0
 11
6995.4026640589
 21
5325.3439873922
 31
0.0
  0
LINE
  5
281
330
1F
100
AcDbEntity
  8
0
  6
Continuous
 62
     7
100
AcDbLine
 10
7004.9026646847
 20
5309.6439749467
 30
0.0
 11
7004.9026646847
 21
5312.4142796266
 31
0.0
  0
LINE
  5
282
330
1F
100
AcDbEntity
  8
0
  6
Continuous
 62
     7
100
AcDbLine
 10
7004.9026646847
 20
5298.2736737001
 30
0.0
 11
7004.9026646847
 21
5298.6439675558
 31
0.0
  0
LINE
  5
283
330
1F
100
AcDbEntity
  8
0
  6
Continuous
 62
     7
100
AcDbLine
 10
6951.5779392058
 20
5156.4946085679
 30
0.0
 11
6951.6233728463
 21
5156.4946085679
 31
0.0
  0
LINE
  5
284
330
1F
100
AcDbEntity
  8
0
  6
Continuous
 62
     7
100
AcDbLine
 10
7004.8026648546
 20
5298.8439709413
 30
0.0
 11
7004.8026648546
 21
5309.4439715612
 31
0.0
  0
LINE
  5
285
330
1F
100
AcDbEntity
  8
0
  6
Continuous
 62
     7
100
AcDbLine
 10
6963.1793872649
 20
4855.3433627355
 30
0.0
 11
6963.1793872649
 21
4854.5206994283
 31
0.0
  0
LINE
  5
286
330
1F
100
AcDbEntity
  8
0
  6
Continuous
 62
     7
100
AcDbLine
 10
7109.0575606758
 20
4786.5207404363
 30
0.0
 11
7109.2334390814
 21
4786.5207404363
 31
0.0
  0
LINE
  5
287
330
1F
100
AcDbEntity
  8
0
  6
Continuous
 62
     7
100
AcDbLine
 10
7109.2334390814
 20
4786.5207404363
 30
0.0
 11
7109.7584963972
 21
4786.5207404363
 31
0.0
  0
LINE
  5
288
330
1F
100
AcDbEntity
  8
0
  6
Continuous
 62
     7
100
AcDbLine
 10
7109.7584963972
 20
4786.5207404363
 30
0.0
 11
7110.6250883276
 21
4786.5207404363
 31
0.0
  0
LINE
  5
289
330
1F
100
AcDbEntity
  8
0
  6
Continuous
 62
     7
100
AcDbLine
 10
7110.6250883276
 20
4786.5207404363
 30
0.0
 11
7111.8205712373
 21
4786.5207404363
 31
0.0
  0
LINE
  5
28A
330
1F
100
AcDbEntity
  8
0
  6
Continuous
 62
     7
100
AcDbLine
 10
7111.8205712373
 20
4786.5207404363
 30
0.0
 11
7113.3275182182
 21
4786.5207404363
 31
0.0
  0
LINE
  5
28B
330
1F
100
AcDbEntity
  8
0
  6
Continuous
 62
     7
100
AcDbLine
 10
7113.3275182182
 20
4786.5207404363
 30
0.0
 11
7115.1239426071
 21
4786.5207404363
 31
0.0
  0
LINE
  5
28C
330
1F
100
AcDbEntity
  8
0
  6
Continuous
 62
     7
100
AcDbLine
 10
7115.1239426071
 20
4786.5207404363
 30
0.0
 11
7117.1836630637
 21
4786.5207404363
 31
0.0
  0
LINE
  5
28D
330
1F
100
AcDbEntity
  8
0
  6
Continuous
 62
     7
100
AcDbLine
 10
7117.1836630637
 20
4786.5207404363
 30
0.0
 11
7119.4766313965
 21
4786.5207404363
 31
0.0
  0
LINE
  5
28E
330
1F
100
AcDbEntity
  8
0
  6
Continuous
 62
     7
100
AcDbLine
 10
7119.4766313965
 20
4786.5207404363
 30
0.0
 11
7121.9694168503
 21
4786.520800041
 31
0.0
  0
LINE
  5
28F
330
1F
100
AcDbEntity
  8
0
  6
Continuous
 62
     7
100
AcDbLine
 10
7121.9694168503
 20
4786.520800041
 30
0.0
 11
7124.6256754929
 21
4786.520800041
 31
0.0
  0
LINE
  5
290
330
1F
100
AcDbEntity
  8
0
  6
Continuous
 62
     7
100
AcDbLine
 10
7124.6256754929
 20
4786.520800041
 30
0.0
 11
7127.4066568548
 21
4786.520800041
 31
0.0
  0
LINE
  5
291
330
1F
100
AcDbEntity
  8
0
  6
Continuous
 62
     7
100
AcDbLine
 10
7127.4066568548
 20
4786.520800041
 30
0.0
 11
7130.2718223268
 21
4786.520800041
 31
0.0
  0
LINE
  5
292
330
1F
100
AcDbEntity
  8
0
  6
Continuous
 62
     7
100
AcDbLine
 10
7130.2718223268
 20
4786.520800041
 30
0.0
 11
7133.179389053
 21
4786.520800041
 31
0.0
  0
LINE
  5
293
330
1F
100
AcDbEntity
  8
0
  6
Continuous
 62
     7
100
AcDbLine
 10
7133.179389053
 20
4786.520800041
 30
0.0
 11
7136.0869557793
 21
4786.520800041
 31
0.0
  0
LINE
  5
294
330
1F
100
AcDbEntity
  8
0
  6
Continuous
 62
     7
100
AcDbLine
 10
7136.0869557793
 20
4786.520800041
 30
0.0
 11
7138.9521212513
 21
4786.520800041
 31
0.0
  0
LINE
  5
295
330
1F
100
AcDbEntity
  8
0
  6
Continuous
 62
     7
100
AcDbLine
 10
7138.9521212513
 20
4786.520800041
 30
0.0
 11
7141.7331100637
 21
4786.520800041
 31
0.0
  0
LINE
  5
296
330
1F
100
AcDbEntity
  8
0
  6
Continuous
 62
     7
100
AcDbLine
 10
7141.7331100637
 20
4786.520800041
 30
0.0
 11
7144.3893612558
 21
4786.520800041
 31
0.0
  0
LINE
  5
297
330
1F
100
AcDbEntity
  8
0
  6
Continuous
 62
     7
100
AcDbLine
 10
7144.3893612558
 20
4786.520800041
 30
0.0
 11
7146.8821541602
 21
4786.5207404363
 31
0.0
  0
LINE
  5
298
330
1F
100
AcDbEntity
  8
0
  6
Continuous
 62
     7
100
AcDbLine
 10
7146.8821541602
 20
4786.5207404363
 30
0.0
 11
7149.175122493
 21
4786.5207404363
 31
0.0
  0
LINE
  5
299
330
1F
100
AcDbEntity
  8
0
  6
Continuous
 62
     7
100
AcDbLine
 10
7149.175122493
 20
4786.5207404363
 30
0.0
 11
7151.234835499
 21
4786.5207404363
 31
0.0
  0
LINE
  5
29A
330
1F
100
AcDbEntity
  8
0
  6
Continuous
 62
     7
100
AcDbLine
 10
7151.234835499
 20
4786.5207404363
 30
0.0
 11
7153.0312673385
 21
4786.5207404363
 31
0.0
  0
LINE
  5
29B
330
1F
100
AcDbEntity
  8
0
  6
Continuous
 62
     7
100
AcDbLine
 10
7153.0312673385
 20
4786.5207404363
 30
0.0
 11
7154.5382068688
 21
4786.5207404363
 31
0.0
  0
LINE
  5
29C
330
1F
100
AcDbEntity
  8
0
  6
Continuous
 62
     7
100
AcDbLine
 10
7154.5382068688
 20
4786.5207404363
 30
0.0
 11
7155.7336897785
 21
4786.5207404363
 31
0.0
  0
LINE
  5
29D
330
1F
100
AcDbEntity
  8
0
  6
Continuous
 62
     7
100
AcDbLine
 10
7155.7336897785
 20
4786.5207404363
 30
0.0
 11
7156.6002817089
 21
4786.5207404363
 31
0.0
  0
LINE
  5
29E
330
1F
100
AcDbEntity
  8
0
  6
Continuous
 62
     7
100
AcDbLine
 10
7156.6002817089
 20
4786.5207404363
 30
0.0
 11
7157.1253464753
 21
4786.5207404363
 31
0.0
  0
LINE
  5
29F
330
1F
100
AcDbEntity
  8
0
  6
Continuous
 62
     7
100
AcDbLine
 10
7157.1253464753
 20
4786.5207404363
 30
0.0
 11
7157.3012174303
 21
4786.5207404363
 31
0.0
  0
LINE
  5
2A0
330
1F
100
AcDbEntity
  8
0
  6
Continuous
 62
     7
100
AcDbLine
 10
7157.3012174303
 20
4786.5207404363
 30
0.0
 11
7157.1253464753
 21
4786.5206808317
 31
0.0
  0
LINE
  5
2A1
330
1F
100
AcDbEntity
  8
0
  6
Continuous
 62
     7
100
AcDbLine
 10
7157.1253464753
 20
4786.5206808317
 30
0.0
 11
7156.6002817089
 21
4786.5206808317
 31
0.0
  0
LINE
  5
2A2
330
1F
100
AcDbEntity
  8
0
  6
Continuous
 62
     7
100
AcDbLine
 10
7156.6002817089
 20
4786.5206808317
 30
0.0
 11
7155.7336897785
 21
4786.5206808317
 31
0.0
  0
LINE
  5
2A3
330
1F
100
AcDbEntity
  8
0
  6
Continuous
 62
     7
100
AcDbLine
 10
7155.7336897785
 20
4786.5206808317
 30
0.0
 11
7154.5382068688
 21
4786.5206808317
 31
0.0
  0
LINE
  5
2A4
330
1F
100
AcDbEntity
  8
0
  6
Continuous
 62
     7
100
AcDbLine
 10
7154.5382068688
 20
4786.5206808317
 30
0.0
 11
7153.0312673385
 21
4786.5206808317
 31
0.0
  0
LINE
  5
2A5
330
1F
100
AcDbEntity
  8
0
  6
Continuous
 62
     7
100
AcDbLine
 10
7153.0312673385
 20
4786.5206808317
 30
0.0
 11
7151.234835499
 21
4786.5206808317
 31
0.0
  0
LINE
  5
2A6
330
1F
100
AcDbEntity
  8
0
  6
Continuous
 62
     7
100
AcDbLine
 10
7151.234835499
 20
4786.5206808317
 30
0.0
 11
7149.175122493
 21
4786.5206808317
 31
0.0
  0
LINE
  5
2A7
330
1F
100
AcDbEntity
  8
0
  6
Continuous
 62
     7
100
AcDbLine
 10
7149.175122493
 20
4786.5206808317
 30
0.0
 11
7146.8821541602
 21
4786.5206808317
 31
0.0
  0
LINE
  5
2A8
330
1F
100
AcDbEntity
  8
0
  6
Continuous
 62
     7
100
AcDbLine
 10
7146.8821541602
 20
4786.5206808317
 30
0.0
 11
7144.3893612558
 21
4786.5206808317
 31
0.0
  0
LINE
  5
2A9
330
1F
100
AcDbEntity
  8
0
  6
Continuous
 62
     7
100
AcDbLine
 10
7144.3893612558
 20
4786.5206808317
 30
0.0
 11
7141.7331100637
 21
4786.5206808317
 31
0.0
  0
LINE
  5
2AA
330
1F
100
AcDbEntity
  8
0
  6
Continuous
 62
     7
100
AcDbLine
 10
7141.7331100637
 20
4786.5206808317
 30
0.0
 11
7138.9521212513
 21
4786.520621227
 31
0.0
  0
LINE
  5
2AB
330
1F
100
AcDbEntity
  8
0
  6
Continuous
 62
     7
100
AcDbLine
 10
7138.9521212513
 20
4786.520621227
 30
0.0
 11
7136.0869557793
 21
4786.520621227
 31
0.0
  0
LINE
  5
2AC
330
1F
100
AcDbEntity
  8
0
  6
Continuous
 62
     7
100
AcDbLine
 10
7136.0869557793
 20
4786.520621227
 30
0.0
 11
7133.179389053
 21
4786.520621227
 31
0.0
  0
LINE
  5
2AD
330
1F
100
AcDbEntity
  8
0
  6
Continuous
 62
     7
100
AcDbLine
 10
7133.179389053
 20
4786.520621227
 30
0.0
 11
7130.2718223268
 21
4786.520621227
 31
0.0
  0
LINE
  5
2AE
330
1F
100
AcDbEntity
  8
0
  6
Continuous
 62
     7
100
AcDbLine
 10
7130.2718223268
 20
4786.520621227
 30
0.0
 11
7127.4066568548
 21
4786.520621227
 31
0.0
  0
LINE
  5
2AF
330
1F
100
AcDbEntity
  8
0
  6
Continuous
 62
     7
100
AcDbLine
 10
7127.4066568548
 20
4786.520621227
 30
0.0
 11
7124.6256754929
 21
4786.5206808317
 31
0.0
  0
LINE
  5
2B0
330
1F
100
AcDbEntity
  8
0
  6
Continuous
 62
     7
100
AcDbLine
 10
7124.6256754929
 20
4786.5206808317
 30
0.0
 11
7121.9694168503
 21
4786.5206808317
 31
0.0
  0
LINE
  5
2B1
330
1F
100
AcDbEntity
  8
0
  6
Continuous
 62
     7
100
AcDbLine
 10
7121.9694168503
 20
4786.5206808317
 30
0.0
 11
7119.4766313965
 21
4786.5206808317
 31
0.0
  0
LINE
  5
2B2
330
1F
100
AcDbEntity
  8
0
  6
Continuous
 62
     7
100
AcDbLine
 10
7119.4766313965
 20
4786.5206808317
 30
0.0
 11
7117.1836630637
 21
4786.5206808317
 31
0.0
  0
LINE
  5
2B3
330
1F
100
AcDbEntity
  8
0
  6
Continuous
 62
     7
100
AcDbLine
 10
7117.1836630637
 20
4786.5206808317
 30
0.0
 11
7115.1239426071
 21
4786.5206808317
 31
0.0
  0
LINE
  5
2B4
330
1F
100
AcDbEntity
  8
0
  6
Continuous
 62
     7
100
AcDbLine
 10
7115.1239426071
 20
4786.5206808317
 30
0.0
 11
7113.3275182182
 21
4786.5206808317
 31
0.0
  0
LINE
  5
2B5
330
1F
100
AcDbEntity
  8
0
  6
Continuous
 62
     7
100
AcDbLine
 10
7113.3275182182
 20
4786.5206808317
 30
0.0
 11
7111.8205712373
 21
4786.5206808317
 31
0.0
  0
LINE
  5
2B6
330
1F
100
AcDbEntity
  8
0
  6
Continuous
 62
     7
100
AcDbLine
 10
7111.8205712373
 20
4786.5206808317
 30
0.0
 11
7110.6250883276
 21
4786.5206808317
 31
0.0
  0
LINE
  5
2B7
330
1F
100
AcDbEntity
  8
0
  6
Continuous
 62
     7
100
AcDbLine
 10
7110.6250883276
 20
4786.5206808317
 30
0.0
 11
7109.7584963972
 21
4786.5206808317
 31
0.0
  0
LINE
  5
2B8
330
1F
100
AcDbEntity
  8
0
  6
Continuous
 62
     7
100
AcDbLine
 10
7109.7584963972
 20
4786.5206808317
 30
0.0
 11
7109.2334390814
 21
4786.5206808317
 31
0.0
  0
LINE
  5
2B9
330
1F
100
AcDbEntity
  8
0
  6
Continuous
 62
     7
100
AcDbLine
 10
7109.2334390814
 20
4786.5206808317
 30
0.0
 11
7109.0575606758
 21
4786.5207404363
 31
0.0
  0
LINE
  5
2BA
330
1F
100
AcDbEntity
  8
0
  6
Continuous
 62
     7
100
AcDbLine
 10
6949.9026612574
 20
5585.1302654016
 30
0.0
 11
6950.4026622707
 21
5585.1302654016
 31
0.0
  0
LINE
  5
2BB
330
1F
100
AcDbEntity
  8
0
  6
Continuous
 62
     7
100
AcDbLine
 10
6949.9026612574
 20
5585.1302654016
 30
0.0
 11
6950.4026622707
 21
5585.1302654016
 31
0.0
  0
LINE
  5
2BC
330
1F
100
AcDbEntity
  8
0
  6
Continuous
 62
     7
100
AcDbLine
 10
6950.4026622707
 20
5634.9197984207
 30
0.0
 11
6949.9026612574
 21
5634.9197984207
 31
0.0
  0
LINE
  5
2BD
330
1F
100
AcDbEntity
  8
0
  6
Continuous
 62
     7
100
AcDbLine
 10
6949.9026612574
 20
5585.1302654016
 30
0.0
 11
6949.9026612574
 21
5634.9197984207
 31
0.0
  0
LINE
  5
2BE
330
1F
100
AcDbEntity
  8
0
  6
Continuous
 62
     7
100
AcDbLine
 10
7007.2905627275
 20
5425.8100450504
 30
0.0
 11
7006.9900100315
 21
5425.8100450504
 31
0.0
  0
LINE
  5
2BF
330
1F
100
AcDbEntity
  8
0
  6
Continuous
 62
     7
100
AcDbLine
 10
7006.9900100315
 20
5425.8100450504
 30
0.0
 11
7006.9045202071
 21
5425.8100450504
 31
0.0
  0
LINE
  5
2C0
330
1F
100
AcDbEntity
  8
0
  6
Continuous
 62
     7
100
AcDbLine
 10
7006.9045202071
 20
5425.8100450504
 30
0.0
 11
7007.0471094186
 21
5425.8100450504
 31
0.0
  0
LINE
  5
2C1
330
1F
100
AcDbEntity
  8
0
  6
Continuous
 62
     7
100
AcDbLine
 10
7007.0471094186
 20
5425.8100450504
 30
0.0
 11
7007.3960703993
 21
5425.8100301492
 31
0.0
  0
LINE
  5
2C2
330
1F
100
AcDbEntity
  8
0
  6
Continuous
 62
     7
100
AcDbLine
 10
7007.3960703993
 20
5425.8100301492
 30
0.0
 11
7007.8982749218
 21
5425.8100301492
 31
0.0
  0
LINE
  5
2C3
330
1F
100
AcDbEntity
  8
0
  6
Continuous
 62
     7
100
AcDbLine
 10
7007.8982749218
 20
5425.8100301492
 30
0.0
 11
7008.4772688532
 21
5425.8100301492
 31
0.0
  0
LINE
  5
2C4
330
1F
100
AcDbEntity
  8
0
  6
Continuous
 62
     7
100
AcDbLine
 10
7008.4772688532
 20
5425.8100301492
 30
0.0
 11
7009.0449043745
 21
5425.8100301492
 31
0.0
  0
LINE
  5
2C5
330
1F
100
AcDbEntity
  8
0
  6
Continuous
 62
     7
100
AcDbLine
 10
7009.0449043745
 20
5425.8100301492
 30
0.0
 11
7009.5147659267
 21
5425.8100301492
 31
0.0
  0
LINE
  5
2C6
330
1F
100
AcDbEntity
  8
0
  6
Continuous
 62
     7
100
AcDbLine
 10
7009.5147659267
 20
5425.8100301492
 30
0.0
 11
7009.8153186226
 21
5425.8100450504
 31
0.0
  0
LINE
  5
2C7
330
1F
100
AcDbEntity
  8
0
  6
Continuous
 62
     7
100
AcDbLine
 10
7009.8153186226
 20
5425.8100450504
 30
0.0
 11
7009.9008084471
 21
5425.8100450504
 31
0.0
  0
LINE
  5
2C8
330
1F
100
AcDbEntity
  8
0
  6
Continuous
 62
     7
100
AcDbLine
 10
7009.9008084471
 20
5425.8100450504
 30
0.0
 11
7009.7582192356
 21
5425.8100450504
 31
0.0
  0
LINE
  5
2C9
330
1F
100
AcDbEntity
  8
0
  6
Continuous
 62
     7
100
AcDbLine
 10
7009.7582192356
 20
5425.8100450504
 30
0.0
 11
7009.4092582548
 21
5425.8100450504
 31
0.0
  0
LINE
  5
2CA
330
1F
100
AcDbEntity
  8
0
  6
Continuous
 62
     7
100
AcDbLine
 10
7009.4092582548
 20
5425.8100450504
 30
0.0
 11
7008.9070537323
 21
5425.8100450504
 31
0.0
  0
LINE
  5
2CB
330
1F
100
AcDbEntity
  8
0
  6
Continuous
 62
     7
100
AcDbLine
 10
7008.9070537323
 20
5425.8100450504
 30
0.0
 11
7008.3280598009
 21
5425.8100450504
 31
0.0
  0
LINE
  5
2CC
330
1F
100
AcDbEntity
  8
0
  6
Continuous
 62
     7
100
AcDbLine
 10
7008.3280598009
 20
5425.8100450504
 30
0.0
 11
7007.7604242796
 21
5425.8100450504
 31
0.0
  0
LINE
  5
2CD
330
1F
100
AcDbEntity
  8
0
  6
Continuous
 62
     7
100
AcDbLine
 10
7007.7604242796
 20
5425.8100450504
 30
0.0
 11
7007.2905627275
 21
5425.8100450504
 31
0.0
  0
LINE
  5
2CE
330
1F
100
AcDbEntity
  8
0
  6
Continuous
 62
     7
100
AcDbLine
 10
7009.0311990315
 20
5425.8100301492
 30
0.0
 11
7009.5558055872
 21
5425.8100450504
 31
0.0
  0
LINE
  5
2CF
330
1F
100
AcDbEntity
  8
0
  6
Continuous
 62
     7
100
AcDbLine
 10
7009.5558055872
 20
5425.8100450504
 30
0.0
 11
7008.9272690201
 21
5425.8100450504
 31
0.0
  0
LINE
  5
2D0
330
1F
100
AcDbEntity
  8
0
  6
Continuous
 62
     7
100
AcDbLine
 10
7008.9272690201
 20
5425.8100450504
 30
0.0
 11
7007.7741296226
 21
5425.8100450504
 31
0.0
  0
LINE
  5
2D1
330
1F
100
AcDbEntity
  8
0
  6
Continuous
 62
     7
100
AcDbLine
 10
7007.7741296226
 20
5425.8100450504
 30
0.0
 11
7007.2495230669
 21
5425.8100450504
 31
0.0
  0
LINE
  5
2D2
330
1F
100
AcDbEntity
  8
0
  6
Continuous
 62
     7
100
AcDbLine
 10
7007.2495230669
 20
5425.8100450504
 30
0.0
 11
7007.878059634
 21
5425.8100301492
 31
0.0
  0
LINE
  5
2D3
330
1F
100
AcDbEntity
  8
0
  6
Continuous
 62
     7
100
AcDbLine
 10
7007.878059634
 20
5425.8100301492
 30
0.0
 11
7009.0311990315
 21
5425.8100301492
 31
0.0
  0
LINE
  5
2D4
330
1F
100
AcDbEntity
  8
0
  6
Continuous
 62
     7
100
AcDbLine
 10
7157.7644051248
 20
5433.4095478523
 30
0.0
 11
7157.8160823519
 21
5433.423391031
 31
0.0
  0
LINE
  5
2D5
330
1F
100
AcDbEntity
  8
0
  6
Continuous
 62
     7
100
AcDbLine
 10
7157.8160823519
 20
5433.423391031
 30
0.0
 11
7157.8530521328
 21
5433.4333003032
 31
0.0
  0
LINE
  5
2D6
330
1F
100
AcDbEntity
  8
0
  6
Continuous
 62
     7
100
AcDbLine
 10
7157.8530521328
 20
5433.4333003032
 30
0.0
 11
7157.875254863
 21
5433.4392458665
 31
0.0
  0
LINE
  5
2D7
330
1F
100
AcDbEntity
  8
0
  6
Continuous
 62
     7
100
AcDbLine
 10
7157.875254863
 20
5433.4392458665
 30
0.0
 11
7157.8826681907
 21
5433.441227721
 31
0.0
  0
LINE
  5
2D8
330
1F
100
AcDbEntity
  8
0
  6
Continuous
 62
     7
100
AcDbLine
 10
7157.8826681907
 20
5433.441227721
 30
0.0
 11
7157.875254863
 21
5433.4392458665
 31
0.0
  0
LINE
  5
2D9
330
1F
100
AcDbEntity
  8
0
  6
Continuous
 62
     7
100
AcDbLine
 10
7157.875254863
 20
5433.4392458665
 30
0.0
 11
7157.8530521328
 21
5433.4333003032
 31
0.0
  0
LINE
  5
2DA
330
1F
100
AcDbEntity
  8
0
  6
Continuous
 62
     7
100
AcDbLine
 10
7157.8530521328
 20
5433.4333003032
 30
0.0
 11
7157.8160823519
 21
5433.423391031
 31
0.0
  0
LINE
  5
2DB
330
1F
100
AcDbEntity
  8
0
  6
Continuous
 62
     7
100
AcDbLine
 10
7157.8160823519
 20
5433.423391031
 30
0.0
 11
7157.7644051248
 21
5433.4095478523
 31
0.0
  0
LINE
  5
2DC
330
1F
100
AcDbEntity
  8
0
  6
Continuous
 62
     7
100
AcDbLine
 10
7154.1575790579
 20
5432.4431181419
 30
0.0
 11
7154.4487551982
 21
5432.5211406219
 31
0.0
  0
LINE
  5
2DD
330
1F
100
AcDbEntity
  8
0
  6
Continuous
 62
     7
100
AcDbLine
 10
7154.4487551982
 20
5432.5211406219
 30
0.0
 11
7154.7308118278
 21
5432.5967193115
 31
0.0
  0
LINE
  5
2DE
330
1F
100
AcDbEntity
  8
0
  6
Continuous
 62
     7
100
AcDbLine
 10
7154.7308118278
 20
5432.5967193115
 30
0.0
 11
7155.0032870108
 21
5432.6697201002
 31
0.0
  0
LINE
  5
2DF
330
1F
100
AcDbEntity
  8
0
  6
Continuous
 62
     7
100
AcDbLine
 10
7155.0032870108
 20
5432.6697201002
 30
0.0
 11
7155.2657188112
 21
5432.7400386798
 31
0.0
  0
LINE
  5
2E0
330
1F
100
AcDbEntity
  8
0
  6
Continuous
 62
     7
100
AcDbLine
 10
7155.2657188112
 20
5432.7400386798
 30
0.0
 11
7155.5176750953
 21
5432.8075558412
 31
0.0
  0
LINE
  5
2E1
330
1F
100
AcDbEntity
  8
0
  6
Continuous
 62
     7
100
AcDbLine
 10
7155.5176750953
 20
5432.8075558412
 30
0.0
 11
7155.7587386305
 21
5432.872152375
 31
0.0
  0
LINE
  5
2E2
330
1F
100
AcDbEntity
  8
0
  6
Continuous
 62
     7
100
AcDbLine
 10
7155.7587386305
 20
5432.872152375
 30
0.0
 11
7155.9885145361
 21
5432.9337090719
 31
0.0
  0
LINE
  5
2E3
330
1F
100
AcDbEntity
  8
0
  6
Continuous
 62
     7
100
AcDbLine
 10
7155.9885145361
 20
5432.9337090719
 30
0.0
 11
7156.2066153819
 21
5432.9921514261
 31
0.0
  0
LINE
  5
2E4
330
1F
100
AcDbEntity
  8
0
  6
Continuous
 62
     7
100
AcDbLine
 10
7141.689084583
 20
5429.1021883953
 30
0.0
 11
7141.9071854288
 21
5429.1606307495
 31
0.0
  0
LINE
  5
2E5
330
1F
100
AcDbEntity
  8
0
  6
Continuous
 62
     7
100
AcDbLine
 10
7141.9071854288
 20
5429.1606307495
 30
0.0
 11
7142.1369613344
 21
5429.2222023475
 31
0.0
  0
LINE
  5
2E6
330
1F
100
AcDbEntity
  8
0
  6
Continuous
 62
     7
100
AcDbLine
 10
7142.1369613344
 20
5429.2222023475
 30
0.0
 11
7142.3780248696
 21
5429.2867988813
 31
0.0
  0
LINE
  5
2E7
330
1F
100
AcDbEntity
  8
0
  6
Continuous
 62
     7
100
AcDbLine
 10
7142.3780248696
 20
5429.2867988813
 30
0.0
 11
7142.6299811537
 21
5429.3543011415
 31
0.0
  0
LINE
  5
2E8
330
1F
100
AcDbEntity
  8
0
  6
Continuous
 62
     7
100
AcDbLine
 10
7142.6299811537
 20
5429.3543011415
 30
0.0
 11
7142.892412954
 21
5429.4246197212
 31
0.0
  0
LINE
  5
2E9
330
1F
100
AcDbEntity
  8
0
  6
Continuous
 62
     7
100
AcDbLine
 10
7142.892412954
 20
5429.4246197212
 30
0.0
 11
7143.164888137
 21
5429.497635411
 31
0.0
  0
LINE
  5
2EA
330
1F
100
AcDbEntity
  8
0
  6
Continuous
 62
     7
100
AcDbLine
 10
7143.164888137
 20
5429.497635411
 30
0.0
 11
7143.4469447667
 21
5429.5732141006
 31
0.0
  0
LINE
  5
2EB
330
1F
100
AcDbEntity
  8
0
  6
Continuous
 62
     7
100
AcDbLine
 10
7143.4469447667
 20
5429.5732141006
 30
0.0
 11
7143.7381283576
 21
5429.6511918771
 31
0.0
  0
LINE
  5
2EC
330
1F
100
AcDbEntity
  8
0
  6
Continuous
 62
     7
100
AcDbLine
 10
7140.13129484
 20
5428.6847621667
 30
0.0
 11
7140.0796250636
 21
5428.670918988
 31
0.0
  0
LINE
  5
2ED
330
1F
100
AcDbEntity
  8
0
  6
Continuous
 62
     7
100
AcDbLine
 10
7140.0796250636
 20
5428.670918988
 30
0.0
 11
7140.0426478321
 21
5428.6610097158
 31
0.0
  0
LINE
  5
2EE
330
1F
100
AcDbEntity
  8
0
  6
Continuous
 62
     7
100
AcDbLine
 10
7140.0426478321
 20
5428.6610097158
 30
0.0
 11
7140.0204451019
 21
5428.6550641525
 31
0.0
  0
LINE
  5
2EF
330
1F
100
AcDbEntity
  8
0
  6
Continuous
 62
     7
100
AcDbLine
 10
7140.0204451019
 20
5428.6550641525
 30
0.0
 11
7140.0130392248
 21
5428.653082298
 31
0.0
  0
LINE
  5
2F0
330
1F
100
AcDbEntity
  8
0
  6
Continuous
 62
     7
100
AcDbLine
 10
7140.0130392248
 20
5428.653082298
 30
0.0
 11
7140.0204451019
 21
5428.6550641525
 31
0.0
  0
LINE
  5
2F1
330
1F
100
AcDbEntity
  8
0
  6
Continuous
 62
     7
100
AcDbLine
 10
7140.0204451019
 20
5428.6550641525
 30
0.0
 11
7140.0426478321
 21
5428.661024617
 31
0.0
  0
LINE
  5
2F2
330
1F
100
AcDbEntity
  8
0
  6
Continuous
 62
     7
100
AcDbLine
 10
7140.0426478321
 20
5428.661024617
 30
0.0
 11
7140.0796250636
 21
5428.670918988
 31
0.0
  0
LINE
  5
2F3
330
1F
100
AcDbEntity
  8
0
  6
Continuous
 62
     7
100
AcDbLine
 10
7140.0796250636
 20
5428.670918988
 30
0.0
 11
7140.13129484
 21
5428.6847770679
 31
0.0
  0
LINE
  5
2F4
330
1F
100
AcDbEntity
  8
0
  6
Continuous
 62
     7
100
AcDbLine
 10
7143.7381283576
 20
5429.6511918771
 30
0.0
 11
7143.4469447667
 21
5429.5731693971
 31
0.0
  0
LINE
  5
2F5
330
1F
100
AcDbEntity
  8
0
  6
Continuous
 62
     7
100
AcDbLine
 10
7143.4469447667
 20
5429.5731693971
 30
0.0
 11
7143.164888137
 21
5429.4975907075
 31
0.0
  0
LINE
  5
2F6
330
1F
100
AcDbEntity
  8
0
  6
Continuous
 62
     7
100
AcDbLine
 10
7143.164888137
 20
5429.4975907075
 30
0.0
 11
7142.892412954
 21
5429.4245899188
 31
0.0
  0
LINE
  5
2F7
330
1F
100
AcDbEntity
  8
0
  6
Continuous
 62
     7
100
AcDbLine
 10
7142.892412954
 20
5429.4245899188
 30
0.0
 11
7142.6299811537
 21
5429.3542713392
 31
0.0
  0
LINE
  5
2F8
330
1F
100
AcDbEntity
  8
0
  6
Continuous
 62
     7
100
AcDbLine
 10
7142.6299811537
 20
5429.3542713392
 30
0.0
 11
7142.3780248696
 21
5429.2867541778
 31
0.0
  0
LINE
  5
2F9
330
1F
100
AcDbEntity
  8
0
  6
Continuous
 62
     7
100
AcDbLine
 10
7142.3780248696
 20
5429.2867541778
 30
0.0
 11
7142.1369613344
 21
5429.2221725452
 31
0.0
  0
LINE
  5
2FA
330
1F
100
AcDbEntity
  8
0
  6
Continuous
 62
     7
100
AcDbLine
 10
7142.1369613344
 20
5429.2221725452
 30
0.0
 11
7141.9071854288
 21
5429.1606009471
 31
0.0
  0
LINE
  5
2FB
330
1F
100
AcDbEntity
  8
0
  6
Continuous
 62
     7
100
AcDbLine
 10
7141.9071854288
 20
5429.1606009471
 30
0.0
 11
7141.689084583
 21
5429.1021585929
 31
0.0
  0
LINE
  5
2FC
330
1F
100
AcDbEntity
  8
0
  6
Continuous
 62
     7
100
AcDbLine
 10
7150.3967420394
 20
5431.4353526103
 30
0.0
 11
7150.0366256768
 21
5431.3388675916
 31
0.0
  0
LINE
  5
2FD
330
1F
100
AcDbEntity
  8
0
  6
Continuous
 62
     7
100
AcDbLine
 10
7150.0366256768
 20
5431.3388675916
 30
0.0
 11
7149.6747062737
 21
5431.2418908346
 31
0.0
  0
LINE
  5
2FE
330
1F
100
AcDbEntity
  8
0
  6
Continuous
 62
     7
100
AcDbLine
 10
7149.6747062737
 20
5431.2418908346
 30
0.0
 11
7149.3115798766
 21
5431.144586252
 31
0.0
  0
LINE
  5
2FF
330
1F
100
AcDbEntity
  8
0
  6
Continuous
 62
     7
100
AcDbLine
 10
7149.3115798766
 20
5431.144586252
 30
0.0
 11
7148.9478499824
 21
5431.0471326578
 31
0.0
  0
LINE
  5
300
330
1F
100
AcDbEntity
  8
0
  6
Continuous
 62
     7
100
AcDbLine
 10
7148.9478499824
 20
5431.0471326578
 30
0.0
 11
7148.5841200883
 21
5430.9496641624
 31
0.0
  0
LINE
  5
301
330
1F
100
AcDbEntity
  8
0
  6
Continuous
 62
     7
100
AcDbLine
 10
7148.5841200883
 20
5430.9496641624
 30
0.0
 11
7148.2210011417
 21
5430.852374481
 31
0.0
  0
LINE
  5
302
330
1F
100
AcDbEntity
  8
0
  6
Continuous
 62
     7
100
AcDbLine
 10
7148.2210011417
 20
5430.852374481
 30
0.0
 11
7147.8590742881
 21
5430.7553977239
 31
0.0
  0
LINE
  5
303
330
1F
100
AcDbEntity
  8
0
  6
Continuous
 62
     7
100
AcDbLine
 10
7147.8590742881
 20
5430.7553977239
 30
0.0
 11
7147.4989653761
 21
5430.658897804
 31
0.0
  0
LINE
  5
304
330
1F
100
AcDbEntity
  8
0
  6
Continuous
 62
     7
100
AcDbLine
 10
7156.2066153819
 20
5432.9921216237
 30
0.0
 11
7155.9885145361
 21
5432.9336792695
 31
0.0
  0
LINE
  5
305
330
1F
100
AcDbEntity
  8
0
  6
Continuous
 62
     7
100
AcDbLine
 10
7155.9885145361
 20
5432.9336792695
 30
0.0
 11
7155.7587386305
 21
5432.8721076715
 31
0.0
  0
LINE
  5
306
330
1F
100
AcDbEntity
  8
0
  6
Continuous
 62
     7
100
AcDbLine
 10
7155.7587386305
 20
5432.8721076715
 30
0.0
 11
7155.5176750953
 21
5432.8075260389
 31
0.0
  0
LINE
  5
307
330
1F
100
AcDbEntity
  8
0
  6
Continuous
 62
     7
100
AcDbLine
 10
7155.5176750953
 20
5432.8075260389
 30
0.0
 11
7155.2657188112
 21
5432.7400088775
 31
0.0
  0
LINE
  5
308
330
1F
100
AcDbEntity
  8
0
  6
Continuous
 62
     7
100
AcDbLine
 10
7155.2657188112
 20
5432.7400088775
 30
0.0
 11
7155.0032870108
 21
5432.6696902978
 31
0.0
  0
LINE
  5
309
330
1F
100
AcDbEntity
  8
0
  6
Continuous
 62
     7
100
AcDbLine
 10
7155.0032870108
 20
5432.6696902978
 30
0.0
 11
7154.7308118278
 21
5432.596674608
 31
0.0
  0
LINE
  5
30A
330
1F
100
AcDbEntity
  8
0
  6
Continuous
 62
     7
100
AcDbLine
 10
7154.7308118278
 20
5432.596674608
 30
0.0
 11
7154.4487551982
 21
5432.5210959184
 31
0.0
  0
LINE
  5
30B
330
1F
100
AcDbEntity
  8
0
  6
Continuous
 62
     7
100
AcDbLine
 10
7154.4487551982
 20
5432.5210959184
 30
0.0
 11
7154.1575790579
 21
5432.4430734384
 31
0.0
  0
LINE
  5
30C
330
1F
100
AcDbEntity
  8
0
  6
Continuous
 62
     7
100
AcDbLine
 10
7142.0354397232
 20
5429.1949928272
 30
0.0
 11
7142.2512532408
 21
5429.2528242338
 31
0.0
  0
LINE
  5
30D
330
1F
100
AcDbEntity
  8
0
  6
Continuous
 62
     7
100
AcDbLine
 10
7142.2512532408
 20
5429.2528242338
 30
0.0
 11
7142.4794794256
 21
5429.3139785993
 31
0.0
  0
LINE
  5
30E
330
1F
100
AcDbEntity
  8
0
  6
Continuous
 62
     7
100
AcDbLine
 10
7142.4794794256
 20
5429.3139785993
 30
0.0
 11
7142.7197084958
 21
5429.3783516157
 31
0.0
  0
LINE
  5
30F
330
1F
100
AcDbEntity
  8
0
  6
Continuous
 62
     7
100
AcDbLine
 10
7142.7197084958
 20
5429.3783516157
 30
0.0
 11
7142.9714934165
 21
5429.4458091724
 31
0.0
  0
LINE
  5
310
330
1F
100
AcDbEntity
  8
0
  6
Continuous
 62
     7
100
AcDbLine
 10
7142.9714934165
 20
5429.4458091724
 30
0.0
 11
7143.2343573505
 21
5429.5162469614
 31
0.0
  0
LINE
  5
311
330
1F
100
AcDbEntity
  8
0
  6
Continuous
 62
     7
100
AcDbLine
 10
7143.2343573505
 20
5429.5162469614
 30
0.0
 11
7143.5078160102
 21
5429.5895159709
 31
0.0
  0
LINE
  5
312
330
1F
100
AcDbEntity
  8
0
  6
Continuous
 62
     7
100
AcDbLine
 10
7143.5078160102
 20
5429.5895159709
 30
0.0
 11
7143.791362756
 21
5429.6654969919
 31
0.0
  0
LINE
  5
313
330
1F
100
AcDbEntity
  8
0
  6
Continuous
 62
     7
100
AcDbLine
 10
7143.791362756
 20
5429.6654969919
 30
0.0
 11
7144.0844760472
 21
5429.743996309
 31
0.0
  0
LINE
  5
314
330
1F
100
AcDbEntity
  8
0
  6
Continuous
 62
     7
100
AcDbLine
 10
7142.0354397232
 20
5429.1949928272
 30
0.0
 11
7141.689084583
 21
5429.1021883953
 31
0.0
  0
LINE
  5
315
330
1F
100
AcDbEntity
  8
0
  6
Continuous
 62
     7
100
AcDbLine
 10
7153.8112239177
 20
5432.35031371
 30
0.0
 11
7154.1575790579
 21
5432.4431181419
 31
0.0
  0
LINE
  5
316
330
1F
100
AcDbEntity
  8
0
  6
Continuous
 62
     7
100
AcDbLine
 10
7153.8112239177
 20
5432.35031371
 30
0.0
 11
7154.1043372089
 21
5432.4288577306
 31
0.0
  0
LINE
  5
317
330
1F
100
AcDbEntity
  8
0
  6
Continuous
 62
     7
100
AcDbLine
 10
7154.1043372089
 20
5432.4288577306
 30
0.0
 11
7154.3878839547
 21
5432.5048238504
 31
0.0
  0
LINE
  5
318
330
1F
100
AcDbEntity
  8
0
  6
Continuous
 62
     7
100
AcDbLine
 10
7154.3878839547
 20
5432.5048238504
 30
0.0
 11
7154.6613500649
 21
5432.5781077611
 31
0.0
  0
LINE
  5
319
330
1F
100
AcDbEntity
  8
0
  6
Continuous
 62
     7
100
AcDbLine
 10
7154.6613500649
 20
5432.5781077611
 30
0.0
 11
7154.924213999
 21
5432.6485306489
 31
0.0
  0
LINE
  5
31A
330
1F
100
AcDbEntity
  8
0
  6
Continuous
 62
     7
100
AcDbLine
 10
7154.924213999
 20
5432.6485306489
 30
0.0
 11
7155.1759914691
 21
5432.7160031068
 31
0.0
  0
LINE
  5
31B
330
1F
100
AcDbEntity
  8
0
  6
Continuous
 62
     7
100
AcDbLine
 10
7155.1759914691
 20
5432.7160031068
 30
0.0
 11
7155.4162205393
 21
5432.780361222
 31
0.0
  0
LINE
  5
31C
330
1F
100
AcDbEntity
  8
0
  6
Continuous
 62
     7
100
AcDbLine
 10
7155.4162205393
 20
5432.780361222
 30
0.0
 11
7155.6444467241
 21
5432.8415155876
 31
0.0
  0
LINE
  5
31D
330
1F
100
AcDbEntity
  8
0
  6
Continuous
 62
     7
100
AcDbLine
 10
7155.6444467241
 20
5432.8415155876
 30
0.0
 11
7155.8602602417
 21
5432.8993469942
 31
0.0
  0
LINE
  5
31E
330
1F
100
AcDbEntity
  8
0
  6
Continuous
 62
     7
100
AcDbLine
 10
7155.8602602417
 20
5432.8993469942
 30
0.0
 11
7156.2066153819
 21
5432.9921514261
 31
0.0
  0
LINE
  5
31F
330
1F
100
AcDbEntity
  8
0
  6
Continuous
 62
     7
100
AcDbLine
 10
7140.13129484
 20
5428.6847770679
 30
0.0
 11
7140.6211183602
 21
5428.8160115945
 31
0.0
  0
LINE
  5
320
330
1F
100
AcDbEntity
  8
0
  6
Continuous
 62
     7
100
AcDbLine
 10
7140.6211183602
 20
5428.8160115945
 30
0.0
 11
7140.5664534504
 21
5428.8013637531
 31
0.0
  0
LINE
  5
321
330
1F
100
AcDbEntity
  8
0
  6
Continuous
 62
     7
100
AcDbLine
 10
7140.5664534504
 20
5428.8013637531
 30
0.0
 11
7140.5273379022
 21
5428.7908882368
 31
0.0
  0
LINE
  5
322
330
1F
100
AcDbEntity
  8
0
  6
Continuous
 62
     7
100
AcDbLine
 10
7140.5273379022
 20
5428.7908882368
 30
0.0
 11
7140.503838771
 21
5428.7845850456
 31
0.0
  0
LINE
  5
323
330
1F
100
AcDbEntity
  8
0
  6
Continuous
 62
     7
100
AcDbLine
 10
7140.503838771
 20
5428.7845850456
 30
0.0
 11
7140.4960007603
 21
5428.7824839818
 31
0.0
  0
LINE
  5
324
330
1F
100
AcDbEntity
  8
0
  6
Continuous
 62
     7
100
AcDbLine
 10
7140.4960007603
 20
5428.7824839818
 30
0.0
 11
7140.503838771
 21
5428.7845850456
 31
0.0
  0
LINE
  5
325
330
1F
100
AcDbEntity
  8
0
  6
Continuous
 62
     7
100
AcDbLine
 10
7140.503838771
 20
5428.7845850456
 30
0.0
 11
7140.5273379022
 21
5428.7908882368
 31
0.0
  0
LINE
  5
326
330
1F
100
AcDbEntity
  8
0
  6
Continuous
 62
     7
100
AcDbLine
 10
7140.5273379022
 20
5428.7908882368
 30
0.0
 11
7140.5664534504
 21
5428.8013786542
 31
0.0
  0
LINE
  5
327
330
1F
100
AcDbEntity
  8
0
  6
Continuous
 62
     7
100
AcDbLine
 10
7140.5664534504
 20
5428.8013786542
 30
0.0
 11
7140.6211183602
 21
5428.8160115945
 31
0.0
  0
LINE
  5
328
330
1F
100
AcDbEntity
  8
0
  6
Continuous
 62
     7
100
AcDbLine
 10
7140.13129484
 20
5428.6847621667
 30
0.0
 11
7140.6211183602
 21
5428.8160115945
 31
0.0
  0
LINE
  5
329
330
1F
100
AcDbEntity
  8
0
  6
Continuous
 62
     7
100
AcDbLine
 10
7157.7644051248
 20
5433.4095478523
 30
0.0
 11
7157.2745890552
 21
5433.2782984245
 31
0.0
  0
LINE
  5
32A
330
1F
100
AcDbEntity
  8
0
  6
Continuous
 62
     7
100
AcDbLine
 10
7157.2745890552
 20
5433.2782984245
 30
0.0
 11
7157.3292465145
 21
5433.2929462659
 31
0.0
  0
LINE
  5
32B
330
1F
100
AcDbEntity
  8
0
  6
Continuous
 62
     7
100
AcDbLine
 10
7157.3292465145
 20
5433.2929462659
 30
0.0
 11
7157.3683620626
 21
5433.3034217823
 31
0.0
  0
LINE
  5
32C
330
1F
100
AcDbEntity
  8
0
  6
Continuous
 62
     7
100
AcDbLine
 10
7157.3683620626
 20
5433.3034217823
 30
0.0
 11
7157.3918611938
 21
5433.3097249734
 31
0.0
  0
LINE
  5
32D
330
1F
100
AcDbEntity
  8
0
  6
Continuous
 62
     7
100
AcDbLine
 10
7157.3918611938
 20
5433.3097249734
 30
0.0
 11
7157.3996992046
 21
5433.3118260372
 31
0.0
  0
LINE
  5
32E
330
1F
100
AcDbEntity
  8
0
  6
Continuous
 62
     7
100
AcDbLine
 10
7157.3996992046
 20
5433.3118260372
 30
0.0
 11
7157.3918611938
 21
5433.3097249734
 31
0.0
  0
LINE
  5
32F
330
1F
100
AcDbEntity
  8
0
  6
Continuous
 62
     7
100
AcDbLine
 10
7157.3918611938
 20
5433.3097249734
 30
0.0
 11
7157.3683620626
 21
5433.3034217823
 31
0.0
  0
LINE
  5
330
330
1F
100
AcDbEntity
  8
0
  6
Continuous
 62
     7
100
AcDbLine
 10
7157.3683620626
 20
5433.3034217823
 30
0.0
 11
7157.3292465145
 21
5433.2929462659
 31
0.0
  0
LINE
  5
331
330
1F
100
AcDbEntity
  8
0
  6
Continuous
 62
     7
100
AcDbLine
 10
7157.3292465145
 20
5433.2929462659
 30
0.0
 11
7157.2745890552
 21
5433.2782984245
 31
0.0
  0
LINE
  5
332
330
1F
100
AcDbEntity
  8
0
  6
Continuous
 62
     7
100
AcDbLine
 10
7142.0354397232
 20
5429.1949630249
 30
0.0
 11
7141.689084583
 21
5429.1021585929
 31
0.0
  0
LINE
  5
333
330
1F
100
AcDbEntity
  8
0
  6
Continuous
 62
     7
100
AcDbLine
 10
7144.0844760472
 20
5429.743996309
 30
0.0
 11
7143.791362756
 21
5429.6654671895
 31
0.0
  0
LINE
  5
334
330
1F
100
AcDbEntity
  8
0
  6
Continuous
 62
     7
100
AcDbLine
 10
7143.791362756
 20
5429.6654671895
 30
0.0
 11
7143.5078160102
 21
5429.5894861686
 31
0.0
  0
LINE
  5
335
330
1F
100
AcDbEntity
  8
0
  6
Continuous
 62
     7
100
AcDbLine
 10
7143.5078160102
 20
5429.5894861686
 30
0.0
 11
7143.2343573505
 21
5429.516217159
 31
0.0
  0
LINE
  5
336
330
1F
100
AcDbEntity
  8
0
  6
Continuous
 62
     7
100
AcDbLine
 10
7143.2343573505
 20
5429.516217159
 30
0.0
 11
7142.9714934165
 21
5429.4457793701
 31
0.0
  0
LINE
  5
337
330
1F
100
AcDbEntity
  8
0
  6
Continuous
 62
     7
100
AcDbLine
 10
7142.9714934165
 20
5429.4457793701
 30
0.0
 11
7142.7197084958
 21
5429.3783218133
 31
0.0
  0
LINE
  5
338
330
1F
100
AcDbEntity
  8
0
  6
Continuous
 62
     7
100
AcDbLine
 10
7142.7197084958
 20
5429.3783218133
 30
0.0
 11
7142.4794794256
 21
5429.313948797
 31
0.0
  0
LINE
  5
339
330
1F
100
AcDbEntity
  8
0
  6
Continuous
 62
     7
100
AcDbLine
 10
7142.4794794256
 20
5429.313948797
 30
0.0
 11
7142.2512532408
 21
5429.2527944314
 31
0.0
  0
LINE
  5
33A
330
1F
100
AcDbEntity
  8
0
  6
Continuous
 62
     7
100
AcDbLine
 10
7142.2512532408
 20
5429.2527944314
 30
0.0
 11
7142.0354397232
 21
5429.1949630249
 31
0.0
  0
LINE
  5
33B
330
1F
100
AcDbEntity
  8
0
  6
Continuous
 62
     7
100
AcDbLine
 10
7144.0844760472
 20
5429.743996309
 30
0.0
 11
7143.7381283576
 21
5429.6511918771
 31
0.0
  0
LINE
  5
33C
330
1F
100
AcDbEntity
  8
0
  6
Continuous
 62
     7
100
AcDbLine
 10
7155.8602602417
 20
5432.8993171918
 30
0.0
 11
7155.6444467241
 21
5432.8414857852
 31
0.0
  0
LINE
  5
33D
330
1F
100
AcDbEntity
  8
0
  6
Continuous
 62
     7
100
AcDbLine
 10
7155.6444467241
 20
5432.8414857852
 30
0.0
 11
7155.4162205393
 21
5432.7803314197
 31
0.0
  0
LINE
  5
33E
330
1F
100
AcDbEntity
  8
0
  6
Continuous
 62
     7
100
AcDbLine
 10
7155.4162205393
 20
5432.7803314197
 30
0.0
 11
7155.1759914691
 21
5432.7159584033
 31
0.0
  0
LINE
  5
33F
330
1F
100
AcDbEntity
  8
0
  6
Continuous
 62
     7
100
AcDbLine
 10
7155.1759914691
 20
5432.7159584033
 30
0.0
 11
7154.924213999
 21
5432.6485008466
 31
0.0
  0
LINE
  5
340
330
1F
100
AcDbEntity
  8
0
  6
Continuous
 62
     7
100
AcDbLine
 10
7154.924213999
 20
5432.6485008466
 30
0.0
 11
7154.6613500649
 21
5432.5780630577
 31
0.0
  0
LINE
  5
341
330
1F
100
AcDbEntity
  8
0
  6
Continuous
 62
     7
100
AcDbLine
 10
7154.6613500649
 20
5432.5780630577
 30
0.0
 11
7154.3878839547
 21
5432.5047940481
 31
0.0
  0
LINE
  5
342
330
1F
100
AcDbEntity
  8
0
  6
Continuous
 62
     7
100
AcDbLine
 10
7154.3878839547
 20
5432.5047940481
 30
0.0
 11
7154.1043372089
 21
5432.4288130271
 31
0.0
  0
LINE
  5
343
330
1F
100
AcDbEntity
  8
0
  6
Continuous
 62
     7
100
AcDbLine
 10
7154.1043372089
 20
5432.4288130271
 30
0.0
 11
7153.8112239177
 21
5432.3502690065
 31
0.0
  0
LINE
  5
344
330
1F
100
AcDbEntity
  8
0
  6
Continuous
 62
     7
100
AcDbLine
 10
7153.8112239177
 20
5432.3502690065
 30
0.0
 11
7154.1575790579
 21
5432.4430734384
 31
0.0
  0
LINE
  5
345
330
1F
100
AcDbEntity
  8
0
  6
Continuous
 62
     7
100
AcDbLine
 10
7155.8602602417
 20
5432.8993171918
 30
0.0
 11
7156.2066153819
 21
5432.9921216237
 31
0.0
  0
LINE
  5
346
330
1F
100
AcDbEntity
  8
0
  6
Continuous
 62
     7
100
AcDbLine
 10
7150.3967420394
 20
5431.4353526103
 30
0.0
 11
7150.0368789965
 21
5431.3389420974
 31
0.0
  0
LINE
  5
347
330
1F
100
AcDbEntity
  8
0
  6
Continuous
 62
     7
100
AcDbLine
 10
7150.0368789965
 20
5431.3389420974
 30
0.0
 11
7149.6749893958
 21
5431.2419653404
 31
0.0
  0
LINE
  5
348
330
1F
100
AcDbEntity
  8
0
  6
Continuous
 62
     7
100
AcDbLine
 10
7149.6749893958
 20
5431.2419653404
 30
0.0
 11
7149.3117586905
 21
5431.1446458566
 31
0.0
  0
LINE
  5
349
330
1F
100
AcDbEntity
  8
0
  6
Continuous
 62
     7
100
AcDbLine
 10
7149.3117586905
 20
5431.1446458566
 30
0.0
 11
7148.9478499824
 21
5431.0471326578
 31
0.0
  0
LINE
  5
34A
330
1F
100
AcDbEntity
  8
0
  6
Continuous
 62
     7
100
AcDbLine
 10
7148.9478499824
 20
5431.0471326578
 30
0.0
 11
7148.5839412743
 21
5430.9496194589
 31
0.0
  0
LINE
  5
34B
330
1F
100
AcDbEntity
  8
0
  6
Continuous
 62
     7
100
AcDbLine
 10
7148.5839412743
 20
5430.9496194589
 30
0.0
 11
7148.2207105691
 21
5430.8522999752
 31
0.0
  0
LINE
  5
34C
330
1F
100
AcDbEntity
  8
0
  6
Continuous
 62
     7
100
AcDbLine
 10
7148.2207105691
 20
5430.8522999752
 30
0.0
 11
7147.8588284189
 21
5430.7553232181
 31
0.0
  0
LINE
  5
34D
330
1F
100
AcDbEntity
  8
0
  6
Continuous
 62
     7
100
AcDbLine
 10
7147.8588284189
 20
5430.7553232181
 30
0.0
 11
7147.4989653761
 21
5430.658897804
 31
0.0
  0
LINE
  5
34E
330
1F
100
AcDbEntity
  8
0
  6
Continuous
 62
     7
100
AcDbLine
 10
6997.9026654
 20
5409.8100424278
 30
0.0
 11
6997.9026654
 21
5469.810044812
 31
0.0
  0
LINE
  5
34F
330
1F
100
AcDbEntity
  8
0
  6
Continuous
 62
     7
100
AcDbLine
 10
6998.402662688
 20
5469.3100363481
 30
0.0
 11
6998.402662688
 21
5410.3100359905
 31
0.0
  0
LINE
  5
350
330
1F
100
AcDbEntity
  8
0
  6
Continuous
 62
     7
100
AcDbLine
 10
7163.4026692445
 20
5434.9203467834
 30
0.0
 11
7163.4026692445
 21
5453.8100421894
 31
0.0
  0
LINE
  5
351
330
1F
100
AcDbEntity
  8
0
  6
Continuous
 62
     7
100
AcDbLine
 10
7163.4026692445
 20
5434.9202722776
 30
0.0
 11
7159.5043466622
 21
5433.8757306802
 31
0.0
  0
LINE
  5
352
330
1F
100
AcDbEntity
  8
0
  6
Continuous
 62
     7
100
AcDbLine
 10
7159.5043466622
 20
5433.8757306802
 30
0.0
 11
7155.7510049278
 21
5432.8700215089
 31
0.0
  0
LINE
  5
353
330
1F
100
AcDbEntity
  8
0
  6
Continuous
 62
     7
100
AcDbLine
 10
7155.7510049278
 20
5432.8700215089
 30
0.0
 11
7152.1672309572
 21
5431.9097608793
 31
0.0
  0
LINE
  5
354
330
1F
100
AcDbEntity
  8
0
  6
Continuous
 62
     7
100
AcDbLine
 10
7152.1672309572
 20
5431.9097608793
 30
0.0
 11
7150.3967420394
 21
5431.4353526103
 31
0.0
  0
LINE
  5
355
330
1F
100
AcDbEntity
  8
0
  6
Continuous
 62
     7
100
AcDbLine
 10
7147.4989653761
 20
5430.658897804
 30
0.0
 11
7145.6009597713
 21
5430.1503360736
 31
0.0
  0
LINE
  5
356
330
1F
100
AcDbEntity
  8
0
  6
Continuous
 62
     7
100
AcDbLine
 10
7145.6009597713
 20
5430.1503360736
 30
0.0
 11
7144.0844760472
 21
5429.743996309
 31
0.0
  0
LINE
  5
357
330
1F
100
AcDbEntity
  8
0
  6
Continuous
 62
     7
100
AcDbLine
 10
7141.689084583
 20
5429.1021883953
 30
0.0
 11
7139.9771944816
 21
5428.6434561479
 31
0.0
  0
LINE
  5
358
330
1F
100
AcDbEntity
  8
0
  6
Continuous
 62
     7
100
AcDbLine
 10
7139.9771944816
 20
5428.6434561479
 30
0.0
 11
7137.5657693679
 21
5427.9973119962
 31
0.0
  0
LINE
  5
359
330
1F
100
AcDbEntity
  8
0
  6
Continuous
 62
     7
100
AcDbLine
 10
7137.5657693679
 20
5427.9973119962
 30
0.0
 11
7135.4429573948
 21
5427.4285197723
 31
0.0
  0
LINE
  5
35A
330
1F
100
AcDbEntity
  8
0
  6
Continuous
 62
     7
100
AcDbLine
 10
7135.4429573948
 20
5427.4285197723
 30
0.0
 11
7133.6226613457
 21
5426.9407749641
 31
0.0
  0
LINE
  5
35B
330
1F
100
AcDbEntity
  8
0
  6
Continuous
 62
     7
100
AcDbLine
 10
7133.6226613457
 20
5426.9407749641
 30
0.0
 11
7132.1167872483
 21
5426.5372813213
 31
0.0
  0
LINE
  5
35C
330
1F
100
AcDbEntity
  8
0
  6
Continuous
 62
     7
100
AcDbLine
 10
7132.1167872483
 20
5426.5372813213
 30
0.0
 11
7130.9352145726
 21
5426.2206763494
 31
0.0
  0
LINE
  5
35D
330
1F
100
AcDbEntity
  8
0
  6
Continuous
 62
     7
100
AcDbLine
 10
7130.9352145726
 20
5426.2206763494
 30
0.0
 11
7130.08566212
 21
5425.993046211
 31
0.0
  0
LINE
  5
35E
330
1F
100
AcDbEntity
  8
0
  6
Continuous
 62
     7
100
AcDbLine
 10
7130.08566212
 20
5425.993046211
 30
0.0
 11
7129.5736954743
 21
5425.855866121
 31
0.0
  0
LINE
  5
35F
330
1F
100
AcDbEntity
  8
0
  6
Continuous
 62
     7
100
AcDbLine
 10
7129.5736954743
 20
5425.855866121
 30
0.0
 11
7129.4026673967
 21
5425.8100450504
 31
0.0
  0
LINE
  5
360
330
1F
100
AcDbEntity
  8
0
  6
Continuous
 62
     7
100
AcDbLine
 10
7129.4026673967
 20
5425.8100450504
 30
0.0
 11
7129.5736954743
 21
5425.855866121
 31
0.0
  0
LINE
  5
361
330
1F
100
AcDbEntity
  8
0
  6
Continuous
 62
     7
100
AcDbLine
 10
7129.5736954743
 20
5425.855866121
 30
0.0
 11
7130.08566212
 21
5425.9930611122
 31
0.0
  0
LINE
  5
362
330
1F
100
AcDbEntity
  8
0
  6
Continuous
 62
     7
100
AcDbLine
 10
7130.08566212
 20
5425.9930611122
 30
0.0
 11
7130.9352145726
 21
5426.2206912506
 31
0.0
  0
LINE
  5
363
330
1F
100
AcDbEntity
  8
0
  6
Continuous
 62
     7
100
AcDbLine
 10
7130.9352145726
 20
5426.2206912506
 30
0.0
 11
7132.1167872483
 21
5426.5372962224
 31
0.0
  0
LINE
  5
364
330
1F
100
AcDbEntity
  8
0
  6
Continuous
 62
     7
100
AcDbLine
 10
7132.1167872483
 20
5426.5372962224
 30
0.0
 11
7133.6226613457
 21
5426.9408047664
 31
0.0
  0
LINE
  5
365
330
1F
100
AcDbEntity
  8
0
  6
Continuous
 62
     7
100
AcDbLine
 10
7133.6226613457
 20
5426.9408047664
 30
0.0
 11
7135.4429573948
 21
5427.4285495746
 31
0.0
  0
LINE
  5
366
330
1F
100
AcDbEntity
  8
0
  6
Continuous
 62
     7
100
AcDbLine
 10
7135.4429573948
 20
5427.4285495746
 30
0.0
 11
7137.5657693679
 21
5427.9973566997
 31
0.0
  0
LINE
  5
367
330
1F
100
AcDbEntity
  8
0
  6
Continuous
 62
     7
100
AcDbLine
 10
7137.5657693679
 20
5427.9973566997
 30
0.0
 11
7139.9771944816
 21
5428.6435008514
 31
0.0
  0
LINE
  5
368
330
1F
100
AcDbEntity
  8
0
  6
Continuous
 62
     7
100
AcDbLine
 10
7139.9771944816
 20
5428.6435008514
 30
0.0
 11
7142.6614524061
 21
5429.3627500999
 31
0.0
  0
LINE
  5
369
330
1F
100
AcDbEntity
  8
0
  6
Continuous
 62
     7
100
AcDbLine
 10
7142.6614524061
 20
5429.3627500999
 30
0.0
 11
7145.6009597713
 21
5430.1503956783
 31
0.0
  0
LINE
  5
36A
330
1F
100
AcDbEntity
  8
0
  6
Continuous
 62
     7
100
AcDbLine
 10
7145.6009597713
 20
5430.1503956783
 30
0.0
 11
7148.7764866287
 21
5431.0012668836
 31
0.0
  0
LINE
  5
36B
330
1F
100
AcDbEntity
  8
0
  6
Continuous
 62
     7
100
AcDbLine
 10
7148.7764866287
 20
5431.0012668836
 30
0.0
 11
7152.1672309572
 21
5431.9098204839
 31
0.0
  0
LINE
  5
36C
330
1F
100
AcDbEntity
  8
0
  6
Continuous
 62
     7
100
AcDbLine
 10
7152.1672309572
 20
5431.9098204839
 30
0.0
 11
7155.7510049278
 21
5432.8700960147
 31
0.0
  0
LINE
  5
36D
330
1F
100
AcDbEntity
  8
0
  6
Continuous
 62
     7
100
AcDbLine
 10
7155.7510049278
 20
5432.8700960147
 30
0.0
 11
7159.5043466622
 21
5433.8757902849
 31
0.0
  0
LINE
  5
36E
330
1F
100
AcDbEntity
  8
0
  6
Continuous
 62
     7
100
AcDbLine
 10
7159.5043466622
 20
5433.8757902849
 30
0.0
 11
7163.4026692445
 21
5434.9203467834
 31
0.0
  0
LINE
  5
36F
330
1F
100
AcDbEntity
  8
0
  6
Continuous
 62
     7
100
AcDbLine
 10
7163.4026692445
 20
5434.9202722776
 30
0.0
 11
7164.402671271
 21
5435.188299464
 31
0.0
  0
LINE
  5
370
330
1F
100
AcDbEntity
  8
0
  6
Continuous
 62
     7
100
AcDbLine
 10
7164.402671271
 20
5452.8100401628
 30
0.0
 11
7164.402671271
 21
5435.188299464
 31
0.0
  0
LINE
  5
371
330
1F
100
AcDbEntity
  8
0
  6
Continuous
 62
     7
100
AcDbLine
 10
7164.402671271
 20
5435.188299464
 30
0.0
 11
7163.4026692445
 21
5434.9203467834
 31
0.0
  0
LINE
  5
372
330
1F
100
AcDbEntity
  8
0
  6
Continuous
 62
     7
100
AcDbLine
 10
7158.4863738353
 20
5433.6029947269
 30
0.0
 11
7158.3139972026
 21
5433.5568011272
 31
0.0
  0
LINE
  5
373
330
1F
100
AcDbEntity
  8
0
  6
Continuous
 62
     7
100
AcDbLine
 10
7158.3139972026
 20
5433.5568011272
 30
0.0
 11
7157.8031034405
 21
5433.4199041593
 31
0.0
  0
LINE
  5
374
330
1F
100
AcDbEntity
  8
0
  6
Continuous
 62
     7
100
AcDbLine
 10
7157.8031034405
 20
5433.4199041593
 30
0.0
 11
7156.9721625382
 21
5433.1972510087
 31
0.0
  0
LINE
  5
375
330
1F
100
AcDbEntity
  8
0
  6
Continuous
 62
     7
100
AcDbLine
 10
7156.9721625382
 20
5433.1972510087
 30
0.0
 11
7156.2999637062
 21
5433.0171257722
 31
0.0
  0
LINE
  5
376
330
1F
100
AcDbEntity
  8
0
  6
Continuous
 62
     7
100
AcDbLine
 10
7153.8112239177
 20
5432.3502690065
 30
0.0
 11
7152.9102922613
 21
5432.1088701951
 31
0.0
  0
LINE
  5
377
330
1F
100
AcDbEntity
  8
0
  6
Continuous
 62
     7
100
AcDbLine
 10
7152.9102922613
 20
5432.1088701951
 30
0.0
 11
7151.1966438228
 21
5431.649690913
 31
0.0
  0
LINE
  5
378
330
1F
100
AcDbEntity
  8
0
  6
Continuous
 62
     7
100
AcDbLine
 10
7151.1966438228
 20
5431.649690913
 30
0.0
 11
7150.3967420394
 21
5431.4353526103
 31
0.0
  0
LINE
  5
379
330
1F
100
AcDbEntity
  8
0
  6
Continuous
 62
     7
100
AcDbLine
 10
7147.4989653761
 20
5430.658897804
 30
0.0
 11
7145.828105622
 21
5430.2111924159
 31
0.0
  0
LINE
  5
37A
330
1F
100
AcDbEntity
  8
0
  6
Continuous
 62
     7
100
AcDbLine
 10
7145.828105622
 20
5430.2111924159
 30
0.0
 11
7144.1785917813
 21
5429.7692090738
 31
0.0
  0
LINE
  5
37B
330
1F
100
AcDbEntity
  8
0
  6
Continuous
 62
     7
100
AcDbLine
 10
7144.1785917813
 20
5429.7692090738
 30
0.0
 11
7144.0844760472
 21
5429.743996309
 31
0.0
  0
LINE
  5
37C
330
1F
100
AcDbEntity
  8
0
  6
Continuous
 62
     7
100
AcDbLine
 10
7141.689084583
 20
5429.1021585929
 30
0.0
 11
7141.4500699574
 21
5429.0381134021
 31
0.0
  0
LINE
  5
37D
330
1F
100
AcDbEntity
  8
0
  6
Continuous
 62
     7
100
AcDbLine
 10
7141.4500699574
 20
5429.0381134021
 30
0.0
 11
7140.469677859
 21
5428.7754208314
 31
0.0
  0
LINE
  5
37E
330
1F
100
AcDbEntity
  8
0
  6
Continuous
 62
     7
100
AcDbLine
 10
7140.469677859
 20
5428.7754208314
 30
0.0
 11
7139.7957132394
 21
5428.5948336589
 31
0.0
  0
LINE
  5
37F
330
1F
100
AcDbEntity
  8
0
  6
Continuous
 62
     7
100
AcDbLine
 10
7139.7957132394
 20
5428.5948336589
 30
0.0
 11
7139.4525245959
 21
5428.5028934944
 31
0.0
  0
LINE
  5
380
330
1F
100
AcDbEntity
  8
0
  6
Continuous
 62
     7
100
AcDbLine
 10
7139.4525245959
 20
5428.5028934944
 30
0.0
 11
7139.7957132394
 21
5428.5948485601
 31
0.0
  0
LINE
  5
381
330
1F
100
AcDbEntity
  8
0
  6
Continuous
 62
     7
100
AcDbLine
 10
7139.7957132394
 20
5428.5948485601
 30
0.0
 11
7140.469677859
 21
5428.7754506338
 31
0.0
  0
LINE
  5
382
330
1F
100
AcDbEntity
  8
0
  6
Continuous
 62
     7
100
AcDbLine
 10
7140.469677859
 20
5428.7754506338
 30
0.0
 11
7141.4500699574
 21
5429.0381432044
 31
0.0
  0
LINE
  5
383
330
1F
100
AcDbEntity
  8
0
  6
Continuous
 62
     7
100
AcDbLine
 10
7141.4500699574
 20
5429.0381432044
 30
0.0
 11
7142.7014471228
 21
5429.3734640348
 31
0.0
  0
LINE
  5
384
330
1F
100
AcDbEntity
  8
0
  6
Continuous
 62
     7
100
AcDbLine
 10
7142.7014471228
 20
5429.3734640348
 30
0.0
 11
7144.1785917813
 21
5429.7692686784
 31
0.0
  0
LINE
  5
385
330
1F
100
AcDbEntity
  8
0
  6
Continuous
 62
     7
100
AcDbLine
 10
7144.1785917813
 20
5429.7692686784
 30
0.0
 11
7145.828105622
 21
5430.2112520206
 31
0.0
  0
LINE
  5
386
330
1F
100
AcDbEntity
  8
0
  6
Continuous
 62
     7
100
AcDbLine
 10
7145.828105622
 20
5430.2112520206
 30
0.0
 11
7147.5903765494
 21
5430.6834549177
 31
0.0
  0
LINE
  5
387
330
1F
100
AcDbEntity
  8
0
  6
Continuous
 62
     7
100
AcDbLine
 10
7147.5903765494
 20
5430.6834549177
 30
0.0
 11
7149.4017095501
 21
5431.1688006389
 31
0.0
  0
LINE
  5
388
330
1F
100
AcDbEntity
  8
0
  6
Continuous
 62
     7
100
AcDbLine
 10
7149.4017095501
 20
5431.1688006389
 30
0.0
 11
7151.1966438228
 21
5431.6497505176
 31
0.0
  0
LINE
  5
389
330
1F
100
AcDbEntity
  8
0
  6
Continuous
 62
     7
100
AcDbLine
 10
7151.1966438228
 20
5431.6497505176
 30
0.0
 11
7152.9102922613
 21
5432.1089148986
 31
0.0
  0
LINE
  5
38A
330
1F
100
AcDbEntity
  8
0
  6
Continuous
 62
     7
100
AcDbLine
 10
7152.9102922613
 20
5432.1089148986
 30
0.0
 11
7154.4807330901
 21
5432.5297087896
 31
0.0
  0
LINE
  5
38B
330
1F
100
AcDbEntity
  8
0
  6
Continuous
 62
     7
100
AcDbLine
 10
7154.4807330901
 20
5432.5297087896
 30
0.0
 11
7155.8512003357
 21
5432.8969181049
 31
0.0
  0
LINE
  5
38C
330
1F
100
AcDbEntity
  8
0
  6
Continuous
 62
     7
100
AcDbLine
 10
7155.8512003357
 20
5432.8969181049
 30
0.0
 11
7156.9721625382
 21
5433.1972808111
 31
0.0
  0
LINE
  5
38D
330
1F
100
AcDbEntity
  8
0
  6
Continuous
 62
     7
100
AcDbLine
 10
7156.9721625382
 20
5433.1972808111
 30
0.0
 11
7157.8031034405
 21
5433.4199190605
 31
0.0
  0
LINE
  5
38E
330
1F
100
AcDbEntity
  8
0
  6
Continuous
 62
     7
100
AcDbLine
 10
7157.8031034405
 20
5433.4199190605
 30
0.0
 11
7158.3139972026
 21
5433.5568160284
 31
0.0
  0
LINE
  5
38F
330
1F
100
AcDbEntity
  8
0
  6
Continuous
 62
     7
100
AcDbLine
 10
7158.3139972026
 20
5433.5568160284
 30
0.0
 11
7158.4863738353
 21
5433.6029947269
 31
0.0
  0
LINE
  5
390
330
1F
100
AcDbEntity
  8
0
  6
Continuous
 62
     7
100
AcDbLine
 10
6997.4026643867
 20
5297.2046345937
 30
0.0
 11
6997.4026643867
 21
5285.3439659345
 31
0.0
  0
LINE
  5
391
330
1F
100
AcDbEntity
  8
0
  6
Continuous
 62
     7
100
AcDbLine
 10
6997.4026643867
 20
5325.3439873922
 30
0.0
 11
6997.4026643867
 21
5313.4834379423
 31
0.0
  0
LINE
  5
392
330
1F
100
AcDbEntity
  8
0
  6
Continuous
 62
     7
100
AcDbLine
 10
7003.7974436963
 20
5309.6440047491
 30
0.0
 11
7004.2790305997
 21
5309.6439749467
 31
0.0
  0
LINE
  5
393
330
1F
100
AcDbEntity
  8
0
  6
Continuous
 62
     7
100
AcDbLine
 10
7004.2790305997
 20
5309.6439749467
 30
0.0
 11
7004.6248753751
 21
5309.6439749467
 31
0.0
  0
LINE
  5
394
330
1F
100
AcDbEntity
  8
0
  6
Continuous
 62
     7
100
AcDbLine
 10
7004.6248753751
 20
5309.6439749467
 30
0.0
 11
7004.8331246907
 21
5309.6439749467
 31
0.0
  0
LINE
  5
395
330
1F
100
AcDbEntity
  8
0
  6
Continuous
 62
     7
100
AcDbLine
 10
7004.8331246907
 20
5309.6439749467
 30
0.0
 11
7004.9026646847
 21
5309.6439749467
 31
0.0
  0
LINE
  5
396
330
1F
100
AcDbEntity
  8
0
  6
Continuous
 62
     7
100
AcDbLine
 10
7004.9026646847
 20
5309.6439749467
 30
0.0
 11
7004.8331246907
 21
5309.6439749467
 31
0.0
  0
LINE
  5
397
330
1F
100
AcDbEntity
  8
0
  6
Continuous
 62
     7
100
AcDbLine
 10
7004.8331246907
 20
5309.6439749467
 30
0.0
 11
7004.6248753751
 21
5309.6440047491
 31
0.0
  0
LINE
  5
398
330
1F
100
AcDbEntity
  8
0
  6
Continuous
 62
     7
100
AcDbLine
 10
7004.6248753751
 20
5309.6440047491
 30
0.0
 11
7004.2790305997
 21
5309.6440047491
 31
0.0
  0
LINE
  5
399
330
1F
100
AcDbEntity
  8
0
  6
Continuous
 62
     7
100
AcDbLine
 10
7004.2790305997
 20
5309.6440047491
 30
0.0
 11
7003.7974436963
 21
5309.6440047491
 31
0.0
  0
LINE
  5
39A
330
1F
100
AcDbEntity
  8
0
  6
Continuous
 62
     7
100
AcDbLine
 10
7003.7974436963
 20
5298.6439973581
 30
0.0
 11
7004.2790305997
 21
5298.6439973581
 31
0.0
  0
LINE
  5
39B
330
1F
100
AcDbEntity
  8
0
  6
Continuous
 62
     7
100
AcDbLine
 10
7004.2790305997
 20
5298.6439973581
 30
0.0
 11
7004.6248753751
 21
5298.6439973581
 31
0.0
  0
LINE
  5
39C
330
1F
100
AcDbEntity
  8
0
  6
Continuous
 62
     7
100
AcDbLine
 10
7004.6248753751
 20
5298.6439973581
 30
0.0
 11
7004.8331246907
 21
5298.6439973581
 31
0.0
  0
LINE
  5
39D
330
1F
100
AcDbEntity
  8
0
  6
Continuous
 62
     7
100
AcDbLine
 10
7004.8331246907
 20
5298.6439973581
 30
0.0
 11
7004.9026646847
 21
5298.6439675558
 31
0.0
  0
LINE
  5
39E
330
1F
100
AcDbEntity
  8
0
  6
Continuous
 62
     7
100
AcDbLine
 10
6952.1097690994
 20
4855.344614433
 30
0.0
 11
7422.6955549056
 21
4855.344614433
 31
0.0
  0
LINE
  5
39F
330
1F
100
AcDbEntity
  8
0
  6
Continuous
 62
     7
100
AcDbLine
 10
6952.4026663238
 20
4857.3445886838
 30
0.0
 11
7423.4026746089
 21
4857.3445886838
 31
0.0
  0
LINE
  5
3A0
330
1F
100
AcDbEntity
  8
0
  6
Continuous
 62
     7
100
AcDbLine
 10
6952.1097690994
 20
4855.344614433
 30
0.0
 11
6952.1097690994
 21
4856.3446015584
 31
0.0
  0
LINE
  5
3A1
330
1F
100
AcDbEntity
  8
0
  6
Continuous
 62
     7
100
AcDbLine
 10
7425.402678662
 20
4855.344614433
 30
0.0
 11
7425.402678662
 21
4857.3445886838
 31
0.0
  0
LINE
  5
3A2
330
1F
100
AcDbEntity
  8
0
  6
Continuous
 62
     7
100
AcDbLine
 10
7425.402678662
 20
4855.344614433
 30
0.0
 11
7423.4026746089
 21
4855.344614433
 31
0.0
  0
LINE
  5
3A3
330
1F
100
AcDbEntity
  8
0
  6
Continuous
 62
     7
100
AcDbLine
 10
7423.4026746089
 20
4855.344614433
 30
0.0
 11
7423.4026746089
 21
4857.3445886838
 31
0.0
  0
LINE
  5
3A4
330
1F
100
AcDbEntity
  8
0
  6
Continuous
 62
     7
100
AcDbLine
 10
7423.4026746089
 20
4857.3445886838
 30
0.0
 11
7423.4026746089
 21
5155.3445965517
 31
0.0
  0
LINE
  5
3A5
330
1F
100
AcDbEntity
  8
0
  6
Continuous
 62
     7
100
AcDbLine
 10
7423.4026746089
 20
5155.3445965517
 30
0.0
 11
7425.402678662
 21
5155.3445965517
 31
0.0
  0
LINE
  5
3A6
330
1F
100
AcDbEntity
  8
0
  6
Continuous
 62
     7
100
AcDbLine
 10
7425.402678662
 20
5155.3445965517
 30
0.0
 11
7425.402678662
 21
4857.3445886838
 31
0.0
  0
LINE
  5
3A7
330
1F
100
AcDbEntity
  8
0
  6
Continuous
 62
     7
100
AcDbLine
 10
7424.4026617343
 20
4855.344614433
 30
0.0
 11
7425.402678662
 21
4855.344614433
 31
0.0
  0
LINE
  5
3A8
330
1F
100
AcDbEntity
  8
0
  6
Continuous
 62
     7
100
AcDbLine
 10
7424.4026617343
 20
4855.344614433
 30
0.0
 11
7423.4026746089
 21
4855.344614433
 31
0.0
  0
LINE
  5
3A9
330
1F
100
AcDbEntity
  8
0
  6
Continuous
 62
     7
100
AcDbLine
 10
6950.4026622707
 20
5155.3445965517
 30
0.0
 11
6950.4026622707
 21
4857.0516914594
 31
0.0
  0
LINE
  5
3AA
330
1F
100
AcDbEntity
  8
0
  6
Continuous
 62
     7
100
AcDbLine
 10
6950.4026622707
 20
5155.3445965517
 30
0.0
 11
6952.4026663238
 21
5155.3445965517
 31
0.0
  0
LINE
  5
3AB
330
1F
100
AcDbEntity
  8
0
  6
Continuous
 62
     7
100
AcDbLine
 10
6952.4026663238
 20
5155.3445965517
 30
0.0
 11
6952.4026663238
 21
4857.3445886838
 31
0.0
  0
LINE
  5
3AC
330
1F
100
AcDbEntity
  8
0
  6
Continuous
 62
     7
100
AcDbLine
 10
6950.4026622707
 20
4857.0516914594
 30
0.0
 11
6951.4026642973
 21
4857.0516914594
 31
0.0
  0
LINE
  5
3AD
330
1F
100
AcDbEntity
  8
0
  6
Continuous
 62
     7
100
AcDbLine
 10
6952.4026663238
 20
5155.3445965517
 30
0.0
 11
7423.4026746089
 21
5155.3445965517
 31
0.0
  0
LINE
  5
3AE
330
1F
100
AcDbEntity
  8
0
  6
Continuous
 62
     7
100
AcDbLine
 10
7423.4026746089
 20
4855.344614433
 30
0.0
 11
7423.4026746089
 21
4855.3433627355
 31
0.0
  0
LINE
  5
3AF
330
1F
100
AcDbEntity
  8
0
  6
Continuous
 62
     7
100
AcDbLine
 10
6952.1097690994
 20
4855.3444952238
 30
0.0
 11
7384.6955673034
 21
4855.3444952238
 31
0.0
  0
LINE
  5
3B0
330
1F
100
AcDbEntity
  8
0
  6
Continuous
 62
     7
100
AcDbLine
 10
7422.6955549056
 20
4855.344614433
 30
0.0
 11
7384.6955673034
 21
4855.3444952238
 31
0.0
  0
LINE
  5
3B1
330
1F
100
AcDbEntity
  8
0
  6
Continuous
 62
     7
100
AcDbLine
 10
6952.1097690994
 20
4855.344614433
 30
0.0
 11
6952.1097690994
 21
4855.3444952238
 31
0.0
  0
LINE
  5
3B2
330
1F
100
AcDbEntity
  8
0
  6
Continuous
 62
     7
100
AcDbLine
 10
6951.4026642973
 20
4857.0516914594
 30
0.0
 11
6951.4026642973
 21
4857.0515722501
 31
0.0
  0
LINE
  5
3B3
330
1F
100
AcDbEntity
  8
0
  6
Continuous
 62
     7
100
AcDbLine
 10
6950.4026622707
 20
4857.0515722501
 30
0.0
 11
6951.4026642973
 21
4857.0515722501
 31
0.0
  0
LINE
  5
3B4
330
1F
100
AcDbEntity
  8
0
  6
Continuous
 62
     7
100
AcDbLine
 10
6950.4026622707
 20
4857.0516914594
 30
0.0
 11
6950.4026622707
 21
4857.0515722501
 31
0.0
  0
LINE
  5
3B5
330
1F
100
AcDbEntity
  8
0
  6
Continuous
 62
     7
100
AcDbLine
 10
7385.4026572043
 20
4855.3444952238
 30
0.0
 11
7385.4026572043
 21
4855.3434819448
 31
0.0
  0
LINE
  5
3B6
330
1F
100
AcDbEntity
  8
0
  6
Continuous
 62
     7
100
AcDbLine
 10
7422.6955549056
 20
4855.344614433
 30
0.0
 11
7423.4026746089
 21
4855.344614433
 31
0.0
  0
LINE
  5
3B7
330
1F
100
AcDbEntity
  8
0
  6
Continuous
 62
     7
100
AcDbLine
 10
7423.4026746089
 20
4855.3433627355
 30
0.0
 11
7385.4026572043
 21
4855.3434819448
 31
0.0
  0
LINE
  5
3B8
330
1F
100
AcDbEntity
  8
0
  6
Continuous
 62
     7
100
AcDbLine
 10
7423.1630937392
 20
4856.3446015584
 30
0.0
 11
7423.4026746089
 21
4856.3446015584
 31
0.0
  0
LINE
  5
3B9
330
1F
100
AcDbEntity
  8
0
  6
Continuous
 62
     7
100
AcDbLine
 10
7422.6955549056
 20
4855.3433627355
 30
0.0
 11
7167.058818155
 21
4855.3433627355
 31
0.0
  0
LINE
  5
3BA
330
1F
100
AcDbEntity
  8
0
  6
Continuous
 62
     7
100
AcDbLine
 10
7099.2999674017
 20
4855.3433627355
 30
0.0
 11
6983.8564657802
 21
4855.3433627355
 31
0.0
  0
LINE
  5
3BB
330
1F
100
AcDbEntity
  8
0
  6
Continuous
 62
     7
100
AcDbLine
 10
6963.1793872649
 20
4855.3433627355
 30
0.0
 11
6952.1097690994
 21
4855.3433627355
 31
0.0
  0
LINE
  5
3BC
330
1F
100
AcDbEntity
  8
0
  6
Continuous
 62
     7
100
AcDbLine
 10
6952.1097690994
 20
4855.3433627355
 30
0.0
 11
6952.1097690994
 21
4855.3434819448
 31
0.0
  0
LINE
  5
3BD
330
1F
100
AcDbEntity
  8
0
  6
Continuous
 62
     7
100
AcDbLine
 10
7384.6955673034
 20
4855.3434819448
 30
0.0
 11
7167.058818155
 21
4855.3433627355
 31
0.0
  0
LINE
  5
3BE
330
1F
100
AcDbEntity
  8
0
  6
Continuous
 62
     7
100
AcDbLine
 10
7099.2999674017
 20
4855.3433627355
 30
0.0
 11
6983.8564657802
 21
4855.3433627355
 31
0.0
  0
LINE
  5
3BF
330
1F
100
AcDbEntity
  8
0
  6
Continuous
 62
     7
100
AcDbLine
 10
6963.1793872649
 20
4855.3433627355
 30
0.0
 11
6952.1097690994
 21
4855.3434819448
 31
0.0
  0
LINE
  5
3C0
330
1F
100
AcDbEntity
  8
0
  6
Continuous
 62
     7
100
AcDbLine
 10
7384.6955673034
 20
4855.3434819448
 30
0.0
 11
7385.4026572043
 21
4855.3434819448
 31
0.0
  0
LINE
  5
3C1
330
1F
100
AcDbEntity
  8
0
  6
Continuous
 62
     7
100
AcDbLine
 10
6952.1097690994
 20
4855.3434819448
 30
0.0
 11
6952.1097690994
 21
4855.3444952238
 31
0.0
  0
LINE
  5
3C2
330
1F
100
AcDbEntity
  8
0
  6
Continuous
 62
     7
100
AcDbLine
 10
7384.6955673034
 20
4855.3444952238
 30
0.0
 11
7384.6955673034
 21
4855.3434819448
 31
0.0
  0
LINE
  5
3C3
330
1F
100
AcDbEntity
  8
0
  6
Continuous
 62
     7
100
AcDbLine
 10
6950.4026622707
 20
4857.0505589712
 30
0.0
 11
6951.4026642973
 21
4857.0504993665
 31
0.0
  0
LINE
  5
3C4
330
1F
100
AcDbEntity
  8
0
  6
Continuous
 62
     7
100
AcDbLine
 10
6950.4026622707
 20
4857.0505589712
 30
0.0
 11
6951.4026642973
 21
4857.0505589712
 31
0.0
  0
LINE
  5
3C5
330
1F
100
AcDbEntity
  8
0
  6
Continuous
 62
     7
100
AcDbLine
 10
6951.4026642973
 20
4857.0505589712
 30
0.0
 11
6951.4026642973
 21
4857.0515722501
 31
0.0
  0
LINE
  5
3C6
330
1F
100
AcDbEntity
  8
0
  6
Continuous
 62
     7
100
AcDbLine
 10
6950.4026622707
 20
4857.0505589712
 30
0.0
 11
6950.4026622707
 21
4857.0515722501
 31
0.0
  0
LINE
  5
3C7
330
1F
100
AcDbEntity
  8
0
  6
Continuous
 62
     7
100
AcDbLine
 10
7424.4026617343
 20
4855.3433627355
 30
0.0
 11
7425.402678662
 21
4855.3433627355
 31
0.0
  0
LINE
  5
3C8
330
1F
100
AcDbEntity
  8
0
  6
Continuous
 62
     7
100
AcDbLine
 10
7423.4026746089
 20
4855.3433627355
 30
0.0
 11
7425.402678662
 21
4855.3433627355
 31
0.0
  0
LINE
  5
3C9
330
1F
100
AcDbEntity
  8
0
  6
Continuous
 62
     7
100
AcDbLine
 10
7423.4026746089
 20
4855.3433627355
 30
0.0
 11
7424.4026617343
 21
4855.3433627355
 31
0.0
  0
LINE
  5
3CA
330
1F
100
AcDbEntity
  8
0
  6
Continuous
 62
     7
100
AcDbLine
 10
7424.4026617343
 20
4855.3433627355
 30
0.0
 11
7424.4026617343
 21
4855.344614433
 31
0.0
  0
LINE
  5
3CB
330
1F
100
AcDbEntity
  8
0
  6
Continuous
 62
     7
100
AcDbLine
 10
7425.402678662
 20
4855.3433627355
 30
0.0
 11
7425.402678662
 21
4855.344614433
 31
0.0
  0
LINE
  5
3CC
330
1F
100
AcDbEntity
  8
0
  6
Continuous
 62
     7
100
AcDbLine
 10
6951.6233728463
 20
5156.4946085679
 30
0.0
 11
6951.6233728463
 21
5155.3445965517
 31
0.0
  0
LINE
  5
3CD
330
1F
100
AcDbEntity
  8
0
  6
Continuous
 62
     7
100
AcDbLine
 10
6951.5526668364
 20
5156.5652996767
 30
0.0
 11
6950.3526614243
 21
5156.5652996767
 31
0.0
  0
LINE
  5
3CE
330
1F
100
AcDbEntity
  8
0
  6
Continuous
 62
     7
100
AcDbLine
 10
6950.3526614243
 20
5156.5652996767
 30
0.0
 11
6950.3802360231
 21
5156.6094667184
 31
0.0
  0
LINE
  5
3CF
330
1F
100
AcDbEntity
  8
0
  6
Continuous
 62
     7
100
AcDbLine
 10
6952.0026670033
 20
5156.9445938337
 30
0.0
 11
6952.0026670033
 21
5195.7946032751
 31
0.0
  0
LINE
  5
3D0
330
1F
100
AcDbEntity
  8
0
  6
Continuous
 62
     7
100
AcDbLine
 10
6950.3526614243
 20
5195.7946032751
 30
0.0
 11
6950.3526614243
 21
5156.5652996767
 31
0.0
  0
LINE
  5
3D1
330
1F
100
AcDbEntity
  8
0
  6
Continuous
 62
     7
100
AcDbLine
 10
6952.0026670033
 20
5195.7946032751
 30
0.0
 11
6950.3526614243
 21
5195.7946032751
 31
0.0
  0
LINE
  5
3D2
330
1F
100
AcDbEntity
  8
0
  6
Continuous
 62
     7
100
AcDbLine
 10
6995.8526642258
 20
5156.9445938337
 30
0.0
 11
6952.0026670033
 21
5156.9445938337
 31
0.0
  0
LINE
  5
3D3
330
1F
100
AcDbEntity
  8
0
  6
Continuous
 62
     7
100
AcDbLine
 10
6995.8526642258
 20
5155.3433746564
 30
0.0
 11
6995.8526642258
 21
5156.9445938337
 31
0.0
  0
LINE
  5
3D4
330
1F
100
AcDbEntity
  8
0
  6
Continuous
 62
     7
100
AcDbLine
 10
6952.0026670033
 20
5195.7946032751
 30
0.0
 11
6995.3526632125
 21
5195.7946032751
 31
0.0
  0
LINE
  5
3D5
330
1F
100
AcDbEntity
  8
0
  6
Continuous
 62
     7
100
AcDbLine
 10
6995.8526642258
 20
5195.2946097124
 30
0.0
 11
6995.8526642258
 21
5156.9445938337
 31
0.0
  0
LINE
  5
3D6
330
1F
100
AcDbEntity
  8
0
  6
Continuous
 62
     7
100
AcDbLine
 10
6950.3526614243
 20
5156.565240072
 30
0.0
 11
6951.5526668364
 21
5156.565240072
 31
0.0
  0
LINE
  5
3D7
330
1F
100
AcDbEntity
  8
0
  6
Continuous
 62
     7
100
AcDbLine
 10
6951.5526668364
 20
5156.5641373861
 30
0.0
 11
6951.5526668364
 21
5156.565240072
 31
0.0
  0
LINE
  5
3D8
330
1F
100
AcDbEntity
  8
0
  6
Continuous
 62
     7
100
AcDbLine
 10
6950.3526614243
 20
5156.565240072
 30
0.0
 11
6950.3526614243
 21
5156.5641373861
 31
0.0
  0
LINE
  5
3D9
330
1F
100
AcDbEntity
  8
0
  6
Continuous
 62
     7
100
AcDbLine
 10
7425.402678662
 20
5193.6946124303
 30
0.0
 11
7425.402678662
 21
5156.9946021306
 31
0.0
  0
LINE
  5
3DA
330
1F
100
AcDbEntity
  8
0
  6
Continuous
 62
     7
100
AcDbLine
 10
7424.2026583487
 20
5156.9946021306
 30
0.0
 11
7425.402678662
 21
5156.9946021306
 31
0.0
  0
LINE
  5
3DB
330
1F
100
AcDbEntity
  8
0
  6
Continuous
 62
     7
100
AcDbLine
 10
7425.402678662
 20
5193.6946124303
 30
0.0
 11
7424.2026583487
 21
5193.6946124303
 31
0.0
  0
LINE
  5
3DC
330
1F
100
AcDbEntity
  8
0
  6
Continuous
 62
     7
100
AcDbLine
 10
7424.2026583487
 20
5193.6946124303
 30
0.0
 11
7424.2026583487
 21
5156.9946021306
 31
0.0
  0
LINE
  5
3DD
330
1F
100
AcDbEntity
  8
0
  6
Continuous
 62
     7
100
AcDbLine
 10
6995.8526642258
 20
5156.9946021306
 30
0.0
 11
7423.752673083
 21
5156.9946021306
 31
0.0
  0
LINE
  5
3DE
330
1F
100
AcDbEntity
  8
0
  6
Continuous
 62
     7
100
AcDbLine
 10
7423.752673083
 20
5155.3651005495
 30
0.0
 11
7423.752673083
 21
5156.9946021306
 31
0.0
  0
LINE
  5
3DF
330
1F
100
AcDbEntity
  8
0
  6
Continuous
 62
     7
100
AcDbLine
 10
6995.8526642258
 20
5156.9946021306
 30
0.0
 11
6995.8526642258
 21
5155.3445965517
 31
0.0
  0
LINE
  5
3E0
330
1F
100
AcDbEntity
  8
0
  6
Continuous
 62
     7
100
AcDbLine
 10
6995.8526642258
 20
5193.6946124303
 30
0.0
 11
7423.752673083
 21
5193.6946124303
 31
0.0
  0
LINE
  5
3E1
330
1F
100
AcDbEntity
  8
0
  6
Continuous
 62
     7
100
AcDbLine
 10
7423.752673083
 20
5156.9946021306
 30
0.0
 11
7423.752673083
 21
5193.6946124303
 31
0.0
  0
LINE
  5
3E2
330
1F
100
AcDbEntity
  8
0
  6
Continuous
 62
     7
100
AcDbLine
 10
6995.8526642258
 20
5193.6946124303
 30
0.0
 11
6995.8526642258
 21
5156.9946021306
 31
0.0
  0
LINE
  5
3E3
330
1F
100
AcDbEntity
  8
0
  6
Continuous
 62
     7
100
AcDbLine
 10
6993.7526659304
 20
5195.7946032751
 30
0.0
 11
6952.0526678497
 21
5195.7946032751
 31
0.0
  0
LINE
  5
3E4
330
1F
100
AcDbEntity
  8
0
  6
Continuous
 62
     7
100
AcDbLine
 10
6952.0526678497
 20
5195.7946032751
 30
0.0
 11
6952.0526678497
 21
5639.0957147348
 31
0.0
  0
LINE
  5
3E5
330
1F
100
AcDbEntity
  8
0
  6
Continuous
 62
     7
100
AcDbLine
 10
6952.0526678497
 20
5639.0957147348
 30
0.0
 11
6952.0526678497
 21
5639.5704489666
 31
0.0
  0
LINE
  5
3E6
330
1F
100
AcDbEntity
  8
0
  6
Continuous
 62
     7
100
AcDbLine
 10
6952.0526678497
 20
5639.5704489666
 30
0.0
 11
6993.7526659304
 21
5624.3928907904
 31
0.0
  0
LINE
  5
3E7
330
1F
100
AcDbEntity
  8
0
  6
Continuous
 62
     7
100
AcDbLine
 10
6993.7526659304
 20
5624.3928907904
 30
0.0
 11
6993.7526659304
 21
5195.7946032751
 31
0.0
  0
LINE
  5
3E8
330
1F
100
AcDbEntity
  8
0
  6
Continuous
 62
     7
100
AcDbLine
 10
6994.0202870602
 20
5624.3510143365
 30
0.0
 11
6994.11627289
 21
5624.3357848841
 31
0.0
  0
LINE
  5
3E9
330
1F
100
AcDbEntity
  8
0
  6
Continuous
 62
     7
100
AcDbLine
 10
6995.4026640589
 20
5623.9892546552
 30
0.0
 11
6995.3401164348
 21
5624.0602354053
 31
0.0
  0
LINE
  5
3EA
330
1F
100
AcDbEntity
  8
0
  6
Continuous
 62
     7
100
AcDbLine
 10
6995.4026640589
 20
5623.9892546552
 30
0.0
 11
6995.4026640589
 21
5195.7946032751
 31
0.0
  0
LINE
  5
3EB
330
1F
100
AcDbEntity
  8
0
  6
Continuous
 62
     7
100
AcDbLine
 10
6995.3526632125
 20
5195.7946032751
 30
0.0
 11
6995.4026640589
 21
5195.7946032751
 31
0.0
  0
LINE
  5
3EC
330
1F
100
AcDbEntity
  8
0
  6
Continuous
 62
     7
100
AcDbLine
 10
6994.0202870602
 20
5624.3510143365
 30
0.0
 11
6993.7526659304
 21
5624.3928907904
 31
0.0
  0
LINE
  5
3ED
330
1F
100
AcDbEntity
  8
0
  6
Continuous
 62
     7
100
AcDbLine
 10
6995.8526642258
 20
5195.344588207
 30
0.0
 11
7423.752673083
 21
5195.344588207
 31
0.0
  0
LINE
  5
3EE
330
1F
100
AcDbEntity
  8
0
  6
Continuous
 62
     7
100
AcDbLine
 10
7423.752673083
 20
5193.6946124303
 30
0.0
 11
7423.752673083
 21
5195.344588207
 31
0.0
  0
LINE
  5
3EF
330
1F
100
AcDbEntity
  8
0
  6
Continuous
 62
     7
100
AcDbLine
 10
6995.3526632125
 20
5195.7946032751
 30
0.0
 11
6995.4026640589
 21
5195.7946032751
 31
0.0
  0
LINE
  5
3F0
330
1F
100
AcDbEntity
  8
0
  6
Continuous
 62
     7
100
AcDbLine
 10
6952.0526678497
 20
5195.7946032751
 30
0.0
 11
6950.4026622707
 21
5195.7946032751
 31
0.0
  0
LINE
  5
3F1
330
1F
100
AcDbEntity
  8
0
  6
Continuous
 62
     7
100
AcDbLine
 10
6950.4026622707
 20
5639.0957110095
 30
0.0
 11
6950.4026622707
 21
5195.7946032751
 31
0.0
  0
LINE
  5
3F2
330
1F
100
AcDbEntity
  8
0
  6
Continuous
 62
     7
100
AcDbLine
 10
6952.0526678497
 20
5639.0957147348
 30
0.0
 11
6951.730765515
 21
5639.0957147348
 31
0.0
  0
LINE
  5
3F3
330
1F
100
AcDbEntity
  8
0
  6
Continuous
 62
     7
100
AcDbLine
 10
6951.730765515
 20
5639.0957147348
 30
0.0
 11
6951.4212385947
 21
5639.0957147348
 31
0.0
  0
LINE
  5
3F4
330
1F
100
AcDbEntity
  8
0
  6
Continuous
 62
     7
100
AcDbLine
 10
6951.4212385947
 20
5639.0957147348
 30
0.0
 11
6951.1359707648
 21
5639.0957147348
 31
0.0
  0
LINE
  5
3F5
330
1F
100
AcDbEntity
  8
0
  6
Continuous
 62
     7
100
AcDbLine
 10
6951.1359707648
 20
5639.0957147348
 30
0.0
 11
6950.8859367306
 21
5639.0957128721
 31
0.0
  0
LINE
  5
3F6
330
1F
100
AcDbEntity
  8
0
  6
Continuous
 62
     7
100
AcDbLine
 10
6950.8859367306
 20
5639.0957128721
 30
0.0
 11
6950.6807402903
 21
5639.0957128721
 31
0.0
  0
LINE
  5
3F7
330
1F
100
AcDbEntity
  8
0
  6
Continuous
 62
     7
100
AcDbLine
 10
6950.6807402903
 20
5639.0957128721
 30
0.0
 11
6950.5282641584
 21
5639.0957110095
 31
0.0
  0
LINE
  5
3F8
330
1F
100
AcDbEntity
  8
0
  6
Continuous
 62
     7
100
AcDbLine
 10
6950.5282641584
 20
5639.0957110095
 30
0.0
 11
6950.4343719417
 21
5639.0957110095
 31
0.0
  0
LINE
  5
3F9
330
1F
100
AcDbEntity
  8
0
  6
Continuous
 62
     7
100
AcDbLine
 10
6950.4343719417
 20
5639.0957110095
 30
0.0
 11
6950.4026622707
 21
5639.0957110095
 31
0.0
  0
LINE
  5
3FA
330
1F
100
AcDbEntity
  8
0
  6
Continuous
 62
     7
100
AcDbLine
 10
7425.402678662
 20
5156.9946021306
 30
0.0
 11
7425.402678662
 21
5156.9933504331
 31
0.0
  0
LINE
  5
3FB
330
1F
100
AcDbEntity
  8
0
  6
Continuous
 62
     7
100
AcDbLine
 10
6993.9065725738
 20
5624.4108802172
 30
0.0
 11
6993.9065725738
 21
5624.4121174793
 31
0.0
  0
LINE
  5
3FC
330
1F
100
AcDbEntity
  8
0
  6
Continuous
 62
     7
100
AcDbLine
 10
6993.9065725738
 20
5624.4121174793
 30
0.0
 11
6994.0235653157
 21
5624.3389318231
 31
0.0
  0
LINE
  5
3FD
330
1F
100
AcDbEntity
  8
0
  6
Continuous
 62
     7
100
AcDbLine
 10
6994.0029421086
 20
5624.3524839635
 30
0.0
 11
6993.9065725738
 21
5624.4108802172
 31
0.0
  0
LINE
  5
3FE
330
1F
100
AcDbEntity
  8
0
  6
Continuous
 62
     7
100
AcDbLine
 10
6952.2234873111
 20
5639.5835191476
 30
0.0
 11
6952.2234873111
 21
5639.5822823513
 31
0.0
  0
LINE
  5
3FF
330
1F
100
AcDbEntity
  8
0
  6
Continuous
 62
     7
100
AcDbLine
 10
6952.2234873111
 20
5639.5822823513
 30
0.0
 11
6993.9065725738
 21
5624.4108802172
 31
0.0
  0
LINE
  5
400
330
1F
100
AcDbEntity
  8
0
  6
Continuous
 62
     7
100
AcDbLine
 10
6952.2234873111
 20
5639.5835191476
 30
0.0
 11
6993.9065725738
 21
5624.4121174793
 31
0.0
  0
LINE
  5
401
330
1F
100
AcDbEntity
  8
0
  6
Continuous
 62
     7
100
AcDbLine
 10
6952.6339099938
 20
5640.7111514825
 30
0.0
 11
6952.2234873111
 21
5639.5835191476
 31
0.0
  0
LINE
  5
402
330
1F
100
AcDbEntity
  8
0
  6
Continuous
 62
     7
100
AcDbLine
 10
6952.6339099938
 20
5640.7111514825
 30
0.0
 11
6994.3169989819
 21
5625.5397488828
 31
0.0
  0
LINE
  5
403
330
1F
100
AcDbEntity
  8
0
  6
Continuous
 62
     7
100
AcDbLine
 10
6993.9065725738
 20
5624.4121174793
 30
0.0
 11
6994.3169989819
 21
5625.5397488828
 31
0.0
  0
LINE
  5
404
330
1F
100
AcDbEntity
  8
0
  6
Continuous
 62
     7
100
AcDbLine
 10
6951.6195805008
 20
5639.1606577206
 30
0.0
 11
6951.6026676828
 21
5639.1606577206
 31
0.0
  0
LINE
  5
405
330
1F
100
AcDbEntity
  8
0
  6
Continuous
 62
     7
100
AcDbLine
 10
6951.6026602322
 20
5639.3198878038
 30
0.0
 11
6951.6026676828
 21
5639.1606577206
 31
0.0
  0
LINE
  5
406
330
1F
100
AcDbEntity
  8
0
  6
Continuous
 62
     7
100
AcDbLine
 10
6951.6706914837
 20
5640.7617167103
 30
0.0
 11
6951.6026602322
 21
5639.3198878038
 31
0.0
  0
LINE
  5
407
330
1F
100
AcDbEntity
  8
0
  6
Continuous
 62
     7
100
AcDbLine
 10
7423.752673083
 20
5155.3445965517
 30
0.0
 11
7423.752673083
 21
5155.3651005495
 31
0.0
  0
LINE
  5
408
330
1F
100
AcDbEntity
  8
0
  6
Continuous
 62
     7
100
AcDbLine
 10
6951.6026676828
 20
5639.1606577206
 30
0.0
 11
6950.4195750887
 21
5639.1606577206
 31
0.0
  0
LINE
  5
409
330
1F
100
AcDbEntity
  8
0
  6
Continuous
 62
     7
100
AcDbLine
 10
6950.4195750887
 20
5639.0957110095
 30
0.0
 11
6950.4195750887
 21
5639.1606577206
 31
0.0
  0
LINE
  5
40A
330
1F
100
AcDbEntity
  8
0
  6
Continuous
 62
     7
100
AcDbLine
 10
6951.6195805008
 20
5639.0957147348
 30
0.0
 11
6951.6195805008
 21
5639.1606577206
 31
0.0
  0
LINE
  5
40B
330
1F
100
AcDbEntity
  8
0
  6
Continuous
 62
     7
100
AcDbLine
 10
7424.13196724
 20
5156.9933504331
 30
0.0
 11
7424.1207317645
 21
5156.7436665761
 31
0.0
  0
LINE
  5
40C
330
1F
100
AcDbEntity
  8
0
  6
Continuous
 62
     7
100
AcDbLine
 10
7424.2026583487
 20
5193.6933607328
 30
0.0
 11
7423.752673083
 21
5193.6933607328
 31
0.0
  0
LINE
  5
40D
330
1F
100
AcDbEntity
  8
0
  6
Continuous
 62
     7
100
AcDbLine
 10
7424.13196724
 20
5156.9933504331
 30
0.0
 11
7424.2025093371
 21
5156.9933504331
 31
0.0
  0
LINE
  5
40E
330
1F
100
AcDbEntity
  8
0
  6
Continuous
 62
     7
100
AcDbLine
 10
7003.6823247755
 20
5298.8440007436
 30
0.0
 11
7003.3892189348
 21
5298.8440007436
 31
0.0
  0
LINE
  5
40F
330
1F
100
AcDbEntity
  8
0
  6
Continuous
 62
     7
100
AcDbLine
 10
7003.6823247755
 20
5298.8439709413
 30
0.0
 11
7004.1704737777
 21
5298.8439709413
 31
0.0
  0
LINE
  5
410
330
1F
100
AcDbEntity
  8
0
  6
Continuous
 62
     7
100
AcDbLine
 10
7004.1704737777
 20
5298.8439709413
 30
0.0
 11
7004.5210533971
 21
5298.8439709413
 31
0.0
  0
LINE
  5
411
330
1F
100
AcDbEntity
  8
0
  6
Continuous
 62
     7
100
AcDbLine
 10
7004.5210533971
 20
5298.8439709413
 30
0.0
 11
7004.7321655983
 21
5298.8439709413
 31
0.0
  0
LINE
  5
412
330
1F
100
AcDbEntity
  8
0
  6
Continuous
 62
     7
100
AcDbLine
 10
7004.7321655983
 20
5298.8439709413
 30
0.0
 11
7004.8026648546
 21
5298.8439709413
 31
0.0
  0
LINE
  5
413
330
1F
100
AcDbEntity
  8
0
  6
Continuous
 62
     7
100
AcDbLine
 10
7004.8026648546
 20
5298.8439709413
 30
0.0
 11
7004.7321655983
 21
5298.8439709413
 31
0.0
  0
LINE
  5
414
330
1F
100
AcDbEntity
  8
0
  6
Continuous
 62
     7
100
AcDbLine
 10
7004.7321655983
 20
5298.8439709413
 30
0.0
 11
7004.5210533971
 21
5298.8440007436
 31
0.0
  0
LINE
  5
415
330
1F
100
AcDbEntity
  8
0
  6
Continuous
 62
     7
100
AcDbLine
 10
7004.5210533971
 20
5298.8440007436
 30
0.0
 11
7004.1704737777
 21
5298.8440007436
 31
0.0
  0
LINE
  5
416
330
1F
100
AcDbEntity
  8
0
  6
Continuous
 62
     7
100
AcDbLine
 10
7004.1704737777
 20
5298.8440007436
 30
0.0
 11
7003.6823247755
 21
5298.8440007436
 31
0.0
  0
LINE
  5
417
330
1F
100
AcDbEntity
  8
0
  6
Continuous
 62
     7
100
AcDbLine
 10
7003.6823247755
 20
5298.8439709413
 30
0.0
 11
7003.3892189348
 21
5298.8440007436
 31
0.0
  0
LINE
  5
418
330
1F
100
AcDbEntity
  8
0
  6
Continuous
 62
     7
100
AcDbLine
 10
7003.6823247755
 20
5309.4440013635
 30
0.0
 11
7003.4127609069
 21
5309.4440013635
 31
0.0
  0
LINE
  5
419
330
1F
100
AcDbEntity
  8
0
  6
Continuous
 62
     7
100
AcDbLine
 10
7004.8026648546
 20
5309.4439715612
 30
0.0
 11
7004.7321655983
 21
5309.4439715612
 31
0.0
  0
LINE
  5
41A
330
1F
100
AcDbEntity
  8
0
  6
Continuous
 62
     7
100
AcDbLine
 10
7004.7321655983
 20
5309.4439715612
 30
0.0
 11
7004.5210533971
 21
5309.4440013635
 31
0.0
  0
LINE
  5
41B
330
1F
100
AcDbEntity
  8
0
  6
Continuous
 62
     7
100
AcDbLine
 10
7004.5210533971
 20
5309.4440013635
 30
0.0
 11
7004.1704737777
 21
5309.4440013635
 31
0.0
  0
LINE
  5
41C
330
1F
100
AcDbEntity
  8
0
  6
Continuous
 62
     7
100
AcDbLine
 10
7004.1704737777
 20
5309.4440013635
 30
0.0
 11
7003.6823247755
 21
5309.4440013635
 31
0.0
  0
LINE
  5
41D
330
1F
100
AcDbEntity
  8
0
  6
Continuous
 62
     7
100
AcDbLine
 10
6978.1793915862
 20
4855.3444952238
 30
0.0
 11
6978.1793915862
 21
4854.5206994283
 31
0.0
  0
LINE
  5
41E
330
1F
100
AcDbEntity
  8
0
  6
Continuous
 62
     7
100
AcDbLine
 10
7106.0731784636
 20
4789.2150491941
 30
0.0
 11
7106.2498615319
 21
4789.2150491941
 31
0.0
  0
LINE
  5
41F
330
1F
100
AcDbEntity
  8
0
  6
Continuous
 62
     7
100
AcDbLine
 10
7106.2498615319
 20
4789.2150491941
 30
0.0
 11
7106.7776159579
 21
4789.2150491941
 31
0.0
  0
LINE
  5
420
330
1F
100
AcDbEntity
  8
0
  6
Continuous
 62
     7
100
AcDbLine
 10
7106.7776159579
 20
4789.2150491941
 30
0.0
 11
7107.6495574052
 21
4789.2150491941
 31
0.0
  0
LINE
  5
421
330
1F
100
AcDbEntity
  8
0
  6
Continuous
 62
     7
100
AcDbLine
 10
7107.6495574052
 20
4789.2150491941
 30
0.0
 11
7108.8543162877
 21
4789.2150491941
 31
0.0
  0
LINE
  5
422
330
1F
100
AcDbEntity
  8
0
  6
Continuous
 62
     7
100
AcDbLine
 10
7108.8543162877
 20
4789.2150491941
 30
0.0
 11
7110.3761942322
 21
4789.2151087987
 31
0.0
  0
LINE
  5
423
330
1F
100
AcDbEntity
  8
0
  6
Continuous
 62
     7
100
AcDbLine
 10
7110.3761942322
 20
4789.2151087987
 30
0.0
 11
7112.1953428919
 21
4789.2151087987
 31
0.0
  0
LINE
  5
424
330
1F
100
AcDbEntity
  8
0
  6
Continuous
 62
     7
100
AcDbLine
 10
7112.1953428919
 20
4789.2151087987
 30
0.0
 11
7114.2880545194
 21
4789.2151087987
 31
0.0
  0
LINE
  5
425
330
1F
100
AcDbEntity
  8
0
  6
Continuous
 62
     7
100
AcDbLine
 10
7114.2880545194
 20
4789.2151087987
 30
0.0
 11
7116.6270376379
 21
4789.2151087987
 31
0.0
  0
LINE
  5
426
330
1F
100
AcDbEntity
  8
0
  6
Continuous
 62
     7
100
AcDbLine
 10
7116.6270376379
 20
4789.2151087987
 30
0.0
 11
7119.1818119223
 21
4789.2151087987
 31
0.0
  0
LINE
  5
427
330
1F
100
AcDbEntity
  8
0
  6
Continuous
 62
     7
100
AcDbLine
 10
7119.1818119223
 20
4789.2151087987
 30
0.0
 11
7121.9190658266
 21
4789.2151087987
 31
0.0
  0
LINE
  5
428
330
1F
100
AcDbEntity
  8
0
  6
Continuous
 62
     7
100
AcDbLine
 10
7121.9190658266
 20
4789.2151087987
 30
0.0
 11
7124.8031110699
 21
4789.2151087987
 31
0.0
  0
LINE
  5
429
330
1F
100
AcDbEntity
  8
0
  6
Continuous
 62
     7
100
AcDbLine
 10
7124.8031110699
 20
4789.2151087987
 30
0.0
 11
7127.7963520223
 21
4789.2151087987
 31
0.0
  0
LINE
  5
42A
330
1F
100
AcDbEntity
  8
0
  6
Continuous
 62
     7
100
AcDbLine
 10
7127.7963520223
 20
4789.2151087987
 30
0.0
 11
7130.8597774441
 21
4789.2151087987
 31
0.0
  0
LINE
  5
42B
330
1F
100
AcDbEntity
  8
0
  6
Continuous
 62
     7
100
AcDbLine
 10
7130.8597774441
 20
4789.2151087987
 30
0.0
 11
7133.9534373218
 21
4789.2151087987
 31
0.0
  0
LINE
  5
42C
330
1F
100
AcDbEntity
  8
0
  6
Continuous
 62
     7
100
AcDbLine
 10
7133.9534373218
 20
4789.2151087987
 30
0.0
 11
7137.0370091135
 21
4789.2151087987
 31
0.0
  0
LINE
  5
42D
330
1F
100
AcDbEntity
  8
0
  6
Continuous
 62
     7
100
AcDbLine
 10
7137.0370091135
 20
4789.2151087987
 30
0.0
 11
7140.0702894861
 21
4789.2151087987
 31
0.0
  0
LINE
  5
42E
330
1F
100
AcDbEntity
  8
0
  6
Continuous
 62
     7
100
AcDbLine
 10
7140.0702894861
 20
4789.2151087987
 30
0.0
 11
7143.0137307579
 21
4789.2151087987
 31
0.0
  0
LINE
  5
42F
330
1F
100
AcDbEntity
  8
0
  6
Continuous
 62
     7
100
AcDbLine
 10
7143.0137307579
 20
4789.2151087987
 30
0.0
 11
7145.8289773399
 21
4789.2151087987
 31
0.0
  0
LINE
  5
430
330
1F
100
AcDbEntity
  8
0
  6
Continuous
 62
     7
100
AcDbLine
 10
7145.8289773399
 20
4789.2151087987
 30
0.0
 11
7148.479312771
 21
4789.2151087987
 31
0.0
  0
LINE
  5
431
330
1F
100
AcDbEntity
  8
0
  6
Continuous
 62
     7
100
AcDbLine
 10
7148.479312771
 20
4789.2151087987
 30
0.0
 11
7150.930188709
 21
4789.2151087987
 31
0.0
  0
LINE
  5
432
330
1F
100
AcDbEntity
  8
0
  6
Continuous
 62
     7
100
AcDbLine
 10
7150.930188709
 20
4789.2151087987
 30
0.0
 11
7153.1496570641
 21
4789.2151087987
 31
0.0
  0
LINE
  5
433
330
1F
100
AcDbEntity
  8
0
  6
Continuous
 62
     7
100
AcDbLine
 10
7153.1496570641
 20
4789.2151087987
 30
0.0
 11
7155.1087797815
 21
4789.2151087987
 31
0.0
  0
LINE
  5
434
330
1F
100
AcDbEntity
  8
0
  6
Continuous
 62
     7
100
AcDbLine
 10
7155.1087797815
 20
4789.2151087987
 30
0.0
 11
7156.7820237214
 21
4789.2150491941
 31
0.0
  0
LINE
  5
435
330
1F
100
AcDbEntity
  8
0
  6
Continuous
 62
     7
100
AcDbLine
 10
7156.7820237214
 20
4789.2150491941
 30
0.0
 11
7158.1475661332
 21
4789.2150491941
 31
0.0
  0
LINE
  5
436
330
1F
100
AcDbEntity
  8
0
  6
Continuous
 62
     7
100
AcDbLine
 10
7158.1475661332
 20
4789.2150491941
 30
0.0
 11
7159.1876075799
 21
4789.2150491941
 31
0.0
  0
LINE
  5
437
330
1F
100
AcDbEntity
  8
0
  6
Continuous
 62
     7
100
AcDbLine
 10
7159.1876075799
 20
4789.2150491941
 30
0.0
 11
7159.8886029059
 21
4789.2150491941
 31
0.0
  0
LINE
  5
438
330
1F
100
AcDbEntity
  8
0
  6
Continuous
 62
     7
100
AcDbLine
 10
7159.8886029059
 20
4789.2150491941
 30
0.0
 11
7160.2414027984
 21
4789.2150491941
 31
0.0
  0
LINE
  5
439
330
1F
100
AcDbEntity
  8
0
  6
Continuous
 62
     7
100
AcDbLine
 10
7160.2414027984
 20
4789.2150491941
 30
0.0
 11
7160.2855996425
 21
4789.2150491941
 31
0.0
  0
LINE
  5
43A
330
1F
100
AcDbEntity
  8
0
  6
Continuous
 62
     7
100
AcDbLine
 10
7424.13196724
 20
5156.9933504331
 30
0.0
 11
7423.752673083
 21
5156.9933504331
 31
0.0
  0
LINE
  5
43B
330
1F
100
AcDbEntity
  8
0
  6
Continuous
 62
     7
100
AcDbLine
 10
6304.0193217753
 20
4290.4241347564
 30
0.0
 11
6304.0193217753
 21
4292.9241360975
 31
0.0
  0
LINE
  5
43C
330
1F
100
AcDbEntity
  8
0
  6
Continuous
 62
     7
100
AcDbLine
 10
6244.0193231164
 20
4292.9241360975
 30
0.0
 11
6244.0193231164
 21
4290.4241347564
 31
0.0
  0
LINE
  5
43D
330
1F
100
AcDbEntity
  8
0
  6
Continuous
 62
     7
100
AcDbLine
 10
6244.0193231164
 20
4290.4241347564
 30
0.0
 11
6244.5193241297
 21
4289.9241374685
 31
0.0
  0
LINE
  5
43E
330
1F
100
AcDbEntity
  8
0
  6
Continuous
 62
     7
100
AcDbLine
 10
6303.519320762
 20
4289.9241374685
 30
0.0
 11
6304.0193217753
 21
4290.4241347564
 31
0.0
  0
LINE
  5
43F
330
1F
100
AcDbEntity
  8
0
  6
Continuous
 62
     7
100
AcDbLine
 10
6260.0193182885
 20
4289.9241374685
 30
0.0
 11
6260.0193182885
 21
4124.9241309119
 31
0.0
  0
LINE
  5
440
330
1F
100
AcDbEntity
  8
0
  6
Continuous
 62
     7
100
AcDbLine
 10
6288.019322878
 20
4124.9241309119
 30
0.0
 11
6288.019322878
 21
4289.9241374685
 31
0.0
  0
LINE
  5
441
330
1F
100
AcDbEntity
  8
0
  6
Continuous
 62
     7
100
AcDbLine
 10
6260.0193182885
 20
4124.9241309119
 30
0.0
 11
6261.019320315
 21
4123.9241288854
 31
0.0
  0
LINE
  5
442
330
1F
100
AcDbEntity
  8
0
  6
Continuous
 62
     7
100
AcDbLine
 10
6287.0193208515
 20
4123.9241288854
 30
0.0
 11
6288.019322878
 21
4124.9241309119
 31
0.0
  0
LINE
  5
443
330
1F
100
AcDbEntity
  8
0
  6
Continuous
 62
     7
100
AcDbLine
 10
6273.3972641586
 20
4337.9241378857
 30
0.0
 11
6273.3972641586
 21
4337.9072250677
 31
0.0
  0
LINE
  5
444
330
1F
100
AcDbEntity
  8
0
  6
Continuous
 62
     7
100
AcDbLine
 10
6329.6392735506
 20
4337.9072250677
 30
0.0
 11
6329.6392735506
 21
4337.9241378857
 31
0.0
  0
LINE
  5
445
330
1F
100
AcDbEntity
  8
0
  6
Continuous
 62
     7
100
AcDbLine
 10
6291.318268603
 20
4338.2793815685
 30
0.0
 11
6291.318268603
 21
4337.9241378857
 31
0.0
  0
LINE
  5
446
330
1F
100
AcDbEntity
  8
0
  6
Continuous
 62
     7
100
AcDbLine
 10
6311.7182693391
 20
4337.9241378857
 30
0.0
 11
6311.7182693391
 21
4338.2793815685
 31
0.0
  0
LINE
  5
447
330
1F
100
AcDbEntity
  8
0
  6
Continuous
 62
     7
100
AcDbLine
 10
6291.5182682632
 20
4339.7891597701
 30
0.0
 11
6291.5182682632
 21
4338.2793815685
 31
0.0
  0
LINE
  5
448
330
1F
100
AcDbEntity
  8
0
  6
Continuous
 62
     7
100
AcDbLine
 10
6291.5182682632
 20
4341.7430000259
 30
0.0
 11
6291.5182682632
 21
4341.4983304096
 31
0.0
  0
LINE
  5
449
330
1F
100
AcDbEntity
  8
0
  6
Continuous
 62
     7
100
AcDbLine
 10
6291.5182682632
 20
4343.6968477322
 30
0.0
 11
6291.5182682632
 21
4343.452178116
 31
0.0
  0
LINE
  5
44A
330
1F
100
AcDbEntity
  8
0
  6
Continuous
 62
     7
100
AcDbLine
 10
6291.5182682632
 20
4345.6506954385
 30
0.0
 11
6291.5182682632
 21
4345.4060258223
 31
0.0
  0
LINE
  5
44B
330
1F
100
AcDbEntity
  8
0
  6
Continuous
 62
     7
100
AcDbLine
 10
6291.5182682632
 20
4347.6045431448
 30
0.0
 11
6291.5182682632
 21
4347.359866078
 31
0.0
  0
LINE
  5
44C
330
1F
100
AcDbEntity
  8
0
  6
Continuous
 62
     7
100
AcDbLine
 10
6311.5182696788
 20
4348.3371512843
 30
0.0
 11
6311.5182696788
 21
4348.5810609413
 31
0.0
  0
LINE
  5
44D
330
1F
100
AcDbEntity
  8
0
  6
Continuous
 62
     7
100
AcDbLine
 10
6311.5182696788
 20
4346.3833110286
 30
0.0
 11
6311.5182696788
 21
4346.627213235
 31
0.0
  0
LINE
  5
44E
330
1F
100
AcDbEntity
  8
0
  6
Continuous
 62
     7
100
AcDbLine
 10
6311.5182696788
 20
4344.4294633223
 30
0.0
 11
6311.5182696788
 21
4344.6733655287
 31
0.0
  0
LINE
  5
44F
330
1F
100
AcDbEntity
  8
0
  6
Continuous
 62
     7
100
AcDbLine
 10
6311.5182696788
 20
4342.475615616
 30
0.0
 11
6311.5182696788
 21
4342.719525273
 31
0.0
  0
LINE
  5
450
330
1F
100
AcDbEntity
  8
0
  6
Continuous
 62
     7
100
AcDbLine
 10
6311.5182696788
 20
4338.2793815685
 30
0.0
 11
6311.5182696788
 21
4340.7656775666
 31
0.0
  0
LINE
  5
451
330
1F
100
AcDbEntity
  8
0
  6
Continuous
 62
     7
100
AcDbLine
 10
6310.4956421017
 20
4349.8020099355
 30
0.0
 11
6310.0182703643
 21
4350.2793835355
 31
0.0
  0
LINE
  5
452
330
1F
100
AcDbEntity
  8
0
  6
Continuous
 62
     7
100
AcDbLine
 10
6293.0182713031
 20
4350.2793835355
 30
0.0
 11
6291.9175001739
 21
4349.1786124064
 31
0.0
  0
LINE
  5
453
330
1F
100
AcDbEntity
  8
0
  6
Continuous
 62
     7
100
AcDbLine
 10
6292.5758185743
 20
4346.7495741202
 30
0.0
 11
6292.5758185743
 21
4346.2707551075
 31
0.0
  0
LINE
  5
454
330
1F
100
AcDbEntity
  8
0
  6
Continuous
 62
     7
100
AcDbLine
 10
6292.5758185743
 20
4344.7957264138
 30
0.0
 11
6292.5758185743
 21
4344.3169074012
 31
0.0
  0
LINE
  5
455
330
1F
100
AcDbEntity
  8
0
  6
Continuous
 62
     7
100
AcDbLine
 10
6292.5758185743
 20
4342.8418787075
 30
0.0
 11
6292.5758185743
 21
4342.3630671455
 31
0.0
  0
LINE
  5
456
330
1F
100
AcDbEntity
  8
0
  6
Continuous
 62
     7
100
AcDbLine
 10
6292.5758185743
 20
4340.8880310012
 30
0.0
 11
6292.5758185743
 21
4340.4092194391
 31
0.0
  0
LINE
  5
457
330
1F
100
AcDbEntity
  8
0
  6
Continuous
 62
     7
100
AcDbLine
 10
6310.4607193678
 20
4347.2380341841
 30
0.0
 11
6310.4607193678
 21
4347.7168457462
 31
0.0
  0
LINE
  5
458
330
1F
100
AcDbEntity
  8
0
  6
Continuous
 62
     7
100
AcDbLine
 10
6310.4607193678
 20
4345.2841864778
 30
0.0
 11
6310.4607193678
 21
4345.7629980398
 31
0.0
  0
LINE
  5
459
330
1F
100
AcDbEntity
  8
0
  6
Continuous
 62
     7
100
AcDbLine
 10
6310.4607193678
 20
4343.3303387715
 30
0.0
 11
6310.4607193678
 21
4343.8091577841
 31
0.0
  0
LINE
  5
45A
330
1F
100
AcDbEntity
  8
0
  6
Continuous
 62
     7
100
AcDbLine
 10
6310.4607193678
 20
4341.3764985157
 30
0.0
 11
6310.4607193678
 21
4341.8553100778
 31
0.0
  0
LINE
  5
45B
330
1F
100
AcDbEntity
  8
0
  6
Continuous
 62
     7
100
AcDbLine
 10
6310.4607193678
 20
4349.1918818904
 30
0.0
 11
6310.4607193678
 21
4349.6803419543
 31
0.0
  0
LINE
  5
45C
330
1F
100
AcDbEntity
  8
0
  6
Continuous
 62
     7
100
AcDbLine
 10
6292.5758185743
 20
4348.7034218265
 30
0.0
 11
6292.5758185743
 21
4348.2246028138
 31
0.0
  0
LINE
  5
45D
330
1F
100
AcDbEntity
  8
0
  6
Continuous
 62
     7
100
AcDbLine
 10
6393.3972652017
 20
4337.9241378857
 30
0.0
 11
6393.3972652017
 21
4337.9072250677
 31
0.0
  0
LINE
  5
45E
330
1F
100
AcDbEntity
  8
0
  6
Continuous
 62
     7
100
AcDbLine
 10
6411.3182659208
 20
4338.2793815685
 30
0.0
 11
6411.3182659208
 21
4337.9241378857
 31
0.0
  0
LINE
  5
45F
330
1F
100
AcDbEntity
  8
0
  6
Continuous
 62
     7
100
AcDbLine
 10
6431.7182685195
 20
4337.9241378857
 30
0.0
 11
6431.7182685195
 21
4338.2793815685
 31
0.0
  0
LINE
  5
460
330
1F
100
AcDbEntity
  8
0
  6
Continuous
 62
     7
100
AcDbLine
 10
6411.5182693063
 20
4339.7891597701
 30
0.0
 11
6411.5182693063
 21
4338.2793815685
 31
0.0
  0
LINE
  5
461
330
1F
100
AcDbEntity
  8
0
  6
Continuous
 62
     7
100
AcDbLine
 10
6411.5182693063
 20
4341.7430000259
 30
0.0
 11
6411.5182693063
 21
4341.4983304096
 31
0.0
  0
LINE
  5
462
330
1F
100
AcDbEntity
  8
0
  6
Continuous
 62
     7
100
AcDbLine
 10
6411.5182693063
 20
4343.6968477322
 30
0.0
 11
6411.5182693063
 21
4343.452178116
 31
0.0
  0
LINE
  5
463
330
1F
100
AcDbEntity
  8
0
  6
Continuous
 62
     7
100
AcDbLine
 10
6411.5182693063
 20
4345.6506954385
 30
0.0
 11
6411.5182693063
 21
4345.4060258223
 31
0.0
  0
LINE
  5
464
330
1F
100
AcDbEntity
  8
0
  6
Continuous
 62
     7
100
AcDbLine
 10
6411.5182693063
 20
4347.6045431448
 30
0.0
 11
6411.5182693063
 21
4347.359866078
 31
0.0
  0
LINE
  5
465
330
1F
100
AcDbEntity
  8
0
  6
Continuous
 62
     7
100
AcDbLine
 10
6431.5182725846
 20
4348.3371512843
 30
0.0
 11
6431.5182725846
 21
4348.5810609413
 31
0.0
  0
LINE
  5
466
330
1F
100
AcDbEntity
  8
0
  6
Continuous
 62
     7
100
AcDbLine
 10
6431.5182725846
 20
4346.383303578
 30
0.0
 11
6431.5182725846
 21
4346.627213235
 31
0.0
  0
LINE
  5
467
330
1F
100
AcDbEntity
  8
0
  6
Continuous
 62
     7
100
AcDbLine
 10
6431.5182725846
 20
4344.4294633223
 30
0.0
 11
6431.5182725846
 21
4344.6733655287
 31
0.0
  0
LINE
  5
468
330
1F
100
AcDbEntity
  8
0
  6
Continuous
 62
     7
100
AcDbLine
 10
6431.5182725846
 20
4342.475615616
 30
0.0
 11
6431.5182725846
 21
4342.719525273
 31
0.0
  0
LINE
  5
469
330
1F
100
AcDbEntity
  8
0
  6
Continuous
 62
     7
100
AcDbLine
 10
6431.5182725846
 20
4338.2793815685
 30
0.0
 11
6431.5182725846
 21
4340.7656775666
 31
0.0
  0
LINE
  5
46A
330
1F
100
AcDbEntity
  8
0
  6
Continuous
 62
     7
100
AcDbLine
 10
6430.4956431447
 20
4349.8020099355
 30
0.0
 11
6430.0182695447
 21
4350.2793835355
 31
0.0
  0
LINE
  5
46B
330
1F
100
AcDbEntity
  8
0
  6
Continuous
 62
     7
100
AcDbLine
 10
6413.0182723461
 20
4350.2793835355
 30
0.0
 11
6411.9174937664
 21
4349.1786049558
 31
0.0
  0
LINE
  5
46C
330
1F
100
AcDbEntity
  8
0
  6
Continuous
 62
     7
100
AcDbLine
 10
6412.5758196174
 20
4346.7495741202
 30
0.0
 11
6412.5758196174
 21
4346.2707551075
 31
0.0
  0
LINE
  5
46D
330
1F
100
AcDbEntity
  8
0
  6
Continuous
 62
     7
100
AcDbLine
 10
6412.5758196174
 20
4344.7957264138
 30
0.0
 11
6412.5758196174
 21
4344.3169074012
 31
0.0
  0
LINE
  5
46E
330
1F
100
AcDbEntity
  8
0
  6
Continuous
 62
     7
100
AcDbLine
 10
6412.5758196174
 20
4342.8418787075
 30
0.0
 11
6412.5758196174
 21
4342.3630596949
 31
0.0
  0
LINE
  5
46F
330
1F
100
AcDbEntity
  8
0
  6
Continuous
 62
     7
100
AcDbLine
 10
6412.5758196174
 20
4340.8880310012
 30
0.0
 11
6412.5758196174
 21
4340.4092194391
 31
0.0
  0
LINE
  5
470
330
1F
100
AcDbEntity
  8
0
  6
Continuous
 62
     7
100
AcDbLine
 10
6430.4607222735
 20
4347.2380341841
 30
0.0
 11
6430.4607222735
 21
4347.7168457462
 31
0.0
  0
LINE
  5
471
330
1F
100
AcDbEntity
  8
0
  6
Continuous
 62
     7
100
AcDbLine
 10
6430.4607222735
 20
4345.2841864778
 30
0.0
 11
6430.4607222735
 21
4345.7629980398
 31
0.0
  0
LINE
  5
472
330
1F
100
AcDbEntity
  8
0
  6
Continuous
 62
     7
100
AcDbLine
 10
6430.4607222735
 20
4343.3303387715
 30
0.0
 11
6430.4607222735
 21
4343.8091503335
 31
0.0
  0
LINE
  5
473
330
1F
100
AcDbEntity
  8
0
  6
Continuous
 62
     7
100
AcDbLine
 10
6430.4607222735
 20
4341.3764985157
 30
0.0
 11
6430.4607222735
 21
4341.8553100778
 31
0.0
  0
LINE
  5
474
330
1F
100
AcDbEntity
  8
0
  6
Continuous
 62
     7
100
AcDbLine
 10
6430.4607222735
 20
4349.1918818904
 30
0.0
 11
6430.4607222735
 21
4349.6803419543
 31
0.0
  0
LINE
  5
475
330
1F
100
AcDbEntity
  8
0
  6
Continuous
 62
     7
100
AcDbLine
 10
6412.5758196174
 20
4348.7034218265
 30
0.0
 11
6412.5758196174
 21
4348.2246028138
 31
0.0
  0
LINE
  5
476
330
1F
100
AcDbEntity
  8
0
  6
Continuous
 62
     7
100
AcDbLine
 10
6165.659391409
 20
4147.7209331347
 30
0.0
 11
6170.2049161254
 21
4150.3453181936
 31
0.0
  0
LINE
  5
477
330
1F
100
AcDbEntity
  8
0
  6
Continuous
 62
     7
100
AcDbLine
 10
6192.8400183975
 20
4150.3452436877
 30
0.0
 11
6197.385468608
 21
4147.7209256841
 31
0.0
  0
LINE
  5
478
330
1F
100
AcDbEntity
  8
0
  6
Continuous
 62
     7
100
AcDbLine
 10
6180.0224120831
 20
4166.5491536447
 30
0.0
 11
6180.0224120831
 21
4174.5896265098
 31
0.0
  0
LINE
  5
479
330
1F
100
AcDbEntity
  8
0
  6
Continuous
 62
     7
100
AcDbLine
 10
6183.0224181472
 20
4174.5896341158
 30
0.0
 11
6183.0224181472
 21
4166.5491687013
 31
0.0
  0
LINE
  5
47A
330
1F
100
AcDbEntity
  8
0
  6
Continuous
 62
     7
100
AcDbLine
 10
6167.847135192
 20
4148.9840449644
 30
0.0
 11
6170.2049161254
 21
4150.3453181936
 31
0.0
  0
LINE
  5
47B
330
1F
100
AcDbEntity
  8
0
  6
Continuous
 62
     7
100
AcDbLine
 10
6180.0224120831
 20
4166.5491536447
 30
0.0
 11
6180.0223822808
 21
4170.0722202846
 31
0.0
  0
LINE
  5
47C
330
1F
100
AcDbEntity
  8
0
  6
Continuous
 62
     7
100
AcDbLine
 10
6180.7724552086
 20
4160.3435619608
 30
0.0
 11
6180.7724552086
 21
4149.9512571154
 31
0.0
  0
LINE
  5
47D
330
1F
100
AcDbEntity
  8
0
  6
Continuous
 62
     7
100
AcDbLine
 10
6182.2724552086
 20
4149.9512571154
 30
0.0
 11
6182.2724552086
 21
4160.3435619608
 31
0.0
  0
LINE
  5
47E
330
1F
100
AcDbEntity
  8
0
  6
Continuous
 62
     7
100
AcDbLine
 10
6182.2724552086
 20
4160.3435619608
 30
0.0
 11
6182.2724552086
 21
4149.9512571154
 31
0.0
  0
LINE
  5
47F
330
1F
100
AcDbEntity
  8
0
  6
Continuous
 62
     7
100
AcDbLine
 10
6178.9256798774
 20
4166.3503907985
 30
0.0
 11
6178.0224524558
 21
4166.247078591
 31
0.0
  0
LINE
  5
480
330
1F
100
AcDbEntity
  8
0
  6
Continuous
 62
     7
100
AcDbLine
 10
6178.0224527402
 20
4144.047737392
 30
0.0
 11
6178.9256801619
 21
4143.9444295046
 31
0.0
  0
LINE
  5
481
330
1F
100
AcDbEntity
  8
0
  6
Continuous
 62
     7
100
AcDbLine
 10
6074.0182335435
 20
4338.424138899
 30
0.0
 11
6074.0182335435
 21
4337.9241378857
 31
0.0
  0
LINE
  5
482
330
1F
100
AcDbEntity
  8
0
  6
Continuous
 62
     7
100
AcDbLine
 10
6074.0182335435
 20
4338.424138899
 30
0.0
 11
6074.0183527528
 21
4338.424138899
 31
0.0
  0
LINE
  5
483
330
1F
100
AcDbEntity
  8
0
  6
Continuous
 62
     7
100
AcDbLine
 10
6074.0183527528
 20
4337.9072250677
 30
0.0
 11
6074.0183527528
 21
4338.424138899
 31
0.0
  0
LINE
  5
484
330
1F
100
AcDbEntity
  8
0
  6
Continuous
 62
     7
100
AcDbLine
 10
6104.0183688461
 20
4338.424138899
 30
0.0
 11
6074.0183527528
 21
4338.424138899
 31
0.0
  0
LINE
  5
485
330
1F
100
AcDbEntity
  8
0
  6
Continuous
 62
     7
100
AcDbLine
 10
6104.0183688461
 20
4337.9072250677
 30
0.0
 11
6104.0183688461
 21
4338.424138899
 31
0.0
  0
LINE
  5
486
330
1F
100
AcDbEntity
  8
0
  6
Continuous
 62
     7
100
AcDbLine
 10
6444.0182308613
 20
4338.424138899
 30
0.0
 11
6444.0182308613
 21
4337.9072250677
 31
0.0
  0
LINE
  5
487
330
1F
100
AcDbEntity
  8
0
  6
Continuous
 62
     7
100
AcDbLine
 10
6444.0182308613
 20
4338.424138899
 30
0.0
 11
6444.0183649718
 21
4338.424138899
 31
0.0
  0
LINE
  5
488
330
1F
100
AcDbEntity
  8
0
  6
Continuous
 62
     7
100
AcDbLine
 10
6444.0182308613
 20
4337.9072250677
 30
0.0
 11
6444.0183649718
 21
4338.424138899
 31
0.0
  0
LINE
  5
489
330
1F
100
AcDbEntity
  8
0
  6
Continuous
 62
     7
100
AcDbLine
 10
6474.0183587133
 20
4338.424138899
 30
0.0
 11
6444.0183649718
 21
4338.424138899
 31
0.0
  0
LINE
  5
48A
330
1F
100
AcDbEntity
  8
0
  6
Continuous
 62
     7
100
AcDbLine
 10
6474.0183587133
 20
4337.9072250677
 30
0.0
 11
6474.0183587133
 21
4338.424138899
 31
0.0
  0
LINE
  5
48B
330
1F
100
AcDbEntity
  8
0
  6
Continuous
 62
     7
100
AcDbLine
 10
6244.0193231164
 20
4290.4241347564
 30
0.0
 11
6304.0193217753
 21
4290.4241347564
 31
0.0
  0
LINE
  5
48C
330
1F
100
AcDbEntity
  8
0
  6
Continuous
 62
     7
100
AcDbLine
 10
6303.519320762
 20
4289.9241374685
 30
0.0
 11
6244.5193241297
 21
4289.9241374685
 31
0.0
  0
LINE
  5
48D
330
1F
100
AcDbEntity
  8
0
  6
Continuous
 62
     7
100
AcDbLine
 10
6260.0193182885
 20
4124.9241309119
 30
0.0
 11
6288.019322878
 21
4124.9241309119
 31
0.0
  0
LINE
  5
48E
330
1F
100
AcDbEntity
  8
0
  6
Continuous
 62
     7
100
AcDbLine
 10
6287.0193208515
 20
4123.9241288854
 30
0.0
 11
6261.019320315
 21
4123.9241288854
 31
0.0
  0
LINE
  5
48F
330
1F
100
AcDbEntity
  8
0
  6
Continuous
 62
     7
100
AcDbLine
 10
6260.0193182885
 20
4287.5392326964
 30
0.0
 11
6257.011384791
 21
4289.9241374685
 31
0.0
  0
LINE
  5
490
330
1F
100
AcDbEntity
  8
0
  6
Continuous
 62
     7
100
AcDbLine
 10
6049.0177209436
 20
3864.9241255475
 30
0.0
 11
6049.0185256063
 21
3864.9241255475
 31
0.0
  0
LINE
  5
491
330
1F
100
AcDbEntity
  8
0
  6
Continuous
 62
     7
100
AcDbLine
 10
6049.0177209436
 20
4335.9241338326
 30
0.0
 11
6049.0177209436
 21
3864.9241255475
 31
0.0
  0
LINE
  5
492
330
1F
100
AcDbEntity
  8
0
  6
Continuous
 62
     7
100
AcDbLine
 10
6049.0185256063
 20
4335.9241338326
 30
0.0
 11
6049.0177209436
 21
4335.9241338326
 31
0.0
  0
LINE
  5
493
330
1F
100
AcDbEntity
  8
0
  6
Continuous
 62
     7
100
AcDbLine
 10
6049.0185256063
 20
3864.8663686467
 30
0.0
 11
6049.0177209436
 21
3864.9241255475
 31
0.0
  0
LINE
  5
494
330
1F
100
AcDbEntity
  8
0
  6
Continuous
 62
     7
100
AcDbLine
 10
6474.0186418353
 20
4337.9241378857
 30
0.0
 11
6474.0185375272
 21
4337.9241378857
 31
0.0
  0
LINE
  5
495
330
1F
100
AcDbEntity
  8
0
  6
Continuous
 62
     7
100
AcDbLine
 10
6377.6986949406
 20
3913.7970502918
 30
0.0
 11
6377.6983990267
 21
3913.7970502918
 31
0.0
  0
LINE
  5
496
330
1F
100
AcDbEntity
  8
0
  6
Continuous
 62
     7
100
AcDbLine
 10
6377.6983991942
 20
4243.8897955139
 30
0.0
 11
6377.6986951079
 21
4243.8897955139
 31
0.0
  0
LINE
  5
497
330
1F
100
AcDbEntity
  8
0
  6
Continuous
 62
     7
100
AcDbLine
 10
6454.9703310191
 20
4167.5233395649
 30
0.0
 11
6454.9700404464
 21
4167.5233395649
 31
0.0
  0
LINE
  5
498
330
1F
100
AcDbEntity
  8
0
  6
Continuous
 62
     7
100
AcDbLine
 10
6454.9703310191
 20
3990.1634978009
 30
0.0
 11
6454.9700404464
 21
3990.1634978009
 31
0.0
  0
LINE
  5
499
330
1F
100
AcDbEntity
  8
0
  6
Continuous
 62
     7
100
AcDbLine
 10
6092.8676539966
 20
3990.0859894541
 30
0.0
 11
6093.0593694507
 21
3990.1009427263
 31
0.0
  0
LINE
  5
49A
330
1F
100
AcDbEntity
  8
0
  6
Continuous
 62
     7
100
AcDbLine
 10
6093.0593694507
 20
3990.1009427263
 30
0.0
 11
6093.6336005985
 21
3990.1456760122
 31
0.0
  0
LINE
  5
49B
330
1F
100
AcDbEntity
  8
0
  6
Continuous
 62
     7
100
AcDbLine
 10
6093.6336005985
 20
3990.1456760122
 30
0.0
 11
6094.5845032989
 21
3990.2197645856
 31
0.0
  0
LINE
  5
49C
330
1F
100
AcDbEntity
  8
0
  6
Continuous
 62
     7
100
AcDbLine
 10
6094.5845032989
 20
3990.2197645856
 30
0.0
 11
6095.9029431402
 21
3990.3224633886
 31
0.0
  0
LINE
  5
49D
330
1F
100
AcDbEntity
  8
0
  6
Continuous
 62
     7
100
AcDbLine
 10
6095.9029431402
 20
3990.3224633886
 30
0.0
 11
6097.5761945306
 21
3990.4527889444
 31
0.0
  0
LINE
  5
49E
330
1F
100
AcDbEntity
  8
0
  6
Continuous
 62
     7
100
AcDbLine
 10
6097.5761945306
 20
3990.4527889444
 30
0.0
 11
6099.588149315
 21
3990.6095193578
 31
0.0
  0
LINE
  5
49F
330
1F
100
AcDbEntity
  8
0
  6
Continuous
 62
     7
100
AcDbLine
 10
6099.588149315
 20
3990.6095193578
 30
0.0
 11
6101.9194508849
 21
3990.7911049081
 31
0.0
  0
LINE
  5
4A0
330
1F
100
AcDbEntity
  8
0
  6
Continuous
 62
     7
100
AcDbLine
 10
6101.9194508849
 20
3990.7911049081
 30
0.0
 11
6104.5476282894
 21
3990.9958468629
 31
0.0
  0
LINE
  5
4A1
330
1F
100
AcDbEntity
  8
0
  6
Continuous
 62
     7
100
AcDbLine
 10
6104.5476282894
 20
3990.9958468629
 30
0.0
 11
6107.4473793565
 21
3991.2217186643
 31
0.0
  0
LINE
  5
4A2
330
1F
100
AcDbEntity
  8
0
  6
Continuous
 62
     7
100
AcDbLine
 10
6107.4473793565
 20
3991.2217186643
 30
0.0
 11
6110.5907644092
 21
3991.466574545
 31
0.0
  0
LINE
  5
4A3
330
1F
100
AcDbEntity
  8
0
  6
Continuous
 62
     7
100
AcDbLine
 10
6110.5907644092
 20
3991.466574545
 30
0.0
 11
6113.9475340902
 21
3991.7280601217
 31
0.0
  0
LINE
  5
4A4
330
1F
100
AcDbEntity
  8
0
  6
Continuous
 62
     7
100
AcDbLine
 10
6113.9475340902
 20
3991.7280601217
 30
0.0
 11
6117.4853379785
 21
3992.0036421968
 31
0.0
  0
LINE
  5
4A5
330
1F
100
AcDbEntity
  8
0
  6
Continuous
 62
     7
100
AcDbLine
 10
6117.4853379785
 20
3992.0036421968
 30
0.0
 11
6121.1701269208
 21
3992.2906683637
 31
0.0
  0
LINE
  5
4A6
330
1F
100
AcDbEntity
  8
0
  6
Continuous
 62
     7
100
AcDbLine
 10
6121.1701269208
 20
3992.2906683637
 30
0.0
 11
6124.9664063512
 21
3992.5863670064
 31
0.0
  0
LINE
  5
4A7
330
1F
100
AcDbEntity
  8
0
  6
Continuous
 62
     7
100
AcDbLine
 10
6124.9664063512
 20
3992.5863670064
 30
0.0
 11
6128.8375939189
 21
3992.8879069043
 31
0.0
  0
LINE
  5
4A8
330
1F
100
AcDbEntity
  8
0
  6
Continuous
 62
     7
100
AcDbLine
 10
6128.8375939189
 20
3992.8879069043
 30
0.0
 11
6132.746436721
 21
3993.1923972322
 31
0.0
  0
LINE
  5
4A9
330
1F
100
AcDbEntity
  8
0
  6
Continuous
 62
     7
100
AcDbLine
 10
6170.1332571965
 20
4243.8897968143
 30
0.0
 11
6170.1476062595
 21
4243.697744037
 31
0.0
  0
LINE
  5
4AA
330
1F
100
AcDbEntity
  8
0
  6
Continuous
 62
     7
100
AcDbLine
 10
6170.1476062595
 20
4243.697744037
 30
0.0
 11
6170.1914156734
 21
4243.1234355895
 31
0.0
  0
LINE
  5
4AB
330
1F
100
AcDbEntity
  8
0
  6
Continuous
 62
     7
100
AcDbLine
 10
6170.1914156734
 20
4243.1234355895
 30
0.0
 11
6170.2639694272
 21
4242.1724025039
 31
0.0
  0
LINE
  5
4AC
330
1F
100
AcDbEntity
  8
0
  6
Continuous
 62
     7
100
AcDbLine
 10
6170.2639694272
 20
4242.1724025039
 30
0.0
 11
6170.3645671665
 21
4240.8538024752
 31
0.0
  0
LINE
  5
4AD
330
1F
100
AcDbEntity
  8
0
  6
Continuous
 62
     7
100
AcDbLine
 10
6170.3645671665
 20
4240.8538024752
 30
0.0
 11
6170.4922403156
 21
4239.1803359492
 31
0.0
  0
LINE
  5
4AE
330
1F
100
AcDbEntity
  8
0
  6
Continuous
 62
     7
100
AcDbLine
 10
6170.4922403156
 20
4239.1803359492
 30
0.0
 11
6170.6457669793
 21
4237.1681185318
 31
0.0
  0
LINE
  5
4AF
330
1F
100
AcDbEntity
  8
0
  6
Continuous
 62
     7
100
AcDbLine
 10
6170.6457669793
 20
4237.1681185318
 30
0.0
 11
6170.8236719428
 21
4234.8365301145
 31
0.0
  0
LINE
  5
4B0
330
1F
100
AcDbEntity
  8
0
  6
Continuous
 62
     7
100
AcDbLine
 10
6170.8236719428
 20
4234.8365301145
 30
0.0
 11
6171.0242117702
 21
4232.2080230219
 31
0.0
  0
LINE
  5
4B1
330
1F
100
AcDbEntity
  8
0
  6
Continuous
 62
     7
100
AcDbLine
 10
6171.0242117702
 20
4232.2080230219
 30
0.0
 11
6171.2454940139
 21
4229.3079143269
 31
0.0
  0
LINE
  5
4B2
330
1F
100
AcDbEntity
  8
0
  6
Continuous
 62
     7
100
AcDbLine
 10
6171.2454940139
 20
4229.3079143269
 30
0.0
 11
6171.4853580057
 21
4226.1641288055
 31
0.0
  0
LINE
  5
4B3
330
1F
100
AcDbEntity
  8
0
  6
Continuous
 62
     7
100
AcDbLine
 10
6171.4853580057
 20
4226.1641288055
 30
0.0
 11
6171.7415089666
 21
4222.8069493426
 31
0.0
  0
LINE
  5
4B4
330
1F
100
AcDbEntity
  8
0
  6
Continuous
 62
     7
100
AcDbLine
 10
6171.7415089666
 20
4222.8069493426
 30
0.0
 11
6172.0114733039
 21
4219.2687021447
 31
0.0
  0
LINE
  5
4B5
330
1F
100
AcDbEntity
  8
0
  6
Continuous
 62
     7
100
AcDbLine
 10
6172.0114733039
 20
4219.2687021447
 30
0.0
 11
6172.2926582157
 21
4215.5834624423
 31
0.0
  0
LINE
  5
4B6
330
1F
100
AcDbEntity
  8
0
  6
Continuous
 62
     7
100
AcDbLine
 10
6172.2926582157
 20
4215.5834624423
 30
0.0
 11
6172.5823516904
 21
4211.7867248012
 31
0.0
  0
LINE
  5
4B7
330
1F
100
AcDbEntity
  8
0
  6
Continuous
 62
     7
100
AcDbLine
 10
6172.5823516904
 20
4211.7867248012
 30
0.0
 11
6172.8777672111
 21
4207.9150492204
 31
0.0
  0
LINE
  5
4B8
330
1F
100
AcDbEntity
  8
0
  6
Continuous
 62
     7
100
AcDbLine
 10
6172.8777672111
 20
4207.9150492204
 30
0.0
 11
6173.1760586559
 21
4204.0057295812
 31
0.0
  0
LINE
  5
4B9
330
1F
100
AcDbEntity
  8
0
  6
Continuous
 62
     7
100
AcDbLine
 10
6377.6983990267
 20
3913.7970502918
 30
0.0
 11
6377.6837336778
 21
3913.9890896035
 31
0.0
  0
LINE
  5
4BA
330
1F
100
AcDbEntity
  8
0
  6
Continuous
 62
     7
100
AcDbLine
 10
6377.6837336778
 20
3913.9890896035
 30
0.0
 11
6377.6399019121
 21
3914.5634101583
 31
0.0
  0
LINE
  5
4BB
330
1F
100
AcDbEntity
  8
0
  6
Continuous
 62
     7
100
AcDbLine
 10
6377.6399019121
 20
3914.5634101583
 30
0.0
 11
6377.5673258065
 21
3915.514432068
 31
0.0
  0
LINE
  5
4BC
330
1F
100
AcDbEntity
  8
0
  6
Continuous
 62
     7
100
AcDbLine
 10
6377.5673258065
 20
3915.514432068
 30
0.0
 11
6377.4667057155
 21
3916.833035822
 31
0.0
  0
LINE
  5
4BD
330
1F
100
AcDbEntity
  8
0
  6
Continuous
 62
     7
100
AcDbLine
 10
6377.4667057155
 20
3916.833035822
 30
0.0
 11
6377.3390102147
 21
3918.5064958287
 31
0.0
  0
LINE
  5
4BE
330
1F
100
AcDbEntity
  8
0
  6
Continuous
 62
     7
100
AcDbLine
 10
6377.3390102147
 20
3918.5064958287
 30
0.0
 11
6377.1854649245
 21
3920.518718834
 31
0.0
  0
LINE
  5
4BF
330
1F
100
AcDbEntity
  8
0
  6
Continuous
 62
     7
100
AcDbLine
 10
6377.1854649245
 20
3920.518718834
 30
0.0
 11
6377.0075525104
 21
3922.850303526
 31
0.0
  0
LINE
  5
4C0
330
1F
100
AcDbEntity
  8
0
  6
Continuous
 62
     7
100
AcDbLine
 10
6377.0075525104
 20
3922.850303526
 30
0.0
 11
6376.806986606
 21
3925.478808756
 31
0.0
  0
LINE
  5
4C1
330
1F
100
AcDbEntity
  8
0
  6
Continuous
 62
     7
100
AcDbLine
 10
6376.806986606
 20
3925.478808756
 30
0.0
 11
6376.5856969117
 21
3928.3789323522
 31
0.0
  0
LINE
  5
4C2
330
1F
100
AcDbEntity
  8
0
  6
Continuous
 62
     7
100
AcDbLine
 10
6376.5856969117
 20
3928.3789323522
 30
0.0
 11
6376.3458180188
 21
3931.5227197362
 31
0.0
  0
LINE
  5
4C3
330
1F
100
AcDbEntity
  8
0
  6
Continuous
 62
     7
100
AcDbLine
 10
6376.3458180188
 20
3931.5227197362
 30
0.0
 11
6376.089655882
 21
3934.8798917485
 31
0.0
  0
LINE
  5
4C4
330
1F
100
AcDbEntity
  8
0
  6
Continuous
 62
     7
100
AcDbLine
 10
6376.089655882
 20
3934.8798917485
 30
0.0
 11
6375.8196766435
 21
3938.4181426717
 31
0.0
  0
LINE
  5
4C5
330
1F
100
AcDbEntity
  8
0
  6
Continuous
 62
     7
100
AcDbLine
 10
6375.8196766435
 20
3938.4181426717
 30
0.0
 11
6375.5384842812
 21
3942.1033786489
 31
0.0
  0
LINE
  5
4C6
330
1F
100
AcDbEntity
  8
0
  6
Continuous
 62
     7
100
AcDbLine
 10
6375.5384842812
 20
3942.1033786489
 30
0.0
 11
6375.2487870811
 21
3945.9001349164
 31
0.0
  0
LINE
  5
4C7
330
1F
100
AcDbEntity
  8
0
  6
Continuous
 62
     7
100
AcDbLine
 10
6375.2487870811
 20
3945.9001349164
 30
0.0
 11
6374.9533715605
 21
3949.7717844201
 31
0.0
  0
LINE
  5
4C8
330
1F
100
AcDbEntity
  8
0
  6
Continuous
 62
     7
100
AcDbLine
 10
6374.9533715605
 20
3949.7717844201
 30
0.0
 11
6374.6550875663
 21
3953.6811040593
 31
0.0
  0
LINE
  5
4C9
330
1F
100
AcDbEntity
  8
0
  6
Continuous
 62
     7
100
AcDbLine
 10
6374.6550875663
 20
4204.0057258559
 30
0.0
 11
6374.9533715605
 21
4207.9150492204
 31
0.0
  0
LINE
  5
4CA
330
1F
100
AcDbEntity
  8
0
  6
Continuous
 62
     7
100
AcDbLine
 10
6374.9533715605
 20
4207.9150492204
 30
0.0
 11
6375.2487870811
 21
4211.7867210759
 31
0.0
  0
LINE
  5
4CB
330
1F
100
AcDbEntity
  8
0
  6
Continuous
 62
     7
100
AcDbLine
 10
6375.2487870811
 20
4211.7867210759
 30
0.0
 11
6375.5384842812
 21
4215.5834624423
 31
0.0
  0
LINE
  5
4CC
330
1F
100
AcDbEntity
  8
0
  6
Continuous
 62
     7
100
AcDbLine
 10
6375.5384842812
 20
4215.5834624423
 30
0.0
 11
6375.8196766435
 21
4219.2686984195
 31
0.0
  0
LINE
  5
4CD
330
1F
100
AcDbEntity
  8
0
  6
Continuous
 62
     7
100
AcDbLine
 10
6375.8196766435
 20
4219.2686984195
 30
0.0
 11
6376.089655882
 21
4222.8069456173
 31
0.0
  0
LINE
  5
4CE
330
1F
100
AcDbEntity
  8
0
  6
Continuous
 62
     7
100
AcDbLine
 10
6376.089655882
 20
4222.8069456173
 30
0.0
 11
6376.3458180188
 21
4226.1641288055
 31
0.0
  0
LINE
  5
4CF
330
1F
100
AcDbEntity
  8
0
  6
Continuous
 62
     7
100
AcDbLine
 10
6376.3458180188
 20
4226.1641288055
 30
0.0
 11
6376.5856969117
 21
4229.3079124643
 31
0.0
  0
LINE
  5
4D0
330
1F
100
AcDbEntity
  8
0
  6
Continuous
 62
     7
100
AcDbLine
 10
6376.5856969117
 20
4229.3079124643
 30
0.0
 11
6376.806986606
 21
4232.2080230219
 31
0.0
  0
LINE
  5
4D1
330
1F
100
AcDbEntity
  8
0
  6
Continuous
 62
     7
100
AcDbLine
 10
6376.806986606
 20
4232.2080230219
 30
0.0
 11
6377.0075525104
 21
4234.8365282519
 31
0.0
  0
LINE
  5
4D2
330
1F
100
AcDbEntity
  8
0
  6
Continuous
 62
     7
100
AcDbLine
 10
6377.0075525104
 20
4234.8365282519
 30
0.0
 11
6377.1854649245
 21
4237.1681185318
 31
0.0
  0
LINE
  5
4D3
330
1F
100
AcDbEntity
  8
0
  6
Continuous
 62
     7
100
AcDbLine
 10
6377.1854649245
 20
4237.1681185318
 30
0.0
 11
6377.3390102147
 21
4239.1803359492
 31
0.0
  0
LINE
  5
4D4
330
1F
100
AcDbEntity
  8
0
  6
Continuous
 62
     7
100
AcDbLine
 10
6377.3390102147
 20
4239.1803359492
 30
0.0
 11
6377.4667057155
 21
4240.8538015438
 31
0.0
  0
LINE
  5
4D5
330
1F
100
AcDbEntity
  8
0
  6
Continuous
 62
     7
100
AcDbLine
 10
6377.4667057155
 20
4240.8538015438
 30
0.0
 11
6377.5673258065
 21
4242.1724006413
 31
0.0
  0
LINE
  5
4D6
330
1F
100
AcDbEntity
  8
0
  6
Continuous
 62
     7
100
AcDbLine
 10
6377.5673258065
 20
4242.1724006413
 30
0.0
 11
6377.6399019121
 21
4243.1234346582
 31
0.0
  0
LINE
  5
4D7
330
1F
100
AcDbEntity
  8
0
  6
Continuous
 62
     7
100
AcDbLine
 10
6377.6399019121
 20
4243.1234346582
 30
0.0
 11
6377.6837336778
 21
4243.6977431057
 31
0.0
  0
LINE
  5
4D8
330
1F
100
AcDbEntity
  8
0
  6
Continuous
 62
     7
100
AcDbLine
 10
6377.6837336778
 20
4243.6977431057
 30
0.0
 11
6377.6983991942
 21
4243.8897955139
 31
0.0
  0
LINE
  5
4D9
330
1F
100
AcDbEntity
  8
0
  6
Continuous
 62
     7
100
AcDbLine
 10
6074.0182335435
 20
4337.9741387321
 30
0.0
 11
6050.6686503946
 21
4337.9741387321
 31
0.0
  0
LINE
  5
4DA
330
1F
100
AcDbEntity
  8
0
  6
Continuous
 62
     7
100
AcDbLine
 10
6050.2186353265
 20
4292.9741369439
 30
0.0
 11
6050.2186353265
 21
4292.9866837217
 31
0.0
  0
LINE
  5
4DB
330
1F
100
AcDbEntity
  8
0
  6
Continuous
 62
     7
100
AcDbLine
 10
6049.0186448156
 20
4292.9741369439
 30
0.0
 11
6050.2186353265
 21
4292.9741369439
 31
0.0
  0
LINE
  5
4DC
330
1F
100
AcDbEntity
  8
0
  6
Continuous
 62
     7
100
AcDbLine
 10
6049.0186448156
 20
4336.3241331531
 30
0.0
 11
6049.0186448156
 21
4292.9741369439
 31
0.0
  0
LINE
  5
4DD
330
1F
100
AcDbEntity
  8
0
  6
Continuous
 62
     7
100
AcDbLine
 10
6049.0185256063
 20
4336.3241331531
 30
0.0
 11
6049.0186448156
 21
4336.3241331531
 31
0.0
  0
LINE
  5
4DE
330
1F
100
AcDbEntity
  8
0
  6
Continuous
 62
     7
100
AcDbLine
 10
6050.6685311853
 20
4337.9741387321
 30
0.0
 11
6050.3681833803
 21
4337.9465641333
 31
0.0
  0
LINE
  5
4DF
330
1F
100
AcDbEntity
  8
0
  6
Continuous
 62
     7
100
AcDbLine
 10
6050.6686503946
 20
4337.9741387321
 30
0.0
 11
6050.6685311853
 21
4337.9741387321
 31
0.0
  0
LINE
  5
4E0
330
1F
100
AcDbEntity
  8
0
  6
Continuous
 62
     7
100
AcDbLine
 10
6049.0185256063
 20
4292.4741359307
 30
0.0
 11
6049.0185256063
 21
4336.3241331531
 31
0.0
  0
LINE
  5
4E1
330
1F
100
AcDbEntity
  8
0
  6
Continuous
 62
     7
100
AcDbLine
 10
6049.0186448156
 20
4292.4741359307
 30
0.0
 11
6049.0186448156
 21
4292.9741369439
 31
0.0
  0
LINE
  5
4E2
330
1F
100
AcDbEntity
  8
0
  6
Continuous
 62
     7
100
AcDbLine
 10
6049.0186448156
 20
4292.4741359307
 30
0.0
 11
6049.0185256063
 21
4292.4741359307
 31
0.0
  0
LINE
  5
4E3
330
1F
100
AcDbEntity
  8
0
  6
Continuous
 62
     7
100
AcDbLine
 10
6050.2186353265
 20
4292.4741359307
 30
0.0
 11
6049.0186448156
 21
4292.4741359307
 31
0.0
  0
LINE
  5
4E4
330
1F
100
AcDbEntity
  8
0
  6
Continuous
 62
     7
100
AcDbLine
 10
6050.2186353265
 20
4292.9741369439
 30
0.0
 11
6050.2186353265
 21
4292.4741359307
 31
0.0
  0
LINE
  5
4E5
330
1F
100
AcDbEntity
  8
0
  6
Continuous
 62
     7
100
AcDbLine
 10
6474.0186418353
 20
4337.9741387321
 30
0.0
 11
6474.0186418353
 21
4337.9072250677
 31
0.0
  0
LINE
  5
4E6
330
1F
100
AcDbEntity
  8
0
  6
Continuous
 62
     7
100
AcDbLine
 10
6497.3686422168
 20
4337.9741387321
 30
0.0
 11
6474.0186418353
 21
4337.9741387321
 31
0.0
  0
LINE
  5
4E7
330
1F
100
AcDbEntity
  8
0
  6
Continuous
 62
     7
100
AcDbLine
 10
6499.0186477958
 20
4292.9741369439
 30
0.0
 11
6499.0186477958
 21
4294.574134226
 31
0.0
  0
LINE
  5
4E8
330
1F
100
AcDbEntity
  8
0
  6
Continuous
 62
     7
100
AcDbLine
 10
6497.8186423837
 20
4292.9741369439
 30
0.0
 11
6499.0186477958
 21
4292.9741369439
 31
0.0
  0
LINE
  5
4E9
330
1F
100
AcDbEntity
  8
0
  6
Continuous
 62
     7
100
AcDbLine
 10
6497.8186423837
 20
4335.9159158422
 30
0.0
 11
6497.8186423837
 21
4294.574134226
 31
0.0
  0
LINE
  5
4EA
330
1F
100
AcDbEntity
  8
0
  6
Continuous
 62
     7
100
AcDbLine
 10
6497.8186423837
 20
4292.9865049077
 30
0.0
 11
6497.8186423837
 21
4292.9741369439
 31
0.0
  0
LINE
  5
4EB
330
1F
100
AcDbEntity
  8
0
  6
Continuous
 62
     7
100
AcDbLine
 10
6474.0185375272
 20
4337.9741387321
 30
0.0
 11
6474.0186418353
 21
4337.9072250677
 31
0.0
  0
LINE
  5
4EC
330
1F
100
AcDbEntity
  8
0
  6
Continuous
 62
     7
100
AcDbLine
 10
6474.0186418353
 20
4337.9741387321
 30
0.0
 11
6474.0185375272
 21
4337.9741387321
 31
0.0
  0
LINE
  5
4ED
330
1F
100
AcDbEntity
  8
0
  6
Continuous
 62
     7
100
AcDbLine
 10
6497.8185380756
 20
4292.4741359307
 30
0.0
 11
6497.8186423837
 21
4292.9865049077
 31
0.0
  0
LINE
  5
4EE
330
1F
100
AcDbEntity
  8
0
  6
Continuous
 62
     7
100
AcDbLine
 10
6497.8185380756
 20
4294.5643031849
 30
0.0
 11
6497.8186423837
 21
4335.9159158422
 31
0.0
  0
LINE
  5
4EF
330
1F
100
AcDbEntity
  8
0
  6
Continuous
 62
     7
100
AcDbLine
 10
6497.8186423837
 20
4292.4741359307
 30
0.0
 11
6497.8186423837
 21
4292.9741369439
 31
0.0
  0
LINE
  5
4F0
330
1F
100
AcDbEntity
  8
0
  6
Continuous
 62
     7
100
AcDbLine
 10
6499.0186477958
 20
4292.4741359307
 30
0.0
 11
6497.8186423837
 21
4292.4741359307
 31
0.0
  0
LINE
  5
4F1
330
1F
100
AcDbEntity
  8
0
  6
Continuous
 62
     7
100
AcDbLine
 10
6499.0186477958
 20
4292.9741369439
 30
0.0
 11
6499.0186477958
 21
4292.4741359307
 31
0.0
  0
LINE
  5
4F2
330
1F
100
AcDbEntity
  8
0
  6
Continuous
 62
     7
100
AcDbLine
 10
6497.7491731702
 20
4335.6928901626
 30
0.0
 11
6497.7491582691
 21
4336.1033128453
 31
0.0
  0
LINE
  5
4F3
330
1F
100
AcDbEntity
  8
0
  6
Continuous
 62
     7
100
AcDbLine
 10
6050.2905781328
 20
4335.6928901626
 30
0.0
 11
6050.2905781328
 21
4336.1033128453
 31
0.0
  0
LINE
  5
4F4
330
1F
100
AcDbEntity
  8
0
  6
Continuous
 62
     7
100
AcDbLine
 10
6497.2915287076
 20
4337.9072250677
 30
0.0
 11
6050.7482225953
 21
4337.9072250677
 31
0.0
  0
LINE
  5
4F5
330
1F
100
AcDbEntity
  8
0
  6
Continuous
 62
     7
100
AcDbLine
 10
6497.7491731702
 20
4335.6928901626
 30
0.0
 11
6050.2905781328
 21
4335.6928901626
 31
0.0
  0
LINE
  5
4F6
330
1F
100
AcDbEntity
  8
0
  6
Continuous
 62
     7
100
AcDbLine
 10
6050.2905781328
 20
4336.1033128453
 30
0.0
 11
6050.2905483304
 21
4294.4202275826
 31
0.0
  0
LINE
  5
4F7
330
1F
100
AcDbEntity
  8
0
  6
Continuous
 62
     7
100
AcDbLine
 10
6050.2905781328
 20
4335.6928901626
 30
0.0
 11
6050.2905483304
 21
4294.0098011745
 31
0.0
  0
LINE
  5
4F8
330
1F
100
AcDbEntity
  8
0
  6
Continuous
 62
     7
100
AcDbLine
 10
6050.2905483304
 20
4294.4202275826
 30
0.0
 11
6050.2905483304
 21
4294.0098011745
 31
0.0
  0
LINE
  5
4F9
330
1F
100
AcDbEntity
  8
0
  6
Continuous
 62
     7
100
AcDbLine
 10
6497.7491284667
 20
4294.0098011745
 30
0.0
 11
6497.7491731702
 21
4335.6928901626
 31
0.0
  0
LINE
  5
4FA
330
1F
100
AcDbEntity
  8
0
  6
Continuous
 62
     7
100
AcDbLine
 10
6497.7491284667
 20
4294.0098011745
 30
0.0
 11
6050.2905483304
 21
4294.0098011745
 31
0.0
  0
LINE
  5
4FB
330
1F
100
AcDbEntity
  8
0
  6
Continuous
 62
     7
100
AcDbLine
 10
6049.0198667108
 20
4336.2741323067
 30
0.0
 11
6050.2198870241
 21
4336.2741323067
 31
0.0
  0
LINE
  5
4FC
330
1F
100
AcDbEntity
  8
0
  6
Continuous
 62
     7
100
AcDbLine
 10
6050.2198870241
 20
4336.2741323067
 30
0.0
 11
6050.2198274194
 21
4294.574134226
 31
0.0
  0
LINE
  5
4FD
330
1F
100
AcDbEntity
  8
0
  6
Continuous
 62
     7
100
AcDbLine
 10
6050.2198274194
 20
4294.574134226
 30
0.0
 11
6049.0198369085
 21
4294.574134226
 31
0.0
  0
LINE
  5
4FE
330
1F
100
AcDbEntity
  8
0
  6
Continuous
 62
     7
100
AcDbLine
 10
6049.0198667108
 20
4336.2741323067
 30
0.0
 11
6049.0198369085
 21
4294.574134226
 31
0.0
  0
LINE
  5
4FF
330
1F
100
AcDbEntity
  8
0
  6
Continuous
 62
     7
100
AcDbLine
 10
6049.0186448156
 20
4294.574134226
 30
0.0
 11
6049.0186448156
 21
4336.2741323067
 31
0.0
  0
LINE
  5
500
330
1F
100
AcDbEntity
  8
0
  6
Continuous
 62
     7
100
AcDbLine
 10
6049.0186448156
 20
4336.2741323067
 30
0.0
 11
6049.0198667108
 21
4336.2741323067
 31
0.0
  0
LINE
  5
501
330
1F
100
AcDbEntity
  8
0
  6
Continuous
 62
     7
100
AcDbLine
 10
6049.0198369085
 20
4294.574134226
 30
0.0
 11
6049.0186448156
 21
4294.574134226
 31
0.0
  0
LINE
  5
502
330
1F
100
AcDbEntity
  8
0
  6
Continuous
 62
     7
100
AcDbLine
 10
6497.8198791801
 20
4336.2741323067
 30
0.0
 11
6497.8198344766
 21
4294.574134226
 31
0.0
  0
LINE
  5
503
330
1F
100
AcDbEntity
  8
0
  6
Continuous
 62
     7
100
AcDbLine
 10
6499.019869691
 20
4336.2741323067
 30
0.0
 11
6497.8198791801
 21
4336.2741323067
 31
0.0
  0
LINE
  5
504
330
1F
100
AcDbEntity
  8
0
  6
Continuous
 62
     7
100
AcDbLine
 10
6499.019869691
 20
4336.2741323067
 30
0.0
 11
6499.0198249875
 21
4294.574134226
 31
0.0
  0
LINE
  5
505
330
1F
100
AcDbEntity
  8
0
  6
Continuous
 62
     7
100
AcDbLine
 10
6497.8198344766
 20
4294.574134226
 30
0.0
 11
6499.0198249875
 21
4294.574134226
 31
0.0
  0
LINE
  5
506
330
1F
100
AcDbEntity
  8
0
  6
Continuous
 62
     7
100
AcDbLine
 10
6497.8186423837
 20
4336.2741323067
 30
0.0
 11
6497.8186423837
 21
4294.574134226
 31
0.0
  0
LINE
  5
507
330
1F
100
AcDbEntity
  8
0
  6
Continuous
 62
     7
100
AcDbLine
 10
6497.8186423837
 20
4336.2741323067
 30
0.0
 11
6497.8198791801
 21
4336.2741323067
 31
0.0
  0
LINE
  5
508
330
1F
100
AcDbEntity
  8
0
  6
Continuous
 62
     7
100
AcDbLine
 10
6497.8186423837
 20
4294.574134226
 30
0.0
 11
6497.8198344766
 21
4294.574134226
 31
0.0
  0
LINE
  5
509
330
1F
100
AcDbEntity
  8
0
  6
Continuous
 62
     7
100
AcDbLine
 10
6050.6698722898
 20
4337.9241378857
 30
0.0
 11
6074.0182335435
 21
4337.9241378857
 31
0.0
  0
LINE
  5
50A
330
1F
100
AcDbEntity
  8
0
  6
Continuous
 62
     7
100
AcDbLine
 10
6050.6698722898
 20
4337.9241378857
 30
0.0
 11
6050.6686503946
 21
4337.9241378857
 31
0.0
  0
LINE
  5
50B
330
1F
100
AcDbEntity
  8
0
  6
Continuous
 62
     7
100
AcDbLine
 10
6474.0198190271
 20
4337.9072250677
 30
0.0
 11
6474.0198190271
 21
4337.9241378857
 31
0.0
  0
LINE
  5
50C
330
1F
100
AcDbEntity
  8
0
  6
Continuous
 62
     7
100
AcDbLine
 10
6474.0198190271
 20
4337.9241378857
 30
0.0
 11
6497.3698790132
 21
4337.9241378857
 31
0.0
  0
LINE
  5
50D
330
1F
100
AcDbEntity
  8
0
  6
Continuous
 62
     7
100
AcDbLine
 10
6497.3698343097
 20
4292.9241360975
 30
0.0
 11
6050.6698424875
 21
4292.9241360975
 31
0.0
  0
LINE
  5
50E
330
1F
100
AcDbEntity
  8
0
  6
Continuous
 62
     7
100
AcDbLine
 10
6049.0416820108
 20
4294.3065130962
 30
0.0
 11
6049.0198369085
 21
4294.574134226
 31
0.0
  0
LINE
  5
50F
330
1F
100
AcDbEntity
  8
0
  6
Continuous
 62
     7
100
AcDbLine
 10
6049.0416820108
 20
4294.3065130962
 30
0.0
 11
6049.0603978692
 21
4294.2105235411
 31
0.0
  0
LINE
  5
510
330
1F
100
AcDbEntity
  8
0
  6
Continuous
 62
     7
100
AcDbLine
 10
6050.6698424875
 20
4292.9241360975
 30
0.0
 11
6050.2198274194
 21
4292.9866837217
 31
0.0
  0
LINE
  5
511
330
1F
100
AcDbEntity
  8
0
  6
Continuous
 62
     7
100
AcDbLine
 10
6050.6698424875
 20
4292.9241360975
 30
0.0
 11
6050.6686503946
 21
4292.9241360975
 31
0.0
  0
LINE
  5
512
330
1F
100
AcDbEntity
  8
0
  6
Continuous
 62
     7
100
AcDbLine
 10
6497.8198344766
 20
4292.9866837217
 30
0.0
 11
6497.3698343097
 21
4292.9241360975
 31
0.0
  0
LINE
  5
513
330
1F
100
AcDbEntity
  8
0
  6
Continuous
 62
     7
100
AcDbLine
 10
6498.9979798852
 20
4294.3065093709
 30
0.0
 11
6498.9792640268
 21
4294.2105272664
 31
0.0
  0
LINE
  5
514
330
1F
100
AcDbEntity
  8
0
  6
Continuous
 62
     7
100
AcDbLine
 10
6499.0198249875
 20
4294.574134226
 30
0.0
 11
6498.9979798852
 21
4294.3065093709
 31
0.0
  0
LINE
  5
515
330
1F
100
AcDbEntity
  8
0
  6
Continuous
 62
     7
100
AcDbLine
 10
6050.2198274194
 20
4294.1811086489
 30
0.0
 11
6050.2198274194
 21
4294.574134226
 31
0.0
  0
LINE
  5
516
330
1F
100
AcDbEntity
  8
0
  6
Continuous
 62
     7
100
AcDbLine
 10
6497.8198195754
 20
4294.1811011983
 30
0.0
 11
6497.8198344766
 21
4294.574134226
 31
0.0
  0
LINE
  5
517
330
1F
100
AcDbEntity
  8
0
  6
Continuous
 62
     7
100
AcDbLine
 10
6049.0416820108
 20
4294.3065130962
 30
0.0
 11
6050.2198274194
 21
4294.1811086489
 31
0.0
  0
LINE
  5
518
330
1F
100
AcDbEntity
  8
0
  6
Continuous
 62
     7
100
AcDbLine
 10
6498.9979798852
 20
4294.3065093709
 30
0.0
 11
6497.8198195754
 21
4294.1811011983
 31
0.0
  0
LINE
  5
519
330
1F
100
AcDbEntity
  8
0
  6
Continuous
 62
     7
100
AcDbLine
 10
6050.2198274194
 20
4293.5509422673
 30
0.0
 11
6050.2198274194
 21
4294.1811086489
 31
0.0
  0
LINE
  5
51A
330
1F
100
AcDbEntity
  8
0
  6
Continuous
 62
     7
100
AcDbLine
 10
6497.8198344766
 20
4293.5509422673
 30
0.0
 11
6497.8198195754
 21
4294.1811011983
 31
0.0
  0
LINE
  5
51B
330
1F
100
AcDbEntity
  8
0
  6
Continuous
 62
     7
100
AcDbLine
 10
6050.2198274194
 20
4292.9866837217
 30
0.0
 11
6050.2198274194
 21
4293.5509422673
 31
0.0
  0
LINE
  5
51C
330
1F
100
AcDbEntity
  8
0
  6
Continuous
 62
     7
100
AcDbLine
 10
6497.8198344766
 20
4293.5509422673
 30
0.0
 11
6497.8198344766
 21
4292.9866837217
 31
0.0
  0
LINE
  5
51D
330
1F
100
AcDbEntity
  8
0
  6
Continuous
 62
     7
100
AcDbLine
 10
6474.0186418353
 20
4337.9241378857
 30
0.0
 11
6474.0186418353
 21
4337.9072250677
 31
0.0
  0
LINE
  5
51E
330
1F
100
AcDbEntity
  8
0
  6
Continuous
 62
     7
100
AcDbLine
 10
6474.0186418353
 20
4337.9241378857
 30
0.0
 11
6474.0198190271
 21
4337.9241378857
 31
0.0
  0
LINE
  5
51F
330
1F
100
AcDbEntity
  8
0
  6
Continuous
 62
     7
100
AcDbLine
 10
6050.6686503946
 20
4292.4741359307
 30
0.0
 11
6050.6686503946
 21
4292.9311433686
 31
0.0
  0
LINE
  5
520
330
1F
100
AcDbEntity
  8
0
  6
Continuous
 62
     7
100
AcDbLine
 10
6050.6686503946
 20
4292.9241360975
 30
0.0
 11
6050.6686503946
 21
4292.4741359307
 31
0.0
  0
LINE
  5
521
330
1F
100
AcDbEntity
  8
0
  6
Continuous
 62
     7
100
AcDbLine
 10
6497.3686422168
 20
4292.9241360975
 30
0.0
 11
6497.3686422168
 21
4292.4741359307
 31
0.0
  0
LINE
  5
522
330
1F
100
AcDbEntity
  8
0
  6
Continuous
 62
     7
100
AcDbLine
 10
6049.0186448156
 20
3864.5741270734
 30
0.0
 11
6050.6686503946
 21
3864.5741270734
 31
0.0
  0
LINE
  5
523
330
1F
100
AcDbEntity
  8
0
  6
Continuous
 62
     7
100
AcDbLine
 10
6049.0186448156
 20
4292.4741359307
 30
0.0
 11
6049.0186448156
 21
3864.5741270734
 31
0.0
  0
LINE
  5
524
330
1F
100
AcDbEntity
  8
0
  6
Continuous
 62
     7
100
AcDbLine
 10
6050.6686503946
 20
4292.4741359307
 30
0.0
 11
6049.0186448156
 21
4292.4741359307
 31
0.0
  0
LINE
  5
525
330
1F
100
AcDbEntity
  8
0
  6
Continuous
 62
     7
100
AcDbLine
 10
6050.6686503946
 20
4292.4741359307
 30
0.0
 11
6050.6686503946
 21
3864.5741270734
 31
0.0
  0
LINE
  5
526
330
1F
100
AcDbEntity
  8
0
  6
Continuous
 62
     7
100
AcDbLine
 10
6050.6686503946
 20
3864.5741270734
 30
0.0
 11
6497.3686422168
 21
3864.5741270734
 31
0.0
  0
LINE
  5
527
330
1F
100
AcDbEntity
  8
0
  6
Continuous
 62
     7
100
AcDbLine
 10
6497.3686422168
 20
3864.5741270734
 30
0.0
 11
6497.3686422168
 21
4292.4741359307
 31
0.0
  0
LINE
  5
528
330
1F
100
AcDbEntity
  8
0
  6
Continuous
 62
     7
100
AcDbLine
 10
6050.6686503946
 20
3864.5741270734
 30
0.0
 11
6050.6686503946
 21
3862.9241214944
 31
0.0
  0
LINE
  5
529
330
1F
100
AcDbEntity
  8
0
  6
Continuous
 62
     7
100
AcDbLine
 10
6050.6686503946
 20
3862.9241214944
 30
0.0
 11
6050.6686503946
 21
3864.1241418077
 31
0.0
  0
LINE
  5
52A
330
1F
100
AcDbEntity
  8
0
  6
Continuous
 62
     7
100
AcDbLine
 10
6050.6686503946
 20
3864.1241418077
 30
0.0
 11
6050.6686503946
 21
3864.5741270734
 31
0.0
  0
LINE
  5
52B
330
1F
100
AcDbEntity
  8
0
  6
Continuous
 62
     7
100
AcDbLine
 10
6050.6686503946
 20
3862.9241214944
 30
0.0
 11
6497.3686422168
 21
3862.9241214944
 31
0.0
  0
LINE
  5
52C
330
1F
100
AcDbEntity
  8
0
  6
Continuous
 62
     7
100
AcDbLine
 10
6497.3686422168
 20
3862.9241214944
 30
0.0
 11
6497.3686422168
 21
3864.5741270734
 31
0.0
  0
LINE
  5
52D
330
1F
100
AcDbEntity
  8
0
  6
Continuous
 62
     7
100
AcDbLine
 10
6499.0186477958
 20
3864.5741270734
 30
0.0
 11
6499.0186477958
 21
4292.4741359307
 31
0.0
  0
LINE
  5
52E
330
1F
100
AcDbEntity
  8
0
  6
Continuous
 62
     7
100
AcDbLine
 10
6497.3686422168
 20
3864.5741270734
 30
0.0
 11
6499.0186477958
 21
3864.5741270734
 31
0.0
  0
LINE
  5
52F
330
1F
100
AcDbEntity
  8
0
  6
Continuous
 62
     7
100
AcDbLine
 10
6497.8185380756
 20
4292.4741359307
 30
0.0
 11
6497.3686422168
 21
4292.4741359307
 31
0.0
  0
LINE
  5
530
330
1F
100
AcDbEntity
  8
0
  6
Continuous
 62
     7
100
AcDbLine
 10
6049.0186448156
 20
3862.9241214944
 30
0.0
 11
6049.0185256063
 21
3862.9241214944
 31
0.0
  0
LINE
  5
531
330
1F
100
AcDbEntity
  8
0
  6
Continuous
 62
     7
100
AcDbLine
 10
6049.0185256063
 20
3864.1241418077
 30
0.0
 11
6049.0185256063
 21
3862.9241214944
 31
0.0
  0
LINE
  5
532
330
1F
100
AcDbEntity
  8
0
  6
Continuous
 62
     7
100
AcDbLine
 10
6049.0186448156
 20
3864.1241418077
 30
0.0
 11
6049.0185256063
 21
3864.1241418077
 31
0.0
  0
LINE
  5
533
330
1F
100
AcDbEntity
  8
0
  6
Continuous
 62
     7
100
AcDbLine
 10
6049.0186448156
 20
3862.9241214944
 30
0.0
 11
6049.0186448156
 21
3864.1241418077
 31
0.0
  0
LINE
  5
534
330
1F
100
AcDbEntity
  8
0
  6
Continuous
 62
     7
100
AcDbLine
 10
6049.0186448156
 20
3864.1241418077
 30
0.0
 11
6050.6686503946
 21
3864.1241418077
 31
0.0
  0
LINE
  5
535
330
1F
100
AcDbEntity
  8
0
  6
Continuous
 62
     7
100
AcDbLine
 10
6050.6686503946
 20
3862.9241214944
 30
0.0
 11
6049.0186448156
 21
3862.9241214944
 31
0.0
  0
LINE
  5
536
330
1F
100
AcDbEntity
  8
0
  6
Continuous
 62
     7
100
AcDbLine
 10
6049.0185256063
 20
4292.4741359307
 30
0.0
 11
6049.0185256063
 21
3864.5741270734
 31
0.0
  0
LINE
  5
537
330
1F
100
AcDbEntity
  8
0
  6
Continuous
 62
     7
100
AcDbLine
 10
6049.0185256063
 20
3864.5741270734
 30
0.0
 11
6049.0186448156
 21
3864.5741270734
 31
0.0
  0
LINE
  5
538
330
1F
100
AcDbEntity
  8
0
  6
Continuous
 62
     7
100
AcDbLine
 10
6497.8186423837
 20
3862.9241214944
 30
0.0
 11
6497.8186423837
 21
3864.5741270734
 31
0.0
  0
LINE
  5
539
330
1F
100
AcDbEntity
  8
0
  6
Continuous
 62
     7
100
AcDbLine
 10
6497.8186423837
 20
3862.9241214944
 30
0.0
 11
6497.8185380756
 21
3862.9241214944
 31
0.0
  0
LINE
  5
53A
330
1F
100
AcDbEntity
  8
0
  6
Continuous
 62
     7
100
AcDbLine
 10
6497.8185380756
 20
3864.1948329164
 30
0.0
 11
6497.8185380756
 21
3862.9241214944
 31
0.0
  0
LINE
  5
53B
330
1F
100
AcDbEntity
  8
0
  6
Continuous
 62
     7
100
AcDbLine
 10
6497.8185380756
 20
3864.1948329164
 30
0.0
 11
6497.8186423837
 21
3864.5741270734
 31
0.0
  0
LINE
  5
53C
330
1F
100
AcDbEntity
  8
0
  6
Continuous
 62
     7
100
AcDbLine
 10
6499.0186477958
 20
3864.5741270734
 30
0.0
 11
6499.0186477958
 21
3862.9241214944
 31
0.0
  0
LINE
  5
53D
330
1F
100
AcDbEntity
  8
0
  6
Continuous
 62
     7
100
AcDbLine
 10
6499.0186477958
 20
3862.9241214944
 30
0.0
 11
6497.8186423837
 21
3862.9241214944
 31
0.0
  0
LINE
  5
53E
330
1F
100
AcDbEntity
  8
0
  6
Continuous
 62
     7
100
AcDbLine
 10
6301.5182699024
 20
4337.9241378857
 30
0.0
 11
6329.6392735506
 21
4337.9241378857
 31
0.0
  0
LINE
  5
53F
330
1F
100
AcDbEntity
  8
0
  6
Continuous
 62
     7
100
AcDbLine
 10
6273.3972641586
 20
4337.9241378857
 30
0.0
 11
6301.5182699024
 21
4337.9241378857
 31
0.0
  0
LINE
  5
540
330
1F
100
AcDbEntity
  8
0
  6
Continuous
 62
     7
100
AcDbLine
 10
6291.318268603
 20
4338.2793815685
 30
0.0
 11
6311.7182693391
 21
4338.2793815685
 31
0.0
  0
LINE
  5
541
330
1F
100
AcDbEntity
  8
0
  6
Continuous
 62
     7
100
AcDbLine
 10
6293.0182713031
 20
4350.2793835355
 30
0.0
 11
6310.0182703643
 21
4350.2793835355
 31
0.0
  0
LINE
  5
542
330
1F
100
AcDbEntity
  8
0
  6
Continuous
 62
     7
100
AcDbLine
 10
6421.5183491765
 20
4337.9241378857
 30
0.0
 11
6444.0182308613
 21
4337.9241378857
 31
0.0
  0
LINE
  5
543
330
1F
100
AcDbEntity
  8
0
  6
Continuous
 62
     7
100
AcDbLine
 10
6421.5183491765
 20
4337.9241378857
 30
0.0
 11
6393.3972652017
 21
4337.9241378857
 31
0.0
  0
LINE
  5
544
330
1F
100
AcDbEntity
  8
0
  6
Continuous
 62
     7
100
AcDbLine
 10
6411.3182659208
 20
4338.2793815685
 30
0.0
 11
6431.7182685195
 21
4338.2793815685
 31
0.0
  0
LINE
  5
545
330
1F
100
AcDbEntity
  8
0
  6
Continuous
 62
     7
100
AcDbLine
 10
6430.0182695447
 20
4350.2793835355
 30
0.0
 11
6413.0182723461
 21
4350.2793835355
 31
0.0
  0
LINE
  5
546
330
1F
100
AcDbEntity
  8
0
  6
Continuous
 62
     7
100
AcDbLine
 10
6181.522422558
 20
4174.6474074319
 30
0.0
 11
6181.522422558
 21
4166.6474108964
 31
0.0
  0
LINE
  5
547
330
1F
100
AcDbEntity
  8
0
  6
Continuous
 62
     7
100
AcDbLine
 10
6092.8676539966
 20
3990.0859894541
 30
0.0
 11
6092.8293402253
 21
3990.0830017282
 31
0.0
  0
LINE
  5
548
330
1F
100
AcDbEntity
  8
0
  6
Continuous
 62
     7
100
AcDbLine
 10
6092.8293402253
 20
3990.0830017282
 30
0.0
 11
6092.7158678829
 21
3990.0741802407
 31
0.0
  0
LINE
  5
549
330
1F
100
AcDbEntity
  8
0
  6
Continuous
 62
     7
100
AcDbLine
 10
6092.7158678829
 20
3990.0741802407
 30
0.0
 11
6092.5316150247
 21
3990.0598155214
 31
0.0
  0
LINE
  5
54A
330
1F
100
AcDbEntity
  8
0
  6
Continuous
 62
     7
100
AcDbLine
 10
6092.5316150247
 20
3990.0598155214
 30
0.0
 11
6092.2836448013
 21
3990.0405036165
 31
0.0
  0
LINE
  5
54B
330
1F
100
AcDbEntity
  8
0
  6
Continuous
 62
     7
100
AcDbLine
 10
6092.2836448013
 20
3990.0405036165
 30
0.0
 11
6091.9814790546
 21
3990.0169597818
 31
0.0
  0
LINE
  5
54C
330
1F
100
AcDbEntity
  8
0
  6
Continuous
 62
     7
100
AcDbLine
 10
6091.9814790546
 20
3990.0169597818
 30
0.0
 11
6091.94805575
 21
3990.0143669797
 31
0.0
  0
LINE
  5
54D
330
1F
100
AcDbEntity
  8
0
  6
Continuous
 62
     7
100
AcDbLine
 10
6170.1332571965
 20
4243.8897968143
 30
0.0
 11
6170.1303358137
 21
4243.9281150578
 31
0.0
  0
LINE
  5
54E
330
1F
100
AcDbEntity
  8
0
  6
Continuous
 62
     7
100
AcDbLine
 10
6170.1303358137
 20
4243.9281150578
 30
0.0
 11
6170.121678239
 21
4244.0415967135
 31
0.0
  0
LINE
  5
54F
330
1F
100
AcDbEntity
  8
0
  6
Continuous
 62
     7
100
AcDbLine
 10
6170.121678239
 20
4244.0415967135
 30
0.0
 11
6170.1076115428
 21
4244.2258803053
 31
0.0
  0
LINE
  5
550
330
1F
100
AcDbEntity
  8
0
  6
Continuous
 62
     7
100
AcDbLine
 10
6170.1076115428
 20
4244.2258803053
 30
0.0
 11
6170.0886870681
 21
4244.473885919
 31
0.0
  0
LINE
  5
551
330
1F
100
AcDbEntity
  8
0
  6
Continuous
 62
     7
100
AcDbLine
 10
6170.0886870681
 20
4244.473885919
 30
0.0
 11
6170.0819964467
 21
4244.5616342006
 31
0.0
  0
LINE
  5
552
330
1F
100
AcDbEntity
  8
0
  6
Continuous
 62
     7
100
AcDbLine
 10
6377.6986949406
 20
3913.7970502918
 30
0.0
 11
6377.7016187965
 21
3913.7587176514
 31
0.0
  0
LINE
  5
553
330
1F
100
AcDbEntity
  8
0
  6
Continuous
 62
     7
100
AcDbLine
 10
6377.7016187965
 20
3913.7587176514
 30
0.0
 11
6377.7102800964
 21
3913.6452602101
 31
0.0
  0
LINE
  5
554
330
1F
100
AcDbEntity
  8
0
  6
Continuous
 62
     7
100
AcDbLine
 10
6377.7102800964
 20
3913.6452602101
 30
0.0
 11
6377.7243430673
 21
3913.4609626484
 31
0.0
  0
LINE
  5
555
330
1F
100
AcDbEntity
  8
0
  6
Continuous
 62
     7
100
AcDbLine
 10
6377.7243430673
 20
3913.4609626484
 30
0.0
 11
6377.7432638167
 21
3913.2129477215
 31
0.0
  0
LINE
  5
556
330
1F
100
AcDbEntity
  8
0
  6
Continuous
 62
     7
100
AcDbLine
 10
6377.7432638167
 20
3913.2129477215
 30
0.0
 11
6377.7663233637
 21
3912.9107521725
 31
0.0
  0
LINE
  5
557
330
1F
100
AcDbEntity
  8
0
  6
Continuous
 62
     7
100
AcDbLine
 10
6377.7663233637
 20
3912.9107521725
 30
0.0
 11
6377.7926313638
 21
3912.5659989071
 31
0.0
  0
LINE
  5
558
330
1F
100
AcDbEntity
  8
0
  6
Continuous
 62
     7
100
AcDbLine
 10
6377.7926313638
 20
3912.5659989071
 30
0.0
 11
6377.7995939313
 21
3912.4747143936
 31
0.0
  0
LINE
  5
559
330
1F
100
AcDbEntity
  8
0
  6
Continuous
 62
     7
100
AcDbLine
 10
6377.7511539816
 20
4244.5772403731
 30
0.0
 11
6377.743267542
 21
4244.4738840564
 31
0.0
  0
LINE
  5
55A
330
1F
100
AcDbEntity
  8
0
  6
Continuous
 62
     7
100
AcDbLine
 10
6377.743267542
 20
4244.4738840564
 30
0.0
 11
6377.7243430673
 21
4244.2258793741
 31
0.0
  0
LINE
  5
55B
330
1F
100
AcDbEntity
  8
0
  6
Continuous
 62
     7
100
AcDbLine
 10
6377.7243430673
 20
4244.2258793741
 30
0.0
 11
6377.7102800964
 21
4244.0415948509
 31
0.0
  0
LINE
  5
55C
330
1F
100
AcDbEntity
  8
0
  6
Continuous
 62
     7
100
AcDbLine
 10
6377.7102800964
 20
4244.0415948509
 30
0.0
 11
6377.7016187965
 21
4243.9281131952
 31
0.0
  0
LINE
  5
55D
330
1F
100
AcDbEntity
  8
0
  6
Continuous
 62
     7
100
AcDbLine
 10
6377.7016187965
 20
4243.9281131952
 30
0.0
 11
6377.6986951079
 21
4243.8897955139
 31
0.0
  0
LINE
  5
55E
330
1F
100
AcDbEntity
  8
0
  6
Continuous
 62
     7
100
AcDbLine
 10
6050.6686503946
 20
4292.9241360975
 30
0.0
 11
6050.6686503946
 21
4292.4741359307
 31
0.0
  0
LINE
  5
55F
330
1F
100
AcDbEntity
  8
0
  6
Continuous
 62
     7
100
AcDbLine
 10
6050.4285032808
 20
4293.4152895464
 30
0.0
 11
6050.2198274194
 21
4293.5509422673
 31
0.0
  0
LINE
  5
560
330
1F
100
AcDbEntity
  8
0
  6
Continuous
 62
     7
100
AcDbLine
 10
6497.6113970338
 20
4293.4154571844
 30
0.0
 11
6497.8198344766
 21
4293.5509422673
 31
0.0
  0
LINE
  5
561
330
1F
100
AcDbEntity
  8
0
  6
Continuous
 62
     7
100
AcDbLine
 10
6497.3686422168
 20
4292.4741359307
 30
0.0
 11
6304.0193217753
 21
4292.4741359307
 31
0.0
  0
LINE
  5
562
330
1F
100
AcDbEntity
  8
0
  6
Continuous
 62
     7
100
AcDbLine
 10
6244.0193231164
 20
4292.4741359307
 30
0.0
 11
6050.6686503946
 21
4292.4741359307
 31
0.0
  0
LWPOLYLINE
  5
563
330
1F
100
AcDbEntity
  8
0
  6
Continuous
 62
     7
100
AcDbPolyline
 90
        3
 70
   128
 43
0.0
 10
6255.7487487793
 20
5297.2046345937
 10
6276.4484226556
 20
5298.2680564314
 10
6292.2877530514
 20
5297.2045153844
  0
LWPOLYLINE
  5
564
330
1F
100
AcDbEntity
  8
0
  6
Continuous
 62
     7
100
AcDbPolyline
 90
        3
 70
   128
 43
0.0
 10
6292.2859191895
 20
5313.4833491931
 10
6271.5894777395
 20
5312.419902742
 10
6255.7501445334
 20
5313.4834372845
  0
LWPOLYLINE
  5
565
330
1F
100
AcDbEntity
  8
0
  6
Continuous
 62
     7
100
AcDbPolyline
 90
        3
 70
   128
 43
0.0
 10
6292.2859191895
 20
5297.2045153844
 10
6293.9918654875
 20
5306.38203268
 10
6292.2877992313
 20
5313.4833491931
  0
LWPOLYLINE
  5
566
330
1F
100
AcDbEntity
  8
0
  6
Continuous
 62
     7
100
AcDbPolyline
 90
        3
 70
   128
 43
0.0
 10
6255.7487487793
 20
5313.4834372845
 10
6254.0460378233
 20
5304.3059362045
 10
6255.7500983535
 20
5297.2046345937
  0
LWPOLYLINE
  5
567
330
1F
100
AcDbEntity
  8
0
  6
Continuous
 62
     7
100
AcDbPolyline
 90
        5
 70
   128
 43
0.0
 10
6266.5176391602
 20
5309.6440047491
 10
6262.6820879718
 20
5308.0824759078
 10
6261.0194231671
 20
5304.1381648962
 10
6262.6846688314
 20
5300.2010775281
 10
6266.5189291297
 20
5298.6439973581
  0
LWPOLYLINE
  5
568
330
1F
100
AcDbEntity
  8
0
  6
Continuous
 62
     7
100
AcDbPolyline
 90
        5
 70
   128
 43
0.0
 10
6281.5170288086
 20
5298.6439675558
 10
6285.3558126734
 20
5300.2054720486
 10
6287.0184699924
 20
5304.1497917225
 10
6285.3532178646
 20
5308.0868669519
 10
6281.5189632534
 20
5309.6439451444
  0
ARC
  5
569
330
1F
100
AcDbEntity
  8
0
  6
Continuous
 62
     7
100
AcDbCircle
 10
6494.2867103503
 20
4857.1828212501
 30
0.0
 40
2.734910897751299
100
AcDbArc
 50
317.7331521391
 51
3.364702846
  0
LWPOLYLINE
  5
56A
330
1F
100
AcDbEntity
  8
0
  6
Continuous
 62
     7
100
AcDbPolyline
 90
        3
 70
   128
 43
0.0
 10
6051.7234802246
 20
4855.344614433
 10
6051.3286981985
 20
4856.0710265582
 10
6051.0177249967
 20
4857.3445886838
  0
LWPOLYLINE
  5
56B
330
1F
100
AcDbEntity
  8
0
  6
Continuous
 62
     7
100
AcDbPolyline
 90
        4
 70
   128
 43
0.0
 10
6050.2891540527
 20
5156.9946021306
 10
6050.4242666661
 20
5155.8176401603
 10
6050.5698621062
 20
5155.4639832605
 10
6050.7392520963
 20
5155.3445965517
  0
LWPOLYLINE
  5
56C
330
1F
100
AcDbEntity
  8
0
  6
Continuous
 62
     7
100
AcDbPolyline
 90
        3
 70
   128
 43
0.0
 10
6497.8179931641
 20
5156.9933504331
 10
6497.6272226086
 20
5156.624572863
 10
6497.3685379087
 20
5156.5433651674
  0
LWPOLYLINE
  5
56D
330
1F
100
AcDbEntity
  8
0
  6
Continuous
 62
     7
100
AcDbPolyline
 90
        3
 70
   128
 43
0.0
 10
6499.0158081055
 20
5156.9933504331
 10
6498.4083490138
 20
5155.7130553892
 10
6497.3685379087
 20
5155.3433746564
  0
LWPOLYLINE
  5
56E
330
1F
100
AcDbEntity
  8
0
  6
Continuous
 62
     7
100
AcDbPolyline
 90
        3
 70
   128
 43
0.0
 10
6497.3678588867
 20
5623.9880192558
 10
6497.4854933621
 20
5624.2356150646
 10
6497.7491284667
 20
5624.4108802173
  0
LWPOLYLINE
  5
56F
330
1F
100
AcDbEntity
  8
0
  6
Continuous
 62
     7
100
AcDbPolyline
 90
        3
 70
   128
 43
0.0
 10
6497.3678588867
 20
5623.9880192558
 10
6497.5823069557
 20
5625.0316249235
 10
6497.7491284667
 20
5625.5385111551
  0
LWPOLYLINE
  5
570
330
1F
100
AcDbEntity
  8
0
  6
Continuous
 62
     7
100
AcDbPolyline
 90
        3
 70
   128
 43
0.0
 10
6050.666809082
 20
5623.9892546552
 10
6050.5518872388
 20
5624.2361319141
 10
6050.2905483304
 20
5624.4121174793
  0
LWPOLYLINE
  5
571
330
1F
100
AcDbEntity
  8
0
  6
Continuous
 62
     7
100
AcDbPolyline
 90
        3
 70
   128
 43
0.0
 10
6050.2891540527
 20
5625.5397488828
 10
6050.5030177681
 20
5624.8334871398
 10
6050.6698424875
 20
5623.9892546552
  0
LWPOLYLINE
  5
572
330
1F
100
AcDbEntity
  8
0
  6
Continuous
 62
     7
100
AcDbPolyline
 90
        3
 70
   128
 43
0.0
 10
6050.2166748047
 20
5624.0602354053
 10
6049.4012632726
 20
5624.2145775393
 10
6049.0603978692
 20
5624.3357955943
  0
LWPOLYLINE
  5
573
330
1F
100
AcDbEntity
  8
0
  6
Continuous
 62
     7
100
AcDbPolyline
 90
        3
 70
   128
 43
0.0
 10
6498.9776611328
 20
5624.3345406371
 10
6498.4932351085
 20
5624.1802122597
 10
6497.8198344766
 20
5624.0589972119
  0
LWPOLYLINE
  5
574
330
1F
100
AcDbEntity
  8
0
  6
Continuous
 62
     7
100
AcDbPolyline
 90
        3
 70
   128
 43
0.0
 10
6050.2166748047
 20
5624.095724849
 10
6049.6306070652
 20
5624.2670750309
 10
6049.0603978692
 20
5624.3357955943
  0
LWPOLYLINE
  5
575
330
1F
100
AcDbEntity
  8
0
  6
Continuous
 62
     7
100
AcDbPolyline
 90
        3
 70
   128
 43
0.0
 10
6497.8179931641
 20
5624.0944899152
 10
6498.4091047203
 20
5624.2657439893
 10
6498.9792640268
 20
5624.3345406371
  0
LWPOLYLINE
  5
576
330
1F
100
AcDbEntity
  8
0
  6
Continuous
 62
     7
100
AcDbPolyline
 90
        3
 70
   128
 43
0.0
 10
6497.3678588867
 20
5623.9880192558
 10
6497.5822885067
 20
5624.273407226
 10
6497.7491284667
 20
5624.4108802173
  0
LWPOLYLINE
  5
577
330
1F
100
AcDbEntity
  8
0
  6
Continuous
 62
     7
100
AcDbPolyline
 90
        3
 70
   128
 43
0.0
 10
6050.2891540527
 20
5624.4121174793
 10
6050.5030061721
 20
5624.2202991887
 10
6050.6698424875
 20
5623.9892546552
  0
LWPOLYLINE
  5
578
330
1F
100
AcDbEntity
  8
0
  6
Continuous
 62
     7
100
AcDbPolyline
 90
        3
 70
   128
 43
0.0
 10
6497.8179931641
 20
5624.3916493374
 10
6497.6564803284
 20
5624.1656156463
 10
6497.3698343097
 20
5623.9880192558
  0
LWPOLYLINE
  5
579
330
1F
100
AcDbEntity
  8
0
  6
Continuous
 62
     7
100
AcDbPolyline
 90
        3
 70
   128
 43
0.0
 10
6050.666809082
 20
5623.9892546552
 10
6050.3232013609
 20
5624.2152910194
 10
6050.2198274194
 20
5624.3928875308
  0
LWPOLYLINE
  5
57A
330
1F
100
AcDbEntity
  8
0
  6
Continuous
 62
     7
100
AcDbPolyline
 90
        5
 70
   128
 43
0.0
 10
6050.3730773926
 20
5640.7786332536
 10
6050.3529089194
 20
5640.7913944753
 10
6050.3424840266
 20
5640.7923602443
 10
6050.3320755661
 20
5640.7868576384
 10
6050.2905781328
 20
5640.7111514825
  0
LWPOLYLINE
  5
57B
330
1F
100
AcDbEntity
  8
0
  6
Continuous
 62
     7
100
AcDbPolyline
 90
        5
 70
   128
 43
0.0
 10
6266.4680480957
 20
5298.8440007436
 10
6262.7719404565
 20
5300.3484022908
 10
6261.1693956623
 20
5304.1496048412
 10
6262.7745167266
 20
5307.9439634734
 10
6266.4689580857
 20
5309.4440013635
  0
LWPOLYLINE
  5
57C
330
1F
100
AcDbEntity
  8
0
  6
Continuous
 62
     7
100
AcDbPolyline
 90
        5
 70
   128
 43
0.0
 10
6281.566619873
 20
5309.4439715612
 10
6285.2640816964
 20
5307.9434238119
 10
6286.8687372336
 20
5304.1409473872
 10
6285.2646354854
 20
5300.3450256422
 10
6281.5689305722
 20
5298.8439709413
  0
LWPOLYLINE
  5
57D
330
1F
100
AcDbEntity
  8
0
  6
Continuous
 62
     7
100
AcDbPolyline
 90
        3
 70
   128
 43
0.0
 10
6940.9828186035
 20
4884.6657019573
 10
6941.3213610635
 20
4885.2499938328
 10
6941.5868745381
 20
4885.7090663629
  0
LWPOLYLINE
  5
57E
330
1F
100
AcDbEntity
  8
0
  6
Continuous
 62
     7
100
AcDbPolyline
 90
        3
 70
   128
 43
0.0
 10
6942.9359436035
 20
4884.6657019573
 10
6943.2752087698
 20
4885.2499938328
 10
6943.5407222444
 20
4885.7090663629
  0
LWPOLYLINE
  5
57F
330
1F
100
AcDbEntity
  8
0
  6
Continuous
 62
     7
100
AcDbPolyline
 90
        3
 70
   128
 43
0.0
 10
7157.4516296387
 20
4786.5304559934
 10
7159.5363377775
 20
4787.5223972502
 10
7160.2518783147
 20
4789.2041415441
  0
LWPOLYLINE
  5
580
330
1F
100
AcDbEntity
  8
0
  6
Continuous
 62
     7
100
AcDbPolyline
 90
       10
 70
   128
 43
0.0
 10
7106.0562133789
 20
4789.5207018125
 10
7107.0222400799
 20
4787.3167623529
 10
7108.0746046324
 20
4786.6863381187
 10
7108.6743249248
 20
4786.5452979863
 10
7109.0558810842
 20
4786.5207393716
 10
7109.0575305575
 20
4786.5207393749
 10
7109.0575700615
 20
4786.5207398857
 10
7109.0575720294
 20
4786.5207400212
 10
7109.0575710493
 20
4786.5207401585
 10
7109.0575606758
 20
4786.5207404363
  0
LWPOLYLINE
  5
581
330
1F
100
AcDbEntity
  8
0
  6
Continuous
 62
     7
100
AcDbPolyline
 90
        3
 70
   128
 43
0.0
 10
6944.8890686035
 20
4884.6657019573
 10
6945.2290564761
 20
4885.2499938328
 10
6945.4945699507
 20
4885.7090663629
  0
LWPOLYLINE
  5
582
330
1F
100
AcDbEntity
  8
0
  6
Continuous
 62
     7
100
AcDbPolyline
 90
        3
 70
   128
 43
0.0
 10
6946.8421936035
 20
4884.6657019573
 10
6947.1828981235
 20
4885.249995441
 10
6947.4484176571
 20
4885.7090663629
  0
LWPOLYLINE
  5
583
330
1F
100
AcDbEntity
  8
0
  6
Continuous
 62
     7
100
AcDbPolyline
 90
        3
 70
   128
 43
0.0
 10
6940.616607666
 20
4903.5779428201
 10
6940.2761109858
 20
4904.1711933964
 10
6940.00656169
 20
4904.6373334246
  0
LWPOLYLINE
  5
584
330
1F
100
AcDbEntity
  8
0
  6
Continuous
 62
     7
100
AcDbPolyline
 90
        3
 70
   128
 43
0.0
 10
6942.569732666
 20
4903.5779428201
 10
6942.2299572534
 20
4904.1711949771
 10
6941.9604019458
 20
4904.6373334246
  0
LWPOLYLINE
  5
585
330
1F
100
AcDbEntity
  8
0
  6
Continuous
 62
     7
100
AcDbPolyline
 90
        3
 70
   128
 43
0.0
 10
6944.5266723633
 20
4903.5779428201
 10
6944.1837989478
 20
4904.1711933964
 10
6943.9142496521
 20
4904.6373334246
  0
LWPOLYLINE
  5
586
330
1F
100
AcDbEntity
  8
0
  6
Continuous
 62
     7
100
AcDbPolyline
 90
        3
 70
   128
 43
0.0
 10
6946.4797973633
 20
4903.5779428201
 10
6946.1376466541
 20
4904.1711933964
 10
6945.8680973584
 20
4904.6373334246
  0
LWPOLYLINE
  5
587
330
1F
100
AcDbEntity
  8
0
  6
Continuous
 62
     7
100
AcDbPolyline
 90
        3
 70
   128
 43
0.0
 10
6939.2509460449
 20
4885.0488778668
 10
6939.465016009
 20
4885.4185888844
 10
6939.6330268318
 20
4885.7090663629
  0
LWPOLYLINE
  5
588
330
1F
100
AcDbEntity
  8
0
  6
Continuous
 62
     7
100
AcDbPolyline
 90
        3
 70
   128
 43
0.0
 10
6942.0433044434
 20
4885.7267354148
 10
6942.3889346225
 20
4885.1334902382
 10
6942.6584840948
 20
4884.6673485356
  0
LWPOLYLINE
  5
589
330
1F
100
AcDbEntity
  8
0
  6
Continuous
 62
     7
100
AcDbPolyline
 90
        3
 70
   128
 43
0.0
 10
6943.9964294434
 20
4885.7267354148
 10
6944.3427817844
 20
4885.1334918194
 10
6944.6123318011
 20
4884.6673485356
  0
LWPOLYLINE
  5
58A
330
1F
100
AcDbEntity
  8
0
  6
Continuous
 62
     7
100
AcDbPolyline
 90
        3
 70
   128
 43
0.0
 10
6945.9533691406
 20
4885.7267354148
 10
6946.2966294908
 20
4885.1334918194
 10
6946.5661795074
 20
4884.6673485356
  0
LWPOLYLINE
  5
58B
330
1F
100
AcDbEntity
  8
0
  6
Continuous
 62
     7
100
AcDbPolyline
 90
        3
 70
   128
 43
0.0
 10
6947.9064941406
 20
4885.7267354148
 10
6948.2504757584
 20
4885.1334934001
 10
6948.5200197632
 20
4884.6673485356
  0
LWPOLYLINE
  5
58C
330
1F
100
AcDbEntity
  8
0
  6
Continuous
 62
     7
100
AcDbPolyline
 90
        3
 70
   128
 43
0.0
 10
6941.6809082031
 20
4904.6356868463
 10
6941.344217975
 20
4904.052311297
 10
6941.079124921
 20
4903.5939671564
  0
LWPOLYLINE
  5
58D
330
1F
100
AcDbEntity
  8
0
  6
Continuous
 62
     7
100
AcDbPolyline
 90
        3
 70
   128
 43
0.0
 10
6943.6340332031
 20
4904.6356868463
 10
6943.2980637087
 20
4904.052308129
 10
6943.0329651767
 20
4903.5939671564
  0
LWPOLYLINE
  5
58E
330
1F
100
AcDbEntity
  8
0
  6
Continuous
 62
     7
100
AcDbPolyline
 90
        3
 70
   128
 43
0.0
 10
6945.5871582031
 20
4904.6356868463
 10
6945.251905937
 20
4904.052311297
 10
6944.9868128831
 20
4903.5939671564
  0
LWPOLYLINE
  5
58F
330
1F
100
AcDbEntity
  8
0
  6
Continuous
 62
     7
100
AcDbPolyline
 90
        3
 70
   128
 43
0.0
 10
6947.5402832031
 20
4904.6356868463
 10
6947.2057536434
 20
4904.052311297
 10
6946.9406605894
 20
4903.5939671564
  0
LWPOLYLINE
  5
590
330
1F
100
AcDbEntity
  8
0
  6
Continuous
 62
     7
100
AcDbPolyline
 90
        3
 70
   128
 43
0.0
 10
6939.7239685059
 20
4904.6356868463
 10
6939.3903702687
 20
4904.052311297
 10
6939.1252772147
 20
4903.5939671564
  0
LWPOLYLINE
  5
591
330
1F
100
AcDbEntity
  8
0
  6
Continuous
 62
     7
100
AcDbPolyline
 90
        3
 70
   128
 43
0.0
 10
6940.0901794434
 20
4885.7267354148
 10
6940.4350869162
 20
4885.1334902382
 10
6940.7046363885
 20
4884.6673485356
  0
LWPOLYLINE
  5
592
330
1F
100
AcDbEntity
  8
0
  6
Continuous
 62
     7
100
AcDbPolyline
 90
       10
 70
   128
 43
0.0
 10
6939.2051696777
 20
4885.111015709
 10
6939.1705330042
 20
4885.2267204961
 10
6939.1330397307
 20
4885.7291001876
 10
6938.9040131843
 20
4894.4118819347
 10
6938.6687609671
 20
4903.0633073825
 10
6938.6244360705
 20
4903.5774515196
 10
6938.6168994822
 20
4903.5964115128
 10
6938.6131141972
 20
4903.5997681709
 10
6938.6093195548
 20
4903.5997525557
 10
6938.5889844233
 20
4903.5646975505
  0
LWPOLYLINE
  5
593
330
1F
100
AcDbEntity
  8
0
  6
Continuous
 62
     7
100
AcDbPolyline
 90
       15
 70
   128
 43
0.0
 10
6938.6444091797
 20
4903.4870010334
 10
6938.662086958
 20
4903.5161500505
 10
6938.6775174472
 20
4903.5294027024
 10
6938.6832708045
 20
4903.5270296923
 10
6938.689000433
 20
4903.5193769411
 10
6938.7003907589
 20
4903.4876101131
 10
6938.7680138051
 20
4902.9240626812
 10
6939.1352264515
 20
4894.6511636372
 10
6939.5016242074
 20
4886.3997206888
 10
6939.592830295
 20
4885.6880307267
 10
6939.5966291399
 20
4885.6840261212
 10
6939.6004311087
 20
4885.682926818
 10
6939.6061407387
 20
4885.6869410957
 10
6939.611859505
 20
4885.6980471938
 10
6939.6233261759
 20
4885.7407834845
  0
LWPOLYLINE
  5
594
330
1F
100
AcDbEntity
  8
0
  6
Continuous
 62
     7
100
AcDbPolyline
 90
       13
 70
   128
 43
0.0
 10
6940.616607666
 20
4903.5049532073
 10
6940.636381266
 20
4903.5245992742
 10
6940.6420280033
 20
4903.522785795
 10
6940.6495144982
 20
4903.5106580422
 10
6940.7381212977
 20
4902.7203981003
 10
6941.0982763078
 20
4894.3824925262
 10
6941.4578193882
 20
4886.3724030793
 10
6941.5472591875
 20
4885.6872336122
 10
6941.5509857769
 20
4885.6837083534
 10
6941.5547154202
 20
4885.6829910154
 10
6941.5603163844
 20
4885.6873835032
 10
6941.5659262087
 20
4885.6986174668
 10
6941.5771738822
 20
4885.7407834845
  0
LWPOLYLINE
  5
595
330
1F
100
AcDbEntity
  8
0
  6
Continuous
 62
     7
100
AcDbPolyline
 90
       13
 70
   128
 43
0.0
 10
6942.569732666
 20
4903.5049532073
 10
6942.5902289722
 20
4903.5245992742
 10
6942.5958757093
 20
4903.5227857952
 10
6942.6033622041
 20
4903.5106580429
 10
6942.691969003
 20
4902.7203981151
 10
6943.0521238446
 20
4894.3824926492
 10
6943.4116645884
 20
4886.3724031716
 10
6943.5011216207
 20
4885.6872335459
 10
6943.5048467317
 20
4885.6837082875
 10
6943.508574555
 20
4885.6829909517
 10
6943.514172107
 20
4885.6873834465
 10
6943.5197776427
 20
4885.6986174223
 10
6943.5310141379
 20
4885.7407834845
  0
LWPOLYLINE
  5
596
330
1F
100
AcDbEntity
  8
0
  6
Continuous
 62
     7
100
AcDbPolyline
 90
       13
 70
   128
 43
0.0
 10
6944.5266723633
 20
4903.5049532073
 10
6944.544076663
 20
4903.5245992738
 10
6944.5497234323
 20
4903.5227857956
 10
6944.5572100092
 20
4903.5106580454
 10
6944.6458165798
 20
4902.7203981127
 10
6945.0059665882
 20
4894.3824924742
 10
6945.3655048713
 20
4886.3724030723
 10
6945.4549683387
 20
4885.6872335312
 10
6945.4586937054
 20
4885.6837082765
 10
6945.4624217524
 20
4885.682990944
 10
6945.4680195725
 20
4885.6873834429
 10
6945.4736252848
 20
4885.6986174213
 10
6945.4848618442
 20
4885.7407834845
  0
LWPOLYLINE
  5
597
330
1F
100
AcDbEntity
  8
0
  6
Continuous
 62
     7
100
AcDbPolyline
 90
       13
 70
   128
 43
0.0
 10
6946.4797973633
 20
4903.5049532073
 10
6946.4979244275
 20
4903.5245992748
 10
6946.5035710758
 20
4903.5227857945
 10
6946.5110573355
 20
4903.5106580389
 10
6946.5996568184
 20
4902.7203979949
 10
6946.9598102263
 20
4894.3824923345
 10
6947.3193525389
 20
4886.3724030715
 10
6947.4088160624
 20
4885.6872335318
 10
6947.4125414248
 20
4885.6837082769
 10
6947.416269468
 20
4885.6829909443
 10
6947.4218672833
 20
4885.6873834431
 10
6947.4274729923
 20
4885.6986174213
 10
6947.4387095505
 20
4885.7407834845
  0
LWPOLYLINE
  5
598
330
1F
100
AcDbEntity
  8
0
  6
Continuous
 62
     7
100
AcDbPolyline
 90
        9
 70
   128
 43
0.0
 10
6940.0062561035
 20
4904.5018110889
 10
6940.0218579218
 20
4904.5103785382
 10
6940.0294623938
 20
4904.5097224598
 10
6940.0370457857
 20
4904.5031386177
 10
6940.1262112342
 20
4903.7223875895
 10
6940.486978234
 20
4894.3811610803
 10
6940.8464521054
 20
4885.3647816536
 10
6940.9064776742
 20
4884.8782745987
 10
6940.9669340784
 20
4884.7330812829
  0
LWPOLYLINE
  5
599
330
1F
100
AcDbEntity
  8
0
  6
Continuous
 62
     7
100
AcDbPolyline
 90
        9
 70
   128
 43
0.0
 10
6941.9593811035
 20
4904.5018110889
 10
6941.9757023814
 20
4904.5103785308
 10
6941.983305385
 20
4904.5097224485
 10
6941.9908874945
 20
4904.5031386021
 10
6942.0800560626
 20
4903.7223875844
 10
6942.4408204024
 20
4894.3811610195
 10
6942.8003012698
 20
4885.3647817473
 10
6942.8603235295
 20
4884.8782746231
 10
6942.9207743341
 20
4884.7330812829
  0
LWPOLYLINE
  5
59A
330
1F
100
AcDbEntity
  8
0
  6
Continuous
 62
     7
100
AcDbPolyline
 90
        9
 70
   128
 43
0.0
 10
6943.9125061035
 20
4904.5018110889
 10
6943.9295500249
 20
4904.5103785294
 10
6943.937153015
 20
4904.5097224467
 10
6943.9447351324
 20
4904.5031386005
 10
6944.0339046115
 20
4903.7223876042
 10
6944.3946679117
 20
4894.3811610111
 10
6944.7541429736
 20
4885.3647816982
 10
6944.8141647084
 20
4884.8782745787
 10
6944.8746220404
 20
4884.7330812829
  0
LWPOLYLINE
  5
59B
330
1F
100
AcDbEntity
  8
0
  6
Continuous
 62
     7
100
AcDbPolyline
 90
        9
 70
   128
 43
0.0
 10
6945.8656311035
 20
4904.5018110889
 10
6945.8833977324
 20
4904.5103785294
 10
6945.8910007228
 20
4904.5097224467
 10
6945.89858284
 20
4904.5031386005
 10
6945.9877523016
 20
4903.7223876036
 10
6946.3485139492
 20
4894.3811609603
 10
6946.7079905031
 20
4885.364781693
 10
6946.7680124767
 20
4884.8782745806
 10
6946.8284697468
 20
4884.7330812829
  0
LWPOLYLINE
  5
59C
330
1F
100
AcDbEntity
  8
0
  6
Continuous
 62
     7
100
AcDbPolyline
 90
       15
 70
   128
 43
0.0
 10
6939.7430419922
 20
4904.5305312144
 10
6939.7611962659
 20
4904.5749411061
 10
6939.7765766416
 20
4904.5965801989
 10
6939.7823091588
 20
4904.5942424428
 10
6939.7880203262
 20
4904.5852529813
 10
6939.799388333
 20
4904.5483131496
 10
6939.8671109964
 20
4903.9035307414
 10
6940.234267298
 20
4894.6510420305
 10
6940.6005791841
 20
4885.4248816924
 10
6940.6917870954
 20
4884.6280201466
 10
6940.6955840035
 20
4884.6234725941
 10
6940.6993836907
 20
4884.622172707
 10
6940.7050892053
 20
4884.6265538147
 10
6940.710802961
 20
4884.6388633391
 10
6940.7222570116
 20
4884.6864965277
  0
LWPOLYLINE
  5
59D
330
1F
100
AcDbEntity
  8
0
  6
Continuous
 62
     7
100
AcDbPolyline
 90
       15
 70
   128
 43
0.0
 10
6941.6961669922
 20
4904.5305312144
 10
6941.7150439731
 20
4904.5749411061
 10
6941.7304243482
 20
4904.5965801989
 10
6941.7361568645
 20
4904.5942424428
 10
6941.7418680305
 20
4904.5852529812
 10
6941.7532360336
 20
4904.5483131493
 10
6941.8209586913
 20
4903.9035307408
 10
6942.1881117556
 20
4894.651041929
 10
6942.5544268399
 20
4885.4248816911
 10
6942.6456348198
 20
4884.6280201472
 10
6942.6494317236
 20
4884.6234725946
 10
6942.6532314068
 20
4884.6221727073
 10
6942.6589369164
 20
4884.6265538148
 10
6942.6646506686
 20
4884.6388633391
 10
6942.6761047179
 20
4884.6864965277
  0
LWPOLYLINE
  5
59E
330
1F
100
AcDbEntity
  8
0
  6
Continuous
 62
     7
100
AcDbPolyline
 90
       15
 70
   128
 43
0.0
 10
6943.6531066895
 20
4904.5305312144
 10
6943.6688918614
 20
4904.5749411088
 10
6943.6842721107
 20
4904.5965801998
 10
6943.6900044389
 20
4904.5942424408
 10
6943.6957153318
 20
4904.5852529752
 10
6943.7070825772
 20
4904.5483131322
 10
6943.7747993669
 20
4903.9035306406
 10
6944.1419602941
 20
4894.6510419552
 10
6944.5082747357
 20
4885.4248816962
 10
6944.5994824582
 20
4884.6280201454
 10
6944.6032793785
 20
4884.6234725932
 10
6944.6070790766
 20
4884.6221727063
 10
6944.6127846049
 20
4884.6265538143
 10
6944.6184983699
 20
4884.638863339
 10
6944.6299524242
 20
4884.6864965277
  0
LWPOLYLINE
  5
59F
330
1F
100
AcDbEntity
  8
0
  6
Continuous
 62
     7
100
AcDbPolyline
 90
       15
 70
   128
 43
0.0
 10
6945.6062316895
 20
4904.5305312144
 10
6945.6227359829
 20
4904.5749411057
 10
6945.6381194634
 20
4904.5965802001
 10
6945.6438527122
 20
4904.5942424451
 10
6945.649564345
 20
4904.5852529837
 10
6945.6609325833
 20
4904.5483131495
 10
6945.7286476585
 20
4903.9035307187
 10
6946.0958089369
 20
4894.6510421039
 10
6946.4621253805
 20
4885.4248816979
 10
6946.5533085973
 20
4884.6280202208
 10
6946.5571067113
 20
4884.6234726646
 10
6946.5609079942
 20
4884.6221727725
 10
6946.5666166871
 20
4884.6265538701
 10
6946.5723346356
 20
4884.638863381
 10
6946.5838001305
 20
4884.6864965277
  0
LWPOLYLINE
  5
5A0
330
1F
100
AcDbEntity
  8
0
  6
Continuous
 62
     7
100
AcDbPolyline
 90
       15
 70
   128
 43
0.0
 10
6947.5593566895
 20
4904.5305312144
 10
6947.5765796925
 20
4904.5749411072
 10
6947.5919600323
 20
4904.5965801993
 10
6947.597692496
 20
4904.594242442
 10
6947.6034035869
 20
4904.5852529787
 10
6947.6147713932
 20
4904.5483131425
 10
6947.6824937357
 20
4903.9035307266
 10
6948.0496564691
 20
4894.6510422123
 10
6948.4159699372
 20
4885.4248817802
 10
6948.5071715065
 20
4884.6280201605
 10
6948.5109681491
 20
4884.6234726045
 10
6948.5147676032
 20
4884.6221727142
 10
6948.5204728373
 20
4884.6265538181
 10
6948.5261864068
 20
4884.63886334
 10
6948.5376403863
 20
4884.6864965277
  0
LWPOLYLINE
  5
5A1
330
1F
100
AcDbEntity
  8
0
  6
Continuous
 62
     7
100
AcDbPolyline
 90
        8
 70
   128
 43
0.0
 10
6939.1326904297
 20
4903.4856208133
 10
6939.1653245342
 20
4903.5447062129
 10
6939.1709491768
 20
4903.5433841633
 10
6939.1765528048
 20
4903.5363293974
 10
6939.1877060623
 20
4903.5058180241
 10
6939.2540994536
 20
4902.9542371906
 10
6939.6142717907
 20
4894.9261189854
 10
6940.0927127535
 20
4885.77620727
  0
LWPOLYLINE
  5
5A2
330
1F
100
AcDbEntity
  8
0
  6
Continuous
 62
     7
100
AcDbPolyline
 90
        8
 70
   128
 43
0.0
 10
6941.0858154297
 20
4903.4856208133
 10
6941.1191722405
 20
4903.5447062129
 10
6941.1247968833
 20
4903.5433841633
 10
6941.1304005116
 20
4903.5363293974
 10
6941.1415537701
 20
4903.5058180242
 10
6941.2079471633
 20
4902.9542371909
 10
6941.5681200727
 20
4894.9261190052
 10
6942.0465604598
 20
4885.77620727
  0
LWPOLYLINE
  5
5A3
330
1F
100
AcDbEntity
  8
0
  6
Continuous
 62
     7
100
AcDbPolyline
 90
        8
 70
   128
 43
0.0
 10
6943.042755127
 20
4903.4856208133
 10
6943.073019952
 20
4903.5447062131
 10
6943.0786445823
 20
4903.543384163
 10
6943.0842481925
 20
4903.5363293966
 10
6943.0954014025
 20
4903.5058180219
 10
6943.1617946909
 20
4902.954237185
 10
6943.521968733
 20
4894.9261190384
 10
6944.0004081661
 20
4885.77620727
  0
LWPOLYLINE
  5
5A4
330
1F
100
AcDbEntity
  8
0
  6
Continuous
 62
     7
100
AcDbPolyline
 90
        8
 70
   128
 43
0.0
 10
6944.995880127
 20
4903.4856208133
 10
6945.0268606299
 20
4903.5447062124
 10
6945.0324844625
 20
4903.5433841598
 10
6945.0380875101
 20
4903.5363293913
 10
6945.0492402295
 20
4903.5058180141
 10
6945.1156404447
 20
4902.9542371931
 10
6945.4758162411
 20
4894.9261191602
 10
6945.9542484218
 20
4885.77620727
  0
LWPOLYLINE
  5
5A5
330
1F
100
AcDbEntity
  8
0
  6
Continuous
 62
     7
100
AcDbPolyline
 90
        8
 70
   128
 43
0.0
 10
6946.949005127
 20
4903.4856208133
 10
6946.9807078359
 20
4903.5447062117
 10
6946.9863326532
 20
4903.543384165
 10
6946.9919365391
 20
4903.5363294034
 10
6947.0030905223
 20
4903.5058180423
 10
6947.0694897483
 20
4902.954237302
 10
6947.4296574329
 20
4894.9261190639
 10
6947.9080961282
 20
4885.77620727
  0
LWPOLYLINE
  5
5A6
330
1F
100
AcDbEntity
  8
0
  6
Continuous
 62
     7
100
AcDbPolyline
 90
       12
 70
   128
 43
0.0
 10
7003.7727355957
 20
5425.8124590385
 10
7003.7733334279
 20
5425.8124592252
 10
7003.7733288252
 20
5425.8124598648
 10
7003.7733285005
 20
5425.8124601185
 10
7003.7733285662
 20
5425.8124604167
 10
7003.7733299891
 20
5425.8124611598
 10
7003.7733873014
 20
5425.8124711621
 10
7003.7744934111
 20
5425.8126073495
 10
7003.7934277734
 20
5425.81478738
 10
7003.8508670489
 20
5425.8212627962
 10
7005.1535035294
 20
5425.9053726262
 10
7006.9615879292
 20
5425.8201927412
  0
LWPOLYLINE
  5
5A7
330
1F
100
AcDbEntity
  8
0
  6
Continuous
 62
     7
100
AcDbPolyline
 90
        3
 70
   128
 43
0.0
 10
6997.4021911621
 20
5313.4834379423
 10
6995.5489399621
 20
5304.3059363369
 10
6997.4026643867
 20
5297.2046345937
  0
LWPOLYLINE
  5
5A8
330
1F
100
AcDbEntity
  8
0
  6
Continuous
 62
     7
100
AcDbPolyline
 90
       10
 70
   128
 43
0.0
 10
7004.8179626465
 20
5312.4142796266
 10
7004.8588748349
 20
5312.4084783348
 10
7004.8589793677
 20
5312.4084624021
 10
7004.8589865763
 20
5312.4084613891
 10
7004.8589797044
 20
5312.4084625659
 10
7004.8588730296
 20
5312.4084794802
 10
7004.857929722
 20
5312.4086270479
 10
7004.8311503537
 20
5312.4127934757
 10
7004.4227658615
 20
5312.4758557724
 10
6997.4026643867
 20
5313.4834379423
  0
LWPOLYLINE
  5
5A9
330
1F
100
AcDbEntity
  8
0
  6
Continuous
 62
     7
100
AcDbPolyline
 90
       12
 70
   128
 43
0.0
 10
6997.4021911621
 20
5297.2046345937
 10
7004.4286248841
 20
5298.2130420005
 10
7004.7192300823
 20
5298.2578479358
 10
7004.818997893
 20
5298.2732853799
 10
7004.8220346018
 20
5298.273755105
 10
7004.8230073604
 20
5298.2739054201
 10
7004.823015333
 20
5298.2739066398
 10
7004.8230178861
 20
5298.2739070243
 10
7004.8230175813
 20
5298.2739069665
 10
7004.8230086809
 20
5298.273905568
 10
7004.8229347533
 20
5298.2738940707
 10
7004.8215129608
 20
5298.2736737001
  0
LWPOLYLINE
  5
5AA
330
1F
100
AcDbEntity
  8
0
  6
Continuous
 62
     7
100
AcDbPolyline
 90
        5
 70
   128
 43
0.0
 10
7003.7956237793
 20
5309.6440047491
 10
7002.300286902
 20
5308.0824759078
 10
7001.419745831
 20
5304.1381648962
 10
7002.3020352463
 20
5300.2010775281
 10
7003.7974436963
 20
5298.6439973581
  0
ARC
  5
5AB
330
1F
100
AcDbEntity
  8
0
  6
Continuous
 62
     7
100
AcDbCircle
 10
7420.6757788268
 20
4857.1812810889
 30
0.0
 40
2.729988976798352
100
AcDbArc
 50
317.718443978
 51
3.4294737
  0
LWPOLYLINE
  5
5AC
330
1F
100
AcDbEntity
  8
0
  6
Continuous
 62
     7
100
AcDbPolyline
 90
        3
 70
   128
 43
0.0
 10
6952.1064758301
 20
4855.344614433
 10
6952.2737904188
 20
4856.0707736182
 10
6952.4026663238
 20
4857.3445886838
  0
LWPOLYLINE
  5
5AD
330
1F
100
AcDbEntity
  8
0
  6
Continuous
 62
     7
100
AcDbPolyline
 90
        3
 70
   128
 43
0.0
 10
6952.1064758301
 20
4856.3446015584
 10
6952.2737905413
 20
4856.7076878964
 10
6952.4026663238
 20
4857.3445886838
  0
LWPOLYLINE
  5
5AE
330
1F
100
AcDbEntity
  8
0
  6
Continuous
 62
     7
100
AcDbPolyline
 90
        3
 70
   128
 43
0.0
 10
6952.4002075195
 20
4857.3445886838
 10
6950.8597401991
 20
4857.1805702152
 10
6950.4026622707
 20
4857.0516914594
  0
LWPOLYLINE
  5
5AF
330
1F
100
AcDbEntity
  8
0
  6
Continuous
 62
     7
100
AcDbPolyline
 90
        3
 70
   128
 43
0.0
 10
6952.4002075195
 20
4857.3445886838
 10
6951.6312097807
 20
4857.180572933
 10
6951.4026642973
 20
4857.0515722501
  0
LWPOLYLINE
  5
5B0
330
1F
100
AcDbEntity
  8
0
  6
Continuous
 62
     7
100
AcDbPolyline
 90
        3
 70
   128
 43
0.0
 10
6951.4007568359
 20
4857.0504993665
 10
6951.7657511688
 20
4857.2144688579
 10
6952.4026663238
 20
4857.3433369863
  0
LWPOLYLINE
  5
5B1
330
1F
100
AcDbEntity
  8
0
  6
Continuous
 62
     7
100
AcDbPolyline
 90
        3
 70
   128
 43
0.0
 10
6951.9996643066
 20
5156.9445938337
 10
6951.7901085965
 20
5156.5975661132
 10
6951.6233728463
 20
5156.4946085679
  0
LWPOLYLINE
  5
5B2
330
1F
100
AcDbEntity
  8
0
  6
Continuous
 62
     7
100
AcDbPolyline
 90
        3
 70
   128
 43
0.0
 10
6951.9996643066
 20
5156.9445938337
 10
6951.8177409153
 20
5155.7997908387
 10
6951.6723976666
 20
5155.3325564134
  0
LWPOLYLINE
  5
5B3
330
1F
100
AcDbEntity
  8
0
  6
Continuous
 62
     7
100
AcDbPolyline
 90
        3
 70
   128
 43
0.0
 10
6951.9996643066
 20
5156.9445938337
 10
6951.1185681166
 20
5156.6488770888
 10
6950.3802360231
 20
5156.6094667184
  0
LWPOLYLINE
  5
5B4
330
1F
100
AcDbEntity
  8
0
  6
Continuous
 62
     7
100
AcDbPolyline
 90
        3
 70
   128
 43
0.0
 10
6950.3784179688
 20
5156.6094667184
 10
6951.0573529229
 20
5156.7971979745
 10
6952.0026670033
 20
5156.9445938337
  0
LWPOLYLINE
  5
5B5
330
1F
100
AcDbEntity
  8
0
  6
Continuous
 62
     7
100
AcDbPolyline
 90
        3
 70
   128
 43
0.0
 10
6951.5495300293
 20
5156.5652996767
 10
6951.7161307782
 20
5156.7778793755
 10
6952.0026670033
 20
5156.9445938337
  0
LWPOLYLINE
  5
5B6
330
1F
100
AcDbEntity
  8
0
  6
Continuous
 62
     7
100
AcDbPolyline
 90
        3
 70
   128
 43
0.0
 10
6995.3384399414
 20
5624.0602354053
 10
6994.809097709
 20
5624.2145775393
 10
6994.11627289
 20
5624.3357848841
  0
LWPOLYLINE
  5
5B7
330
1F
100
AcDbEntity
  8
0
  6
Continuous
 62
     7
100
AcDbPolyline
 90
        3
 70
   128
 43
0.0
 10
6951.6677856445
 20
5640.7617167103
 10
6952.2173977517
 20
5640.8022320576
 10
6952.6339099938
 20
5640.7111514825
  0
LWPOLYLINE
  5
5B8
330
1F
100
AcDbEntity
  8
0
  6
Continuous
 62
     7
100
AcDbPolyline
 90
        3
 70
   128
 43
0.0
 10
6950.4165649414
 20
5639.1606577206
 10
6950.8550763046
 20
5640.2775623965
 10
6951.6706914837
 20
5640.7617167103
  0
LWPOLYLINE
  5
5B9
330
1F
100
AcDbEntity
  8
0
  6
Continuous
 62
     7
100
AcDbPolyline
 90
        3
 70
   128
 43
0.0
 10
6994.3161010742
 20
5625.5397488828
 10
6995.1705245075
 20
5624.8334871398
 10
6995.4026640589
 20
5623.9892546552
  0
LWPOLYLINE
  5
5BA
330
1F
100
AcDbEntity
  8
0
  6
Continuous
 62
     7
100
AcDbPolyline
 90
        3
 70
   128
 43
0.0
 10
7425.3997802734
 20
5156.9946021306
 10
7424.7924835998
 20
5155.7142907769
 10
7423.752673083
 20
5155.3445965517
  0
LWPOLYLINE
  5
5BB
330
1F
100
AcDbEntity
  8
0
  6
Continuous
 62
     7
100
AcDbPolyline
 90
        3
 70
   128
 43
0.0
 10
7424.201965332
 20
5156.9946021306
 10
7424.0113572119
 20
5156.6257991571
 10
7423.752673083
 20
5156.5445870626
  0
LWPOLYLINE
  5
5BC
330
1F
100
AcDbEntity
  8
0
  6
Continuous
 62
     7
100
AcDbPolyline
 90
        3
 70
   128
 43
0.0
 10
6952.220916748
 20
5639.5822823513
 10
6951.7712023621
 20
5639.4960566737
 10
6951.6195805008
 20
5639.1594227868
  0
LWPOLYLINE
  5
5BD
330
1F
100
AcDbEntity
  8
0
  6
Continuous
 62
     7
100
AcDbPolyline
 90
        3
 70
   128
 43
0.0
 10
6951.6181945801
 20
5639.1606577206
 10
6951.8552886182
 20
5639.5561724453
 10
6952.2234873111
 20
5639.5835191476
  0
LWPOLYLINE
  5
5BE
330
1F
100
AcDbEntity
  8
0
  6
Continuous
 62
     7
100
AcDbPolyline
 90
        3
 70
   128
 43
0.0
 10
7424.129486084
 20
5156.9933504331
 10
7423.9405736919
 20
5156.624572863
 10
7423.681952172
 20
5156.5433651674
  0
LWPOLYLINE
  5
5BF
330
1F
100
AcDbEntity
  8
0
  6
Continuous
 62
     7
100
AcDbPolyline
 90
        5
 70
   128
 43
0.0
 10
7003.6811828613
 20
5298.8440007436
 10
7002.2436684957
 20
5300.3484022908
 10
7001.4056524636
 20
5304.1496048412
 10
7002.2453435924
 20
5307.9439634734
 10
7003.6823247755
 20
5309.4440013635
  0
LWPOLYLINE
  5
5C0
330
1F
100
AcDbEntity
  8
0
  6
Continuous
 62
     7
100
AcDbPolyline
 90
        3
 70
   128
 43
0.0
 10
6291.5306091309
 20
4347.3433183385
 10
6292.1167460442
 20
4347.0054390929
 10
6292.5758185743
 20
4346.7399256183
  0
LWPOLYLINE
  5
5C1
330
1F
100
AcDbEntity
  8
0
  6
Continuous
 62
     7
100
AcDbPolyline
 90
        3
 70
   128
 43
0.0
 10
6291.5306091309
 20
4345.3894706322
 10
6292.1167460442
 20
4345.0515913866
 10
6292.5758185743
 20
4344.786077912
  0
LWPOLYLINE
  5
5C2
330
1F
100
AcDbEntity
  8
0
  6
Continuous
 62
     7
100
AcDbPolyline
 90
        3
 70
   128
 43
0.0
 10
6291.5306091309
 20
4343.4356229259
 10
6292.1167460442
 20
4343.0977436803
 10
6292.5758185743
 20
4342.8322302057
  0
LWPOLYLINE
  5
5C3
330
1F
100
AcDbEntity
  8
0
  6
Continuous
 62
     7
100
AcDbPolyline
 90
        3
 70
   128
 43
0.0
 10
6291.5306091309
 20
4341.4817826701
 10
6292.1167476524
 20
4341.1439020329
 10
6292.5758185743
 20
4340.8783824993
  0
LWPOLYLINE
  5
5C4
330
1F
100
AcDbEntity
  8
0
  6
Continuous
 62
     7
100
AcDbPolyline
 90
        3
 70
   128
 43
0.0
 10
6310.4438781738
 20
4347.7075772239
 10
6311.0379456078
 20
4348.0506891706
 10
6311.504085636
 20
4348.3202384664
  0
LWPOLYLINE
  5
5C5
330
1F
100
AcDbEntity
  8
0
  6
Continuous
 62
     7
100
AcDbPolyline
 90
        3
 70
   128
 43
0.0
 10
6310.4438781738
 20
4345.7537295176
 10
6311.0379471885
 20
4346.096842903
 10
6311.504085636
 20
4346.3663982106
  0
LWPOLYLINE
  5
5C6
330
1F
100
AcDbEntity
  8
0
  6
Continuous
 62
     7
100
AcDbPolyline
 90
        3
 70
   128
 43
0.0
 10
6310.4438781738
 20
4343.7998892618
 10
6311.0379456078
 20
4344.1430012086
 10
6311.504085636
 20
4344.4125505043
  0
LWPOLYLINE
  5
5C7
330
1F
100
AcDbEntity
  8
0
  6
Continuous
 62
     7
100
AcDbPolyline
 90
        3
 70
   128
 43
0.0
 10
6310.4438781738
 20
4341.8460415555
 10
6311.0379456078
 20
4342.1891535023
 10
6311.504085636
 20
4342.458702798
  0
LWPOLYLINE
  5
5C8
330
1F
100
AcDbEntity
  8
0
  6
Continuous
 62
     7
100
AcDbPolyline
 90
        3
 70
   128
 43
0.0
 10
6291.9120788574
 20
4349.0755857779
 10
6292.2853410958
 20
4348.8617841474
 10
6292.5758185743
 20
4348.6937733246
  0
LWPOLYLINE
  5
5C9
330
1F
100
AcDbEntity
  8
0
  6
Continuous
 62
     7
100
AcDbPolyline
 90
        3
 70
   128
 43
0.0
 10
6292.5910949707
 20
4346.2809698535
 10
6292.0002424496
 20
4345.9378655339
 10
6291.534100747
 20
4345.6683160616
  0
LWPOLYLINE
  5
5CA
330
1F
100
AcDbEntity
  8
0
  6
Continuous
 62
     7
100
AcDbPolyline
 90
        3
 70
   128
 43
0.0
 10
6292.5910949707
 20
4344.3271295978
 10
6292.0002440308
 20
4343.984018372
 10
6291.534100747
 20
4343.7144683553
  0
LWPOLYLINE
  5
5CB
330
1F
100
AcDbEntity
  8
0
  6
Continuous
 62
     7
100
AcDbPolyline
 90
        3
 70
   128
 43
0.0
 10
6292.5910949707
 20
4342.3732818915
 10
6292.0002440308
 20
4342.0301706656
 10
6291.534100747
 20
4341.760620649
  0
LWPOLYLINE
  5
5CC
330
1F
100
AcDbEntity
  8
0
  6
Continuous
 62
     7
100
AcDbPolyline
 90
        3
 70
   128
 43
0.0
 10
6292.5910949707
 20
4340.4194341851
 10
6292.0002456115
 20
4340.076324398
 10
6291.534100747
 20
4339.8067803932
  0
LWPOLYLINE
  5
5CD
330
1F
100
AcDbEntity
  8
0
  6
Continuous
 62
     7
100
AcDbPolyline
 90
        3
 70
   128
 43
0.0
 10
6311.5005493164
 20
4346.6452361895
 10
6310.9190635084
 20
4346.9825821814
 10
6310.4607193678
 20
4347.2476752354
  0
LWPOLYLINE
  5
5CE
330
1F
100
AcDbEntity
  8
0
  6
Continuous
 62
     7
100
AcDbPolyline
 90
        3
 70
   128
 43
0.0
 10
6311.5005493164
 20
4344.6913959337
 10
6310.9190603404
 20
4345.0287364477
 10
6310.4607193678
 20
4345.2938349797
  0
LWPOLYLINE
  5
5CF
330
1F
100
AcDbEntity
  8
0
  6
Continuous
 62
     7
100
AcDbPolyline
 90
        3
 70
   128
 43
0.0
 10
6311.5005493164
 20
4342.7375482274
 10
6310.9190635084
 20
4343.0748942194
 10
6310.4607193678
 20
4343.3399872733
  0
LWPOLYLINE
  5
5D0
330
1F
100
AcDbEntity
  8
0
  6
Continuous
 62
     7
100
AcDbPolyline
 90
        3
 70
   128
 43
0.0
 10
6311.5005493164
 20
4340.7837005211
 10
6310.9190635084
 20
4341.121046513
 10
6310.4607193678
 20
4341.386139567
  0
LWPOLYLINE
  5
5D1
330
1F
100
AcDbEntity
  8
0
  6
Continuous
 62
     7
100
AcDbPolyline
 90
        3
 70
   128
 43
0.0
 10
6311.5005493164
 20
4348.5990838958
 10
6310.9190635084
 20
4348.9364298877
 10
6310.4607193678
 20
4349.2015229417
  0
LWPOLYLINE
  5
5D2
330
1F
100
AcDbEntity
  8
0
  6
Continuous
 62
     7
100
AcDbPolyline
 90
        3
 70
   128
 43
0.0
 10
6292.5910949707
 20
4348.2348175598
 10
6292.0002424496
 20
4347.8917132402
 10
6291.534100747
 20
4347.6221637679
  0
LWPOLYLINE
  5
5D3
330
1F
100
AcDbEntity
  8
0
  6
Continuous
 62
     7
100
AcDbPolyline
 90
        3
 70
   128
 43
0.0
 10
6411.5295410156
 20
4347.3433183385
 10
6412.1167480032
 20
4347.0054406766
 10
6412.5758196174
 20
4346.7399256183
  0
LWPOLYLINE
  5
5D4
330
1F
100
AcDbEntity
  8
0
  6
Continuous
 62
     7
100
AcDbPolyline
 90
        3
 70
   128
 43
0.0
 10
6411.5295410156
 20
4345.3894706322
 10
6412.1167480032
 20
4345.0515929703
 10
6412.5758196174
 20
4344.786077912
  0
LWPOLYLINE
  5
5D5
330
1F
100
AcDbEntity
  8
0
  6
Continuous
 62
     7
100
AcDbPolyline
 90
        3
 70
   128
 43
0.0
 10
6411.5295410156
 20
4343.4356229259
 10
6412.1167480032
 20
4343.097745264
 10
6412.5758196174
 20
4342.8322302057
  0
LWPOLYLINE
  5
5D6
330
1F
100
AcDbEntity
  8
0
  6
Continuous
 62
     7
100
AcDbPolyline
 90
        3
 70
   128
 43
0.0
 10
6411.5295410156
 20
4341.4817752196
 10
6412.1167480032
 20
4341.1438975577
 10
6412.5758196174
 20
4340.8783824993
  0
LWPOLYLINE
  5
5D7
330
1F
100
AcDbEntity
  8
0
  6
Continuous
 62
     7
100
AcDbPolyline
 90
        3
 70
   128
 43
0.0
 10
6430.4428100586
 20
4347.7075772239
 10
6431.0379461938
 20
4348.0506899611
 10
6431.5040866791
 20
4348.3202384664
  0
LWPOLYLINE
  5
5D8
330
1F
100
AcDbEntity
  8
0
  6
Continuous
 62
     7
100
AcDbPolyline
 90
        3
 70
   128
 43
0.0
 10
6430.4428100586
 20
4345.7537295176
 10
6431.0379461938
 20
4346.0968422548
 10
6431.5040866791
 20
4346.3663907601
  0
LWPOLYLINE
  5
5D9
330
1F
100
AcDbEntity
  8
0
  6
Continuous
 62
     7
100
AcDbPolyline
 90
        3
 70
   128
 43
0.0
 10
6430.4428100586
 20
4343.7998892618
 10
6431.0379461938
 20
4344.143001999
 10
6431.5040866791
 20
4344.4125505043
  0
LWPOLYLINE
  5
5DA
330
1F
100
AcDbEntity
  8
0
  6
Continuous
 62
     7
100
AcDbPolyline
 90
        3
 70
   128
 43
0.0
 10
6430.4428100586
 20
4341.8460415555
 10
6431.0379461938
 20
4342.1891542927
 10
6431.5040866791
 20
4342.458702798
  0
LWPOLYLINE
  5
5DB
330
1F
100
AcDbEntity
  8
0
  6
Continuous
 62
     7
100
AcDbPolyline
 90
        3
 70
   128
 43
0.0
 10
6411.9148254395
 20
4349.0755857779
 10
6412.2853427071
 20
4348.8617866264
 10
6412.5758196174
 20
4348.693765874
  0
LWPOLYLINE
  5
5DC
330
1F
100
AcDbEntity
  8
0
  6
Continuous
 62
     7
100
AcDbPolyline
 90
        3
 70
   128
 43
0.0
 10
6412.5900268555
 20
4346.2809698535
 10
6412.0002423108
 20
4345.9378647434
 10
6411.5341017901
 20
4345.6683160616
  0
LWPOLYLINE
  5
5DD
330
1F
100
AcDbEntity
  8
0
  6
Continuous
 62
     7
100
AcDbPolyline
 90
        3
 70
   128
 43
0.0
 10
6412.5900268555
 20
4344.3271295978
 10
6412.000243892
 20
4343.9840175815
 10
6411.5341017901
 20
4343.7144683553
  0
LWPOLYLINE
  5
5DE
330
1F
100
AcDbEntity
  8
0
  6
Continuous
 62
     7
100
AcDbPolyline
 90
        3
 70
   128
 43
0.0
 10
6412.5900268555
 20
4342.3732818915
 10
6412.000243892
 20
4342.0301698751
 10
6411.5341017901
 20
4341.760620649
  0
LWPOLYLINE
  5
5DF
330
1F
100
AcDbEntity
  8
0
  6
Continuous
 62
     7
100
AcDbPolyline
 90
        3
 70
   128
 43
0.0
 10
6412.5900268555
 20
4340.4194341851
 10
6412.0002454727
 20
4340.0763236075
 10
6411.5341017901
 20
4339.8067803932
  0
LWPOLYLINE
  5
5E0
330
1F
100
AcDbEntity
  8
0
  6
Continuous
 62
     7
100
AcDbPolyline
 90
        3
 70
   128
 43
0.0
 10
6431.4994812012
 20
4346.6452361895
 10
6430.9190658196
 20
4346.9825825707
 10
6430.4607222735
 20
4347.2476752354
  0
LWPOLYLINE
  5
5E1
330
1F
100
AcDbEntity
  8
0
  6
Continuous
 62
     7
100
AcDbPolyline
 90
        3
 70
   128
 43
0.0
 10
6431.4994812012
 20
4344.6913884832
 10
6430.9190642086
 20
4345.0287362511
 10
6430.4607222735
 20
4345.2938349797
  0
LWPOLYLINE
  5
5E2
330
1F
100
AcDbEntity
  8
0
  6
Continuous
 62
     7
100
AcDbPolyline
 90
        3
 70
   128
 43
0.0
 10
6431.4994812012
 20
4342.7375482274
 10
6430.9190626517
 20
4343.0748891307
 10
6430.4607222735
 20
4343.3399872733
  0
LWPOLYLINE
  5
5E3
330
1F
100
AcDbEntity
  8
0
  6
Continuous
 62
     7
100
AcDbPolyline
 90
        3
 70
   128
 43
0.0
 10
6431.4994812012
 20
4340.7837005211
 10
6430.9190658196
 20
4341.1210469023
 10
6430.4607222735
 20
4341.386139567
  0
LWPOLYLINE
  5
5E4
330
1F
100
AcDbEntity
  8
0
  6
Continuous
 62
     7
100
AcDbPolyline
 90
        3
 70
   128
 43
0.0
 10
6431.4994812012
 20
4348.5990838958
 10
6430.9190658196
 20
4348.936430277
 10
6430.4607222735
 20
4349.2015229417
  0
LWPOLYLINE
  5
5E5
330
1F
100
AcDbEntity
  8
0
  6
Continuous
 62
     7
100
AcDbPolyline
 90
        3
 70
   128
 43
0.0
 10
6412.5900268555
 20
4348.2348175598
 10
6412.0002454727
 20
4347.8917069822
 10
6411.5341017901
 20
4347.6221637679
  0
LWPOLYLINE
  5
5E6
330
1F
100
AcDbEntity
  8
0
  6
Continuous
 62
     7
100
AcDbPolyline
 90
        3
 70
   128
 43
0.0
 10
6291.0842895508
 20
4289.9241374685
 10
6289.4573118286
 20
4288.4978343043
 10
6288.019322878
 20
4287.5980326785
  0
LWPOLYLINE
  5
5E7
330
1F
100
AcDbEntity
  8
0
  6
Continuous
 62
     7
100
AcDbPolyline
 90
        3
 70
   128
 43
0.0
 10
6256.9427490234
 20
4289.9241374685
 10
6258.5776005991
 20
4288.497118244
 10
6260.0193182885
 20
4287.5999325765
  0
LWPOLYLINE
  5
5E8
330
1F
100
AcDbEntity
  8
0
  6
Continuous
 62
     7
100
AcDbPolyline
 90
        4
 70
   128
 43
0.0
 10
6092.8611755371
 20
4167.5233470155
 10
6093.6263219775
 20
4167.4597204186
 10
6095.8951760082
 20
4167.2712021102
 10
6132.7222968398
 20
4164.1838924838
  0
LWPOLYLINE
  5
5E9
330
1F
100
AcDbEntity
  8
0
  6
Continuous
 62
     7
100
AcDbPolyline
 90
        3
 70
   128
 43
0.0
 10
6132.7209472656
 20
4164.1838924838
 10
6129.4692112736
 20
4068.4181574816
 10
6132.746436721
 20
3993.1923972322
  0
LWPOLYLINE
  5
5EA
330
1F
100
AcDbEntity
  8
0
  6
Continuous
 62
     7
100
AcDbPolyline
 90
        3
 70
   128
 43
0.0
 10
6132.7438354492
 20
3993.1923972322
 10
6148.1566415498
 20
3963.4804243145
 10
6172.864073044
 20
3953.7049757196
  0
LWPOLYLINE
  5
5EB
330
1F
100
AcDbEntity
  8
0
  6
Continuous
 62
     7
100
AcDbPolyline
 90
        4
 70
   128
 43
0.0
 10
6170.0553894043
 20
3913.8029741002
 10
6170.1097185581
 20
3914.568689579
 10
6170.271162615
 20
3916.8396694431
 10
6172.864073044
 20
3953.7049757196
  0
LWPOLYLINE
  5
5EC
330
1F
100
AcDbEntity
  8
0
  6
Continuous
 62
     7
100
AcDbPolyline
 90
        3
 70
   128
 43
0.0
 10
6173.1758117676
 20
4204.0057295812
 10
6143.1394141967
 20
4188.7889533106
 10
6132.7222968398
 20
4164.1838924838
  0
LWPOLYLINE
  5
5ED
330
1F
100
AcDbEntity
  8
0
  6
Continuous
 62
     7
100
AcDbPolyline
 90
        3
 70
   128
 43
0.0
 10
6172.8630065918
 20
3953.7049757196
 10
6285.8780351961
 20
3949.9025343162
 10
6374.6550875663
 20
3953.6811040593
  0
LWPOLYLINE
  5
5EE
330
1F
100
AcDbEntity
  8
0
  6
Continuous
 62
     7
100
AcDbPolyline
 90
        5
 70
   128
 43
0.0
 10
6454.9674987793
 20
4167.5233395649
 10
6449.4176723324
 20
4167.0620533506
 10
6440.514368733
 20
4166.3203030754
 10
6428.6076965864
 20
4165.3232840999
 10
6415.108845657
 20
4164.1838924838
  0
LWPOLYLINE
  5
5EF
330
1F
100
AcDbEntity
  8
0
  6
Continuous
 62
     7
100
AcDbPolyline
 90
        3
 70
   128
 43
0.0
 10
6415.1077270508
 20
4164.1838924838
 10
6399.4210889358
 20
4193.9772494067
 10
6374.6550875663
 20
4204.0057258559
  0
LWPOLYLINE
  5
5F0
330
1F
100
AcDbEntity
  8
0
  6
Continuous
 62
     7
100
AcDbPolyline
 90
        3
 70
   128
 43
0.0
 10
6374.6528625488
 20
3953.6811040593
 10
6404.6917194265
 20
3968.897890757
 10
6415.108845657
 20
3993.5029374315
  0
LWPOLYLINE
  5
5F1
330
1F
100
AcDbEntity
  8
0
  6
Continuous
 62
     7
100
AcDbPolyline
 90
        4
 70
   128
 43
0.0
 10
6454.9674987793
 20
3990.1634978009
 10
6454.2049944445
 20
3990.2271245007
 10
6451.9360907638
 20
3990.4156449698
 10
6415.108845657
 20
3993.5029374315
  0
LWPOLYLINE
  5
5F2
330
1F
100
AcDbEntity
  8
0
  6
Continuous
 62
     7
100
AcDbPolyline
 90
        3
 70
   128
 43
0.0
 10
6415.1077270508
 20
3993.5029374315
 10
6418.3635827173
 20
4089.0942542509
 10
6415.108845657
 20
4164.1838924838
  0
LWPOLYLINE
  5
5F3
330
1F
100
AcDbEntity
  8
0
  6
Continuous
 62
     7
100
AcDbPolyline
 90
        3
 70
   128
 43
0.0
 10
6050.365447998
 20
4337.9465641333
 10
6049.3156803776
 20
4337.2694472335
 10
6049.0185256063
 20
4336.3241331531
  0
LWPOLYLINE
  5
5F4
330
1F
100
AcDbEntity
  8
0
  6
Continuous
 62
     7
100
AcDbPolyline
 90
        3
 70
   128
 43
0.0
 10
6497.745513916
 20
4335.6928901626
 10
6497.6698020132
 20
4336.232355801
 10
6497.6077611505
 20
4336.6561235739
  0
LWPOLYLINE
  5
5F5
330
1F
100
AcDbEntity
  8
0
  6
Continuous
 62
     7
100
AcDbPolyline
 90
        3
 70
   128
 43
0.0
 10
6050.4302978516
 20
4336.6561235739
 10
6050.3526701462
 20
4336.109402486
 10
6050.2905781328
 20
4335.6928901626
  0
LWPOLYLINE
  5
5F6
330
1F
100
AcDbEntity
  8
0
  6
Continuous
 62
     7
100
AcDbPolyline
 90
        3
 70
   128
 43
0.0
 10
6050.7469177246
 20
4337.9072250677
 10
6050.570968556
 20
4337.4717238518
 10
6050.4319901525
 20
4336.6561235739
  0
LWPOLYLINE
  5
5F7
330
1F
100
AcDbEntity
  8
0
  6
Continuous
 62
     7
100
AcDbPolyline
 90
        3
 70
   128
 43
0.0
 10
6497.6043701172
 20
4336.6561235739
 10
6497.4305212118
 20
4337.6346130259
 10
6497.2915287076
 20
4337.9072250677
  0
LWPOLYLINE
  5
5F8
330
1F
100
AcDbEntity
  8
0
  6
Continuous
 62
     7
100
AcDbPolyline
 90
        3
 70
   128
 43
0.0
 10
6497.3678588867
 20
4292.9241360975
 10
6497.5823069557
 20
4293.2958798686
 10
6497.7491284667
 20
4294.0098011745
  0
LWPOLYLINE
  5
5F9
330
1F
100
AcDbEntity
  8
0
  6
Continuous
 62
     7
100
AcDbPolyline
 90
        3
 70
   128
 43
0.0
 10
6050.2891540527
 20
4294.0098011745
 10
6050.5030177681
 20
4293.1562756489
 10
6050.6698424875
 20
4292.9241360975
  0
LWPOLYLINE
  5
5FA
330
1F
100
AcDbEntity
  8
0
  6
Continuous
 62
     7
100
AcDbPolyline
 90
        3
 70
   128
 43
0.0
 10
6050.2166748047
 20
4292.9866837217
 10
6049.4012632726
 20
4293.5177024475
 10
6049.0603978692
 20
4294.2105235411
  0
LWPOLYLINE
  5
5FB
330
1F
100
AcDbEntity
  8
0
  6
Continuous
 62
     7
100
AcDbPolyline
 90
        3
 70
   128
 43
0.0
 10
6498.9776611328
 20
4294.2105272664
 10
6498.4932351085
 20
4293.3644742867
 10
6497.8198344766
 20
4292.9866837217
  0
LWPOLYLINE
  5
5FC
330
1F
100
AcDbEntity
  8
0
  6
Continuous
 62
     7
100
AcDbPolyline
 90
        3
 70
   128
 43
0.0
 10
6050.2891540527
 20
4294.3423243119
 10
6050.2304795683
 20
4294.465012701
 10
6050.2198274194
 20
4294.574134226
  0
LWPOLYLINE
  5
5FD
330
1F
100
AcDbEntity
  8
0
  6
Continuous
 62
     7
100
AcDbPolyline
 90
        3
 70
   128
 43
0.0
 10
6497.8179931641
 20
4294.574134226
 10
6497.7999531689
 20
4294.4404711885
 10
6497.7491284667
 20
4294.3479383243
  0
LWPOLYLINE
  5
5FE
330
1F
100
AcDbEntity
  8
0
  6
Continuous
 62
     7
100
AcDbPolyline
 90
        3
 70
   128
 43
0.0
 10
6050.2166748047
 20
4293.5509422673
 10
6049.6306070652
 20
4294.0216973465
 10
6049.0603978692
 20
4294.2105235411
  0
LWPOLYLINE
  5
5FF
330
1F
100
AcDbEntity
  8
0
  6
Continuous
 62
     7
100
AcDbPolyline
 90
        3
 70
   128
 43
0.0
 10
6497.8179931641
 20
4293.5509422673
 10
6498.4091047203
 20
4294.021638244
 10
6498.9792640268
 20
4294.2105272664
  0
LWPOLYLINE
  5
600
330
1F
100
AcDbEntity
  8
0
  6
Continuous
 62
     7
100
AcDbPolyline
 90
        3
 70
   128
 43
0.0
 10
6050.2891540527
 20
3864.1241418077
 10
6050.4456188343
 20
3864.2804609589
 10
6050.6686503946
 20
3864.503465767
  0
LWPOLYLINE
  5
601
330
1F
100
AcDbEntity
  8
0
  6
Continuous
 62
     7
100
AcDbPolyline
 90
        3
 70
   128
 43
0.0
 10
6497.8179931641
 20
3864.1948329164
 10
6497.6622616472
 20
3864.3511721984
 10
6497.4393035232
 20
3864.5741270734
  0
LWPOLYLINE
  5
602
330
1F
100
AcDbEntity
  8
0
  6
Continuous
 62
     7
100
AcDbPolyline
 90
       10
 70
   128
 43
0.0
 10
6291.9769287109
 20
4349.1183372093
 10
6292.0934727075
 20
4349.1562671522
 10
6292.595852399
 20
4349.1937604257
 10
6301.2786341461
 20
4349.4227869721
 10
6309.9300595939
 20
4349.6580391893
 10
6310.444203731
 20
4349.7023640859
 10
6310.4631637242
 20
4349.7099006742
 10
6310.4665203823
 20
4349.7136859592
 10
6310.4665047671
 20
4349.7174806016
 10
6310.4314497619
 20
4349.7378157331
  0
LWPOLYLINE
  5
603
330
1F
100
AcDbEntity
  8
0
  6
Continuous
 62
     7
100
AcDbPolyline
 90
       15
 70
   128
 43
0.0
 10
6310.3523254395
 20
4349.6802152945
 10
6310.3829022619
 20
4349.6647131984
 10
6310.3961549138
 20
4349.6492827092
 10
6310.3937819037
 20
4349.6435293519
 10
6310.3861291525
 20
4349.6377997234
 10
6310.3543623245
 20
4349.6264093975
 10
6309.7908148926
 20
4349.5587863513
 10
6301.5179158486
 20
4349.1915737049
 10
6293.2664729002
 20
4348.825175949
 10
6292.5547829381
 20
4348.7339698614
 10
6292.5507783326
 20
4348.7301710165
 10
6292.5496790294
 20
4348.7263690477
 10
6292.5536933071
 20
4348.7206594177
 10
6292.5647994052
 20
4348.7149406514
 10
6292.6075356959
 20
4348.7034739805
  0
LWPOLYLINE
  5
604
330
1F
100
AcDbEntity
  8
0
  6
Continuous
 62
     7
100
AcDbPolyline
 90
       13
 70
   128
 43
0.0
 10
6310.3713989258
 20
4347.7074729158
 10
6310.3913514856
 20
4347.6904188904
 10
6310.3895380064
 20
4347.6847721531
 10
6310.3774102536
 20
4347.6772856582
 10
6309.5871503117
 20
4347.5886788587
 10
6301.2492447376
 20
4347.2285238486
 10
6293.2391552907
 20
4346.8689807682
 10
6292.5539858236
 20
4346.7795409689
 10
6292.5504605648
 20
4346.7758143795
 10
6292.5497432268
 20
4346.7720847362
 10
6292.5541357146
 20
4346.766483772
 10
6292.5653696782
 20
4346.7608739476
 10
6292.6075356959
 20
4346.7496262742
  0
LWPOLYLINE
  5
605
330
1F
100
AcDbEntity
  8
0
  6
Continuous
 62
     7
100
AcDbPolyline
 90
       13
 70
   128
 43
0.0
 10
6310.3713989258
 20
4345.7536252094
 10
6310.3913514856
 20
4345.7365711842
 10
6310.3895380066
 20
4345.7309244471
 10
6310.3774102543
 20
4345.7234379523
 10
6309.5871503265
 20
4345.6348311534
 10
6301.2492448606
 20
4345.2746763118
 10
6293.239155383
 20
4344.915135568
 10
6292.5539857573
 20
4344.8256785357
 10
6292.5504604989
 20
4344.8219534247
 10
6292.5497431631
 20
4344.8182256014
 10
6292.5541356579
 20
4344.8126280494
 10
6292.5653696337
 20
4344.8070225137
 10
6292.6075356959
 20
4344.7957860185
  0
LWPOLYLINE
  5
606
330
1F
100
AcDbEntity
  8
0
  6
Continuous
 62
     7
100
AcDbPolyline
 90
       13
 70
   128
 43
0.0
 10
6310.3713989258
 20
4343.7997775031
 10
6310.3913514852
 20
4343.7827234934
 10
6310.389538007
 20
4343.7770767241
 10
6310.3774102568
 20
4343.7695901472
 10
6309.5871503241
 20
4343.6809835766
 10
6301.2492446856
 20
4343.3208335682
 10
6293.2391552837
 20
4342.9612952851
 10
6292.5539857426
 20
4342.8718318177
 10
6292.5504604879
 20
4342.868106451
 10
6292.5497431554
 20
4342.864378404
 10
6292.5541356543
 20
4342.8587805839
 10
6292.5653696327
 20
4342.8531748716
 10
6292.6075356959
 20
4342.8419383122
  0
LWPOLYLINE
  5
607
330
1F
100
AcDbEntity
  8
0
  6
Continuous
 62
     7
100
AcDbPolyline
 90
       13
 70
   128
 43
0.0
 10
6310.3713989258
 20
4341.8459297968
 10
6310.3913514862
 20
4341.8288757289
 10
6310.3895380059
 20
4341.8232290806
 10
6310.3774102503
 20
4341.8157428209
 10
6309.5871502063
 20
4341.727143338
 10
6301.2492445459
 20
4341.3669899301
 10
6293.2391552829
 20
4341.0074476175
 10
6292.5539857432
 20
4340.917984094
 10
6292.5504604883
 20
4340.9142587316
 10
6292.5497431557
 20
4340.9105306884
 10
6292.5541356545
 20
4340.9049328731
 10
6292.5653696327
 20
4340.8993271641
 10
6292.6075356959
 20
4340.8880906059
  0
LWPOLYLINE
  5
608
330
1F
100
AcDbEntity
  8
0
  6
Continuous
 62
     7
100
AcDbPolyline
 90
        9
 70
   128
 43
0.0
 10
6311.3670349121
 20
4348.3201863123
 10
6311.3771307496
 20
4348.3049422346
 10
6311.3764746712
 20
4348.2973377626
 10
6311.3698908291
 20
4348.2897543707
 10
6310.5891398009
 20
4348.2005889222
 10
6301.2479132917
 20
4347.8398219224
 10
6292.231533865
 20
4347.480348051
 10
6291.7450268101
 20
4347.4203224822
 10
6291.5998334943
 20
4347.359866078
  0
LWPOLYLINE
  5
609
330
1F
100
AcDbEntity
  8
0
  6
Continuous
 62
     7
100
AcDbPolyline
 90
        9
 70
   128
 43
0.0
 10
6311.3670349121
 20
4346.366338606
 10
6311.3771307422
 20
4346.351097775
 10
6311.3764746599
 20
4346.3434947714
 10
6311.3698908135
 20
4346.3359126619
 10
6310.5891397957
 20
4346.2467440938
 10
6301.2479132309
 20
4345.885979754
 10
6292.2315339587
 20
4345.5264988866
 10
6291.7450268345
 20
4345.4664766269
 10
6291.5998334943
 20
4345.4060258223
  0
LWPOLYLINE
  5
60A
330
1F
100
AcDbEntity
  8
0
  6
Continuous
 62
     7
100
AcDbPolyline
 90
        9
 70
   128
 43
0.0
 10
6311.3670349121
 20
4344.4124908997
 10
6311.3771307408
 20
4344.3972501315
 10
6311.3764746581
 20
4344.3896471414
 10
6311.3698908119
 20
4344.382065024
 10
6310.5891398156
 20
4344.2928955449
 10
6301.2479132225
 20
4343.9321322447
 10
6292.2315339096
 20
4343.5726571828
 10
6291.7450267901
 20
4343.512635448
 10
6291.5998334943
 20
4343.452178116
  0
LWPOLYLINE
  5
60B
330
1F
100
AcDbEntity
  8
0
  6
Continuous
 62
     7
100
AcDbPolyline
 90
        9
 70
   128
 43
0.0
 10
6311.3670349121
 20
4342.4586431934
 10
6311.3771307408
 20
4342.443402424
 10
6311.3764746581
 20
4342.4357994336
 10
6311.3698908119
 20
4342.4282173164
 10
6310.589139815
 20
4342.3390478548
 10
6301.2479131717
 20
4341.9782862072
 10
6292.2315339044
 20
4341.6188096533
 10
6291.745026792
 20
4341.5587876797
 10
6291.5998334943
 20
4341.4983304096
  0
LWPOLYLINE
  5
60C
330
1F
100
AcDbEntity
  8
0
  6
Continuous
 62
     7
100
AcDbPolyline
 90
       15
 70
   128
 43
0.0
 10
6311.393737793
 20
4348.5810609413
 10
6311.4416933175
 20
4348.5656038905
 10
6311.4633324103
 20
4348.5502235148
 10
6311.4609946542
 20
4348.5444909976
 10
6311.4520051927
 20
4348.5387798302
 10
6311.415065361
 20
4348.5274118234
 10
6310.7702829528
 20
4348.45968916
 10
6301.5177942419
 20
4348.0925328584
 10
6292.2916339038
 20
4347.7262209723
 10
6291.494772358
 20
4347.635013061
 10
6291.4902248055
 20
4347.6312161529
 10
6291.4889249184
 20
4347.6274164657
 10
6291.4933060261
 20
4347.6217109511
 10
6291.5056155505
 20
4347.6159971954
 10
6291.5532487391
 20
4347.6045431448
  0
LWPOLYLINE
  5
60D
330
1F
100
AcDbEntity
  8
0
  6
Continuous
 62
     7
100
AcDbPolyline
 90
       15
 70
   128
 43
0.0
 10
6311.393737793
 20
4346.627213235
 10
6311.4416933175
 20
4346.6117561833
 10
6311.4633324103
 20
4346.5963758082
 10
6311.4609946542
 20
4346.5906432919
 10
6311.4520051926
 20
4346.5849321259
 10
6311.4150653607
 20
4346.5735641228
 10
6310.7702829522
 20
4346.5058414651
 10
6301.5177941404
 20
4346.1386884008
 10
6292.2916339025
 20
4345.7723733165
 10
6291.4947723586
 20
4345.6811653366
 10
6291.490224806
 20
4345.6773684328
 10
6291.4889249187
 20
4345.6735687496
 10
6291.4933060262
 20
4345.66786324
 10
6291.5056155505
 20
4345.6621494878
 10
6291.5532487391
 20
4345.6506954385
  0
LWPOLYLINE
  5
60E
330
1F
100
AcDbEntity
  8
0
  6
Continuous
 62
     7
100
AcDbPolyline
 90
       15
 70
   128
 43
0.0
 10
6311.393737793
 20
4344.6733655287
 10
6311.4416933202
 20
4344.657908295
 10
6311.4633324112
 20
4344.6425280457
 10
6311.4609946522
 20
4344.6367957175
 10
6311.4520051866
 20
4344.6310848246
 10
6311.4150653436
 20
4344.6197175792
 10
6310.770282852
 20
4344.5520007895
 10
6301.5177941666
 20
4344.1848398623
 10
6292.2916339076
 20
4343.8185254207
 10
6291.4947723568
 20
4343.7273176982
 10
6291.4902248046
 20
4343.7235207779
 10
6291.4889249177
 20
4343.7197210798
 10
6291.4933060257
 20
4343.7140155515
 10
6291.5056155504
 20
4343.7083017865
 10
6291.5532487391
 20
4343.6968477322
  0
LWPOLYLINE
  5
60F
330
1F
100
AcDbEntity
  8
0
  6
Continuous
 62
     7
100
AcDbPolyline
 90
       15
 70
   128
 43
0.0
 10
6311.393737793
 20
4342.719525273
 10
6311.4416933171
 20
4342.7040641735
 10
6311.4633324115
 20
4342.688680693
 10
6311.4609946565
 20
4342.6829474442
 10
6311.4520051951
 20
4342.6772358114
 10
6311.4150653609
 20
4342.6658675731
 10
6310.7702829301
 20
4342.5981524979
 10
6301.5177943153
 20
4342.2309912195
 10
6292.2916339093
 20
4341.8646747759
 10
6291.4947724322
 20
4341.7734915591
 10
6291.490224876
 20
4341.7696934451
 10
6291.4889249839
 20
4341.7658921622
 10
6291.4933060815
 20
4341.7601834693
 10
6291.5056155924
 20
4341.7544655208
 10
6291.5532487391
 20
4341.7430000259
  0
LWPOLYLINE
  5
610
330
1F
100
AcDbEntity
  8
0
  6
Continuous
 62
     7
100
AcDbPolyline
 90
       15
 70
   128
 43
0.0
 10
6311.393737793
 20
4340.7656775666
 10
6311.4416933186
 20
4340.7502204639
 10
6311.4633324107
 20
4340.7348401241
 10
6311.4609946534
 20
4340.7291076604
 10
6311.4520051901
 20
4340.7233965695
 10
6311.4150653539
 20
4340.7120287632
 10
6310.770282938
 20
4340.6443064207
 10
6301.5177944237
 20
4340.2771436873
 10
6292.2916339916
 20
4339.9108302192
 10
6291.4947723719
 20
4339.8196286499
 10
6291.4902248159
 20
4339.8158320073
 10
6291.4889249256
 20
4339.8120325532
 10
6291.4933060295
 20
4339.8063273191
 10
6291.5056155514
 20
4339.8006137496
 10
6291.5532487391
 20
4339.7891597701
  0
LWPOLYLINE
  5
611
330
1F
100
AcDbEntity
  8
0
  6
Continuous
 62
     7
100
AcDbPolyline
 90
        8
 70
   128
 43
0.0
 10
6310.3523254395
 20
4349.1917254282
 10
6310.4114584243
 20
4349.1614756222
 10
6310.4101363747
 20
4349.1558509796
 10
6310.4030816088
 20
4349.1502473516
 10
6310.3725702355
 20
4349.1390940941
 10
6309.820989402
 20
4349.0727007028
 10
6301.7928711968
 20
4348.7125283657
 10
6292.6429594814
 20
4348.2340874029
  0
LWPOLYLINE
  5
612
330
1F
100
AcDbEntity
  8
0
  6
Continuous
 62
     7
100
AcDbPolyline
 90
        8
 70
   128
 43
0.0
 10
6310.3523254395
 20
4347.2378777219
 10
6310.4114584243
 20
4347.2076279159
 10
6310.4101363747
 20
4347.2020032731
 10
6310.4030816088
 20
4347.1963996448
 10
6310.3725702356
 20
4347.1852463863
 10
6309.8209894023
 20
4347.1188529931
 10
6301.7928712166
 20
4346.7586800837
 10
6292.6429594814
 20
4346.2802396966
  0
LWPOLYLINE
  5
613
330
1F
100
AcDbEntity
  8
0
  6
Continuous
 62
     7
100
AcDbPolyline
 90
        8
 70
   128
 43
0.0
 10
6310.3523254395
 20
4345.2840300156
 10
6310.4114584245
 20
4345.2537802044
 10
6310.4101363744
 20
4345.2481555741
 10
6310.403081608
 20
4345.2425519639
 10
6310.3725702333
 20
4345.2313987539
 10
6309.8209893964
 20
4345.1650054655
 10
6301.7928712498
 20
4344.8048314234
 10
6292.6429594814
 20
4344.3263919903
  0
LWPOLYLINE
  5
614
330
1F
100
AcDbEntity
  8
0
  6
Continuous
 62
     7
100
AcDbPolyline
 90
        8
 70
   128
 43
0.0
 10
6310.3523254395
 20
4343.3301823093
 10
6310.4114584238
 20
4343.2999395265
 10
6310.4101363712
 20
4343.2943156939
 10
6310.4030816027
 20
4343.2887126463
 10
6310.3725702255
 20
4343.2775599269
 10
6309.8209894045
 20
4343.2111597117
 10
6301.7928713716
 20
4342.8509839153
 10
6292.6429594814
 20
4342.3725517346
  0
LWPOLYLINE
  5
615
330
1F
100
AcDbEntity
  8
0
  6
Continuous
 62
     7
100
AcDbPolyline
 90
        8
 70
   128
 43
0.0
 10
6310.3523254395
 20
4341.3763420535
 10
6310.4114584231
 20
4341.3460923205
 10
6310.4101363764
 20
4341.3404675032
 10
6310.4030816148
 20
4341.3348636173
 10
6310.3725702537
 20
4341.3237096341
 10
6309.8209895134
 20
4341.2573104081
 10
6301.7928712753
 20
4340.8971427235
 10
6292.6429594814
 20
4340.4187040282
  0
LWPOLYLINE
  5
616
330
1F
100
AcDbEntity
  8
0
  6
Continuous
 62
     7
100
AcDbPolyline
 90
       10
 70
   128
 43
0.0
 10
6411.9758605957
 20
4349.1183372093
 10
6412.093476651
 20
4349.1562671294
 10
6412.5958588073
 20
4349.193760372
 10
6421.2786394767
 20
4349.4227864894
 10
6429.9300414257
 20
4349.6580376353
 10
6430.4442013546
 20
4349.7023628696
 10
6430.4631629615
 20
4349.7098996646
 10
6430.4665200651
 20
4349.7136850683
 10
6430.4665046964
 20
4349.7174798376
 10
6430.4314489423
 20
4349.7378157331
  0
LWPOLYLINE
  5
617
330
1F
100
AcDbEntity
  8
0
  6
Continuous
 62
     7
100
AcDbPolyline
 90
       15
 70
   128
 43
0.0
 10
6430.3512573242
 20
4349.6802152945
 10
6430.3829026099
 20
4349.6647122775
 10
6430.3961533735
 20
4349.6492809798
 10
6430.393779104
 20
4349.6435273713
 10
6430.3861247554
 20
4349.6377975285
 10
6430.354354577
 20
4349.6264068814
 10
6429.7907934167
 20
4349.5587839652
 10
6421.517915042
 20
4349.1915728041
 10
6413.2664822816
 20
4348.825175697
 10
6412.5547860692
 20
4348.7339699111
 10
6412.5507809368
 20
4348.7301710541
 10
6412.5496811665
 20
4348.7263690743
 10
6412.5536948762
 20
4348.7206594304
 10
6412.5648005937
 20
4348.7149406546
 10
6412.607536739
 20
4348.7034739805
  0
LWPOLYLINE
  5
618
330
1F
100
AcDbEntity
  8
0
  6
Continuous
 62
     7
100
AcDbPolyline
 90
       13
 70
   128
 43
0.0
 10
6430.3703308105
 20
4347.7074654652
 10
6430.391351216
 20
4347.6904160431
 10
6430.3895352604
 20
4347.684770528
 10
6430.3774042117
 20
4347.6772853018
 10
6429.5871290418
 20
4347.588676596
 10
6421.2492435941
 20
4347.2285229627
 10
6413.2391651553
 20
4346.8689805548
 10
6412.5539888699
 20
4346.7795410163
 10
6412.5504631025
 20
4346.7758144151
 10
6412.5497453145
 20
4346.7720847613
 10
6412.5541372568
 20
4346.7664837838
 10
6412.5653708567
 20
4346.7608739505
 10
6412.607536739
 20
4346.7496262742
  0
LWPOLYLINE
  5
619
330
1F
100
AcDbEntity
  8
0
  6
Continuous
 62
     7
100
AcDbPolyline
 90
       13
 70
   128
 43
0.0
 10
6430.3703308105
 20
4345.7536252094
 10
6430.3913512171
 20
4345.7365693811
 10
6430.3895352664
 20
4345.7309221628
 10
6430.3774042255
 20
4345.7234351589
 10
6429.5871291481
 20
4345.6348290729
 10
6421.2492437187
 20
4345.2746754777
 10
6413.2391651571
 20
4344.9151333911
 10
6412.5539888756
 20
4344.8256930687
 10
6412.5504631066
 20
4344.8219665267
 10
6412.5497453173
 20
4344.8182369263
 10
6412.5541372579
 20
4344.8126360153
 10
6412.5653708568
 20
4344.8070262273
 10
6412.607536739
 20
4344.7957785679
  0
LWPOLYLINE
  5
61A
330
1F
100
AcDbEntity
  8
0
  6
Continuous
 62
     7
100
AcDbPolyline
 90
       13
 70
   128
 43
0.0
 10
6430.3703308105
 20
4343.7997775031
 10
6430.3913512167
 20
4343.7827216903
 10
6430.389535267
 20
4343.77707444
 10
6430.3774042287
 20
4343.7695873541
 10
6429.5871291608
 20
4343.6809814974
 10
6421.2492436741
 20
4343.3208326598
 10
6413.2391651616
 20
4342.9612950729
 10
6412.5539887892
 20
4342.8718318653
 10
6412.5504630257
 20
4342.8681064869
 10
6412.5497452432
 20
4342.8643784292
 10
6412.5541371963
 20
4342.8587805958
 10
6412.5653708109
 20
4342.8531748745
 10
6412.607536739
 20
4342.8419383122
  0
LWPOLYLINE
  5
61B
330
1F
100
AcDbEntity
  8
0
  6
Continuous
 62
     7
100
AcDbPolyline
 90
       13
 70
   128
 43
0.0
 10
6430.3703308105
 20
4341.8459297968
 10
6430.3913512177
 20
4341.8288739259
 10
6430.389535266
 20
4341.8232267965
 10
6430.3774042222
 20
4341.8157400278
 10
6429.587129043
 20
4341.7271412589
 10
6421.2492435344
 20
4341.3669890217
 10
6413.2391651609
 20
4341.0074474054
 10
6412.5539887898
 20
4340.9179841416
 10
6412.5504630262
 20
4340.9142587675
 10
6412.5497452435
 20
4340.9105307136
 10
6412.5541371965
 20
4340.904932885
 10
6412.565370811
 20
4340.899327167
 10
6412.607536739
 20
4340.8880906059
  0
LWPOLYLINE
  5
61C
330
1F
100
AcDbEntity
  8
0
  6
Continuous
 62
     7
100
AcDbPolyline
 90
        9
 70
   128
 43
0.0
 10
6431.3659667969
 20
4348.3201788617
 10
6431.3771346146
 20
4348.3049378604
 10
6431.3764781494
 20
4348.2973348208
 10
6431.3698939985
 20
4348.2897527347
 10
6430.5891470796
 20
4348.2005899216
 10
6421.2479273365
 20
4347.839821547
 10
6412.2315483639
 20
4347.4803479464
 10
6411.7450350661
 20
4347.420322441
 10
6411.5998308121
 20
4347.359866078
  0
LWPOLYLINE
  5
61D
330
1F
100
AcDbEntity
  8
0
  6
Continuous
 62
     7
100
AcDbPolyline
 90
        9
 70
   128
 43
0.0
 10
6431.3659667969
 20
4346.366338606
 10
6431.377134612
 20
4346.3510977793
 10
6431.3764781463
 20
4346.3434947774
 10
6431.3698939957
 20
4346.3359126692
 10
6430.5891471667
 20
4346.2467440612
 10
6421.2479273939
 20
4345.8859793729
 10
6412.2315484686
 20
4345.526498783
 10
6411.7450350925
 20
4345.4664765861
 10
6411.5998308121
 20
4345.4060258223
  0
LWPOLYLINE
  5
61E
330
1F
100
AcDbEntity
  8
0
  6
Continuous
 62
     7
100
AcDbPolyline
 90
        9
 70
   128
 43
0.0
 10
6431.3659667969
 20
4344.4124908997
 10
6431.3771346105
 20
4344.3972501358
 10
6431.3764781445
 20
4344.3896471474
 10
6431.3698939941
 20
4344.3820650313
 10
6430.5891471866
 20
4344.2928955123
 10
6421.2479273854
 20
4343.9321318636
 10
6412.2315484195
 20
4343.5726570792
 10
6411.7450350481
 20
4343.5126354073
 10
6411.5998308121
 20
4343.452178116
  0
LWPOLYLINE
  5
61F
330
1F
100
AcDbEntity
  8
0
  6
Continuous
 62
     7
100
AcDbPolyline
 90
        9
 70
   128
 43
0.0
 10
6431.3659667969
 20
4342.4586431934
 10
6431.3771346106
 20
4342.4434024283
 10
6431.3764781445
 20
4342.4357994396
 10
6431.3698939941
 20
4342.4282173237
 10
6430.589147186
 20
4342.3390478223
 10
6421.2479273346
 20
4341.9782858262
 10
6412.2315484142
 20
4341.6188095497
 10
6411.74503505
 20
4341.5587876389
 10
6411.5998308121
 20
4341.4983304096
  0
LWPOLYLINE
  5
620
330
1F
100
AcDbEntity
  8
0
  6
Continuous
 62
     7
100
AcDbPolyline
 90
       15
 70
   128
 43
0.0
 10
6431.396484375
 20
4348.5810609413
 10
6431.4416947172
 20
4348.5656028945
 10
6431.4633348878
 20
4348.5502217371
 10
6431.4609971093
 20
4348.5444890246
 10
6431.4520077182
 20
4348.538777721
 10
6431.4150683508
 20
4348.5274095995
 10
6430.7702933592
 20
4348.4596886294
 10
6421.5178067326
 20
4348.0925322799
 10
6412.2916443836
 20
4347.7262215793
 10
6411.4947828052
 20
4347.6350076677
 10
6411.490234614
 20
4347.6312110606
 10
6411.4889339864
 20
4347.6274117715
 10
6411.49331378
 20
4347.6217070496
 10
6411.5056217285
 20
4347.6159943397
 10
6411.5532497822
 20
4347.6045431448
  0
LWPOLYLINE
  5
621
330
1F
100
AcDbEntity
  8
0
  6
Continuous
 62
     7
100
AcDbPolyline
 90
       15
 70
   128
 43
0.0
 10
6431.396484375
 20
4346.627213235
 10
6431.4416947172
 20
4346.6117551872
 10
6431.4633348878
 20
4346.5963740305
 10
6431.4609971093
 20
4346.590641319
 10
6431.4520077182
 20
4346.5849300167
 10
6431.4150683506
 20
4346.5735618989
 10
6430.7702933586
 20
4346.5058409346
 10
6421.5178066311
 20
4346.1386878224
 10
6412.2916443823
 20
4345.7723739236
 10
6411.4947828058
 20
4345.6811599433
 10
6411.4902346144
 20
4345.6773633405
 10
6411.4889339867
 20
4345.6735640555
 10
6411.4933137802
 20
4345.6678593385
 10
6411.5056217285
 20
4345.662146632
 10
6411.5532497822
 20
4345.6506954385
  0
LWPOLYLINE
  5
622
330
1F
100
AcDbEntity
  8
0
  6
Continuous
 62
     7
100
AcDbPolyline
 90
       15
 70
   128
 43
0.0
 10
6431.396484375
 20
4344.6733655287
 10
6431.4416947199
 20
4344.657907299
 10
6431.4633348886
 20
4344.6425262681
 10
6431.4609971073
 20
4344.6367937447
 10
6431.4520077122
 20
4344.6310827155
 10
6431.4150683334
 20
4344.6197153554
 10
6430.7702932583
 20
4344.552000259
 10
6421.5178066574
 20
4344.1848392838
 10
6412.2916443875
 20
4343.8185260277
 10
6411.494782804
 20
4343.7273123048
 10
6411.490234613
 20
4343.7235156856
 10
6411.4889339857
 20
4343.7197163857
 10
6411.4933137797
 20
4343.7140116501
 10
6411.5056217284
 20
4343.7082989307
 10
6411.5532497822
 20
4343.6968477322
  0
LWPOLYLINE
  5
623
330
1F
100
AcDbEntity
  8
0
  6
Continuous
 62
     7
100
AcDbPolyline
 90
       15
 70
   128
 43
0.0
 10
6431.396484375
 20
4342.719525273
 10
6431.4416947168
 20
4342.7040631773
 10
6431.463334889
 20
4342.6886789151
 10
6431.4609971116
 20
4342.682945471
 10
6431.4520077207
 20
4342.6772337019
 10
6431.4150683508
 20
4342.665865349
 10
6430.7702933364
 20
4342.5981519673
 10
6421.5178068061
 20
4342.2309906411
 10
6412.2916443892
 20
4341.8646753837
 10
6411.4947828794
 20
4341.7734861608
 10
6411.4902346845
 20
4341.7696883482
 10
6411.4889340519
 20
4341.7658874637
 10
6411.4933138354
 20
4341.7601795643
 10
6411.5056217704
 20
4341.7544626623
 10
6411.5532497822
 20
4341.7430000259
  0
LWPOLYLINE
  5
624
330
1F
100
AcDbEntity
  8
0
  6
Continuous
 62
     7
100
AcDbPolyline
 90
       15
 70
   128
 43
0.0
 10
6431.396484375
 20
4340.7656775666
 10
6431.4416947184
 20
4340.7502194679
 10
6431.4633348881
 20
4340.7348383464
 10
6431.4609971084
 20
4340.7291056875
 10
6431.4520077157
 20
4340.7233944603
 10
6431.4150683437
 20
4340.7120265394
 10
6430.7702933444
 20
4340.6443058902
 10
6421.5178069145
 20
4340.2771431089
 10
6412.2916444714
 20
4339.9108308262
 10
6411.4947828191
 20
4339.8196232566
 10
6411.4902346243
 20
4339.8158269151
 10
6411.4889339936
 20
4339.8120278592
 10
6411.4933137835
 20
4339.8063234177
 10
6411.5056217295
 20
4339.8006108938
 10
6411.5532497822
 20
4339.7891597701
  0
LWPOLYLINE
  5
625
330
1F
100
AcDbEntity
  8
0
  6
Continuous
 62
     7
100
AcDbPolyline
 90
        8
 70
   128
 43
0.0
 10
6430.3512573242
 20
4349.1917254282
 10
6430.411463327
 20
4349.1614756541
 10
6430.4101409152
 20
4349.1558509695
 10
6430.4030854589
 20
4349.1502472784
 10
6430.3725718762
 20
4349.1390938402
 10
6429.8209717245
 20
4349.0726989117
 10
6421.7928788615
 20
4348.7125277588
 10
6412.6429567992
 20
4348.2340874029
  0
LWPOLYLINE
  5
626
330
1F
100
AcDbEntity
  8
0
  6
Continuous
 62
     7
100
AcDbPolyline
 90
        8
 70
   128
 43
0.0
 10
6430.3512573242
 20
4347.2378777219
 10
6430.411463327
 20
4347.2076279479
 10
6430.4101409152
 20
4347.2020032631
 10
6430.4030854589
 20
4347.1963995716
 10
6430.3725718763
 20
4347.1852461325
 10
6429.8209717249
 20
4347.118851202
 10
6421.7928788813
 20
4346.7586794768
 10
6412.6429567992
 20
4346.2802396966
  0
LWPOLYLINE
  5
627
330
1F
100
AcDbEntity
  8
0
  6
Continuous
 62
     7
100
AcDbPolyline
 90
        8
 70
   128
 43
0.0
 10
6430.3512573242
 20
4345.2840300156
 10
6430.4114633271
 20
4345.2537802364
 10
6430.410140915
 20
4345.248155564
 10
6430.4030854581
 20
4345.2425518906
 10
6430.3725718739
 20
4345.2313985
 10
6429.820971719
 20
4345.1650036743
 10
6421.7928789145
 20
4344.8048308164
 10
6412.6429567992
 20
4344.3263919903
  0
LWPOLYLINE
  5
628
330
1F
100
AcDbEntity
  8
0
  6
Continuous
 62
     7
100
AcDbPolyline
 90
        8
 70
   128
 43
0.0
 10
6430.3512573242
 20
4343.3301823093
 10
6430.4114633264
 20
4343.2999395585
 10
6430.4101409118
 20
4343.2943156839
 10
6430.4030854528
 20
4343.288712573
 10
6430.3725718661
 20
4343.277559673
 10
6429.8209717271
 20
4343.2111579202
 10
6421.7928790363
 20
4342.8509833084
 10
6412.6429567992
 20
4342.3725517346
  0
LWPOLYLINE
  5
629
330
1F
100
AcDbEntity
  8
0
  6
Continuous
 62
     7
100
AcDbPolyline
 90
        8
 70
   128
 43
0.0
 10
6430.3512573242
 20
4341.376334603
 10
6430.4114633259
 20
4341.3460918729
 10
6430.4101409125
 20
4341.3404679488
 10
6430.4030854553
 20
4341.3348647659
 10
6430.3725718735
 20
4341.3237116736
 10
6429.8209717455
 20
4341.2573095049
 10
6421.7928788083
 20
4340.8971421264
 10
6412.6429567992
 20
4340.4187040282
  0
LWPOLYLINE
  5
62A
330
1F
100
AcDbEntity
  8
0
  6
Continuous
 62
     7
100
AcDbPolyline
 90
        3
 70
   128
 43
0.0
 10
6092.8611755371
 20
4167.5233470155
 10
6092.6294825562
 20
4167.5428586893
 10
6092.1418304502
 20
4167.5833614422
  0
LWPOLYLINE
  5
62B
330
1F
100
AcDbEntity
  8
0
  6
Continuous
 62
     7
100
AcDbPolyline
 90
        3
 70
   128
 43
0.0
 10
6170.0553894043
 20
3913.8029741002
 10
6170.0264143388
 20
3913.388014236
 10
6169.9686582147
 20
3912.5791715337
  0
LWPOLYLINE
  5
62C
330
1F
100
AcDbEntity
  8
0
  6
Continuous
 62
     7
100
AcDbPolyline
 90
        3
 70
   128
 43
0.0
 10
6454.9674987793
 20
3990.1634978009
 10
6455.3337337559
 20
3990.1330660027
 10
6456.0504044353
 20
3990.0737034036
  0
LWPOLYLINE
  5
62D
330
1F
100
AcDbEntity
  8
0
  6
Continuous
 62
     7
100
AcDbPolyline
 90
        3
 70
   128
 43
0.0
 10
6454.9674987793
 20
4167.5233395649
 10
6455.3311561292
 20
4167.552977819
 10
6456.0431177675
 20
4167.6121579362
  0
LWPOLYLINE
  5
62E
330
1F
100
AcDbEntity
  8
0
  6
Continuous
 62
     7
100
AcDbPolyline
 90
        3
 70
   128
 43
0.0
 10
6374.6528625488
 20
4204.0057258559
 10
6326.1697102608
 20
4206.8571996518
 10
6288.019322878
 20
4207.6899113013
  0
LWPOLYLINE
  5
62F
330
1F
100
AcDbEntity
  8
0
  6
Continuous
 62
     7
100
AcDbPolyline
 90
        3
 70
   128
 43
0.0
 10
6260.0173950195
 20
4207.6899187518
 10
6211.3559881719
 20
4206.3536101569
 10
6173.1760586559
 20
4204.0057295812
  0
POINT
  5
630
330
1F
100
AcDbEntity
  8
0
  6
Continuous
 62
     7
100
AcDbPoint
 10
6950.4026622707
 20
4904.8515171277
 30
0.0
  0
ENDSEC
  0
SECTION
  2
OBJECTS
  0
DICTIONARY
  5
C
330
0
100
AcDbDictionary
281
     1
  3
ACAD_GROUP
350
D
  3
ACAD_LAYOUT
350
1A
  3
ACAD_MLINESTYLE
350
17
  3
ACAD_PLOTSETTINGS
350
19
  3
ACAD_PLOTSTYLENAME
350
E
  3
ACAD_SCALELIST
350
47
  3
DWGPROPS
350
631
  0
DICTIONARY
  5
D
102
{ACAD_REACTORS
330
C
102
}
330
C
100
AcDbDictionary
281
     1
  0
DICTIONARY
  5
1A
102
{ACAD_REACTORS
330
C
102
}
330
C
100
AcDbDictionary
281
     1
  3
Layout1
350
1E
  3
Layout2
350
26
  3
Model
350
22
  0
DICTIONARY
  5
17
102
{ACAD_REACTORS
330
C
102
}
330
C
100
AcDbDictionary
281
     1
  3
Standard
350
18
  0
DICTIONARY
  5
19
102
{ACAD_REACTORS
330
C
102
}
330
C
100
AcDbDictionary
281
     1
  0
ACDBDICTIONARYWDFLT
  5
E
102
{ACAD_REACTORS
330
C
102
}
330
C
100
AcDbDictionary
281
     1
  3
Normal
350
F
100
AcDbDictionaryWithDefault
340
F
  0
DICTIONARY
  5
47
102
{ACAD_REACTORS
330
C
102
}
330
C
100
AcDbDictionary
281
     1
  3
A0
350
48
  3
A1
350
49
  3
A2
350
4A
  3
A3
350
4B
  3
A4
350
4C
  3
A5
350
4D
  3
A6
350
4E
  3
A7
350
4F
  3
A8
350
50
  3
A9
350
51
  3
B0
350
52
  3
B1
350
53
  3
B2
350
54
  3
B3
350
55
  3
B4
350
56
  3
B5
350
57
  3
B6
350
58
  3
B7
350
59
  3
B8
350
5A
  3
B9
350
5B
  3
C0
350
5C
  3
C1
350
5D
  3
C2
350
5E
  3
C3
350
5F
  3
C4
350
60
  3
C5
350
61
  3
C6
350
62
  3
C7
350
63
  3
C8
350
64
  3
C9
350
65
  3
D0
350
66
  3
D1
350
67
  3
D2
350
68
  0
XRECORD
  5
631
102
{ACAD_REACTORS
330
C
102
}
330
C
100
AcDbXrecord
280
     1
  1
DWGPROPS COOKIE
  2

  3

  4

  6

  7

  8
radek.stransky
  9

300
=
301
=
302
=
303
=
304
=
305
=
306
=
307
=
308
=
309
=
 40
0.0
 41
2459096.308197419
 42
2459096.308277488
  1

 90
        0
  0
LAYOUT
  5
1E
102
{ACAD_REACTORS
330
1A
102
}
330
1A
100
AcDbPlotSettings
  1

  2
none_device
  4

  6

 40
0.0
 41
0.0
 42
0.0
 43
0.0
 44
0.0
 45
0.0
 46
0.0
 47
0.0
 48
0.0
 49
0.0
140
0.0
141
0.0
142
1.0
143
1.0
 70
   688
 72
     1
 73
     0
 74
     5
  7

 75
    16
147
1.0
148
0.0
149
0.0
100
AcDbLayout
  1
Layout1
 70
     1
 71
     1
 10
0.0
 20
0.0
 11
420.0
 21
297.0
 12
0.0
 22
0.0
 32
0.0
 14
1.0000000000E+20
 24
1.0000000000E+20
 34
1.0000000000E+20
 15
-1.0000000000E+20
 25
-1.0000000000E+20
 35
-1.0000000000E+20
146
0.0
 13
0.0
 23
0.0
 33
0.0
 16
1.0
 26
0.0
 36
0.0
 17
0.0
 27
1.0
 37
0.0
 76
     0
330
1B
  0
LAYOUT
  5
26
102
{ACAD_REACTORS
330
1A
102
}
330
1A
100
AcDbPlotSettings
  1

  2
none_device
  4

  6

 40
0.0
 41
0.0
 42
0.0
 43
0.0
 44
0.0
 45
0.0
 46
0.0
 47
0.0
 48
0.0
 49
0.0
140
0.0
141
0.0
142
1.0
143
1.0
 70
   688
 72
     1
 73
     0
 74
     5
  7

 75
    16
147
1.0
148
0.0
149
0.0
100
AcDbLayout
  1
Layout2
 70
     1
 71
     2
 10
0.0
 20
0.0
 11
0.0
 21
0.0
 12
0.0
 22
0.0
 32
0.0
 14
0.0
 24
0.0
 34
0.0
 15
0.0
 25
0.0
 35
0.0
146
0.0
 13
0.0
 23
0.0
 33
0.0
 16
1.0
 26
0.0
 36
0.0
 17
0.0
 27
1.0
 37
0.0
 76
     0
330
23
  0
LAYOUT
  5
22
102
{ACAD_REACTORS
330
1A
102
}
330
1A
100
AcDbPlotSettings
  1

  2
none_device
  4
ANSI_A_(11.00_x_8.50_Inches)
  6

 40
6.35
 41
19.05
 42
6.35000508
 43
19.05000254
 44
279.4
 45
215.9
 46
-676.6106005852
 47
-482.3788017058
 48
0.0
 49
0.0
140
0.0
141
0.0
142
0.0047331479
143
1.0
 70
  1696
 72
     0
 73
     0
 74
     0
  7

 75
     0
147
0.0179189148
148
-1300.4909072572
149
0.0
100
AcDbLayout
  1
Model
 70
     1
 71
     0
 10
0.0
 20
0.0
 11
420.0
 21
297.0
 12
0.0
 22
0.0
 32
0.0
 14
6049.0176911413
 24
3862.9241214944
 34
0.0
 15
7425.402678662
 25
5640.8106577116
 35
0.0
146
0.0
 13
0.0
 23
0.0
 33
0.0
 16
1.0
 26
0.0
 36
0.0
 17
0.0
 27
1.0
 37
0.0
 76
     0
330
1F
331
29
  0
MLINESTYLE
  5
18
102
{ACAD_REACTORS
330
17
102
}
330
17
100
AcDbMlineStyle
  2
Standard
 70
     0
  3

 62
   256
 51
90.0
 52
90.0
 71
     2
 49
0.5
 62
   256
  6
BYLAYER
 49
-0.5
 62
   256
  6
BYLAYER
  0
ACDBPLACEHOLDER
  5
F
102
{ACAD_REACTORS
330
E
102
}
330
E
  0
SCALE
  5
48
102
{ACAD_REACTORS
330
47
102
}
330
47
100
AcDbScale
 70
     0
300
1:1
140
1.0
141
1.0
290
     1
  0
SCALE
  5
49
102
{ACAD_REACTORS
330
47
102
}
330
47
100
AcDbScale
 70
     0
300
1:2
140
1.0
141
2.0
290
     0
  0
SCALE
  5
4A
102
{ACAD_REACTORS
330
47
102
}
330
47
100
AcDbScale
 70
     0
300
1:4
140
1.0
141
4.0
290
     0
  0
SCALE
  5
4B
102
{ACAD_REACTORS
330
47
102
}
330
47
100
AcDbScale
 70
     0
300
1:5
140
1.0
141
5.0
290
     0
  0
SCALE
  5
4C
102
{ACAD_REACTORS
330
47
102
}
330
47
100
AcDbScale
 70
     0
300
1:8
140
1.0
141
8.0
290
     0
  0
SCALE
  5
4D
102
{ACAD_REACTORS
330
47
102
}
330
47
100
AcDbScale
 70
     0
300
1:10
140
1.0
141
10.0
290
     0
  0
SCALE
  5
4E
102
{ACAD_REACTORS
330
47
102
}
330
47
100
AcDbScale
 70
     0
300
1:16
140
1.0
141
16.0
290
     0
  0
SCALE
  5
4F
102
{ACAD_REACTORS
330
47
102
}
330
47
100
AcDbScale
 70
     0
300
1:20
140
1.0
141
20.0
290
     0
  0
SCALE
  5
50
102
{ACAD_REACTORS
330
47
102
}
330
47
100
AcDbScale
 70
     0
300
1:30
140
1.0
141
30.0
290
     0
  0
SCALE
  5
51
102
{ACAD_REACTORS
330
47
102
}
330
47
100
AcDbScale
 70
     0
300
1:40
140
1.0
141
40.0
290
     0
  0
SCALE
  5
52
102
{ACAD_REACTORS
330
47
102
}
330
47
100
AcDbScale
 70
     0
300
1:50
140
1.0
141
50.0
290
     0
  0
SCALE
  5
53
102
{ACAD_REACTORS
330
47
102
}
330
47
100
AcDbScale
 70
     0
300
1:100
140
1.0
141
100.0
290
     0
  0
SCALE
  5
54
102
{ACAD_REACTORS
330
47
102
}
330
47
100
AcDbScale
 70
     0
300
2:1
140
2.0
141
1.0
290
     0
  0
SCALE
  5
55
102
{ACAD_REACTORS
330
47
102
}
330
47
100
AcDbScale
 70
     0
300
4:1
140
4.0
141
1.0
290
     0
  0
SCALE
  5
56
102
{ACAD_REACTORS
330
47
102
}
330
47
100
AcDbScale
 70
     0
300
8:1
140
8.0
141
1.0
290
     0
  0
SCALE
  5
57
102
{ACAD_REACTORS
330
47
102
}
330
47
100
AcDbScale
 70
     0
300
10:1
140
10.0
141
1.0
290
     0
  0
SCALE
  5
58
102
{ACAD_REACTORS
330
47
102
}
330
47
100
AcDbScale
 70
     0
300
100:1
140
100.0
141
1.0
290
     0
  0
SCALE
  5
59
102
{ACAD_REACTORS
330
47
102
}
330
47
100
AcDbScale
 70
     0
300
1/128" = 1'-0"
140
0.0078125
141
12.0
290
     0
  0
SCALE
  5
5A
102
{ACAD_REACTORS
330
47
102
}
330
47
100
AcDbScale
 70
     0
300
1/64" = 1'-0"
140
0.015625
141
12.0
290
     0
  0
SCALE
  5
5B
102
{ACAD_REACTORS
330
47
102
}
330
47
100
AcDbScale
 70
     0
300
1/32" = 1'-0"
140
0.03125
141
12.0
290
     0
  0
SCALE
  5
5C
102
{ACAD_REACTORS
330
47
102
}
330
47
100
AcDbScale
 70
     0
300
1/16" = 1'-0"
140
0.0625
141
12.0
290
     0
  0
SCALE
  5
5D
102
{ACAD_REACTORS
330
47
102
}
330
47
100
AcDbScale
 70
     0
300
3/32" = 1'-0"
140
0.09375
141
12.0
290
     0
  0
SCALE
  5
5E
102
{ACAD_REACTORS
330
47
102
}
330
47
100
AcDbScale
 70
     0
300
1/8" = 1'-0"
140
0.125
141
12.0
290
     0
  0
SCALE
  5
5F
102
{ACAD_REACTORS
330
47
102
}
330
47
100
AcDbScale
 70
     0
300
3/16" = 1'-0"
140
0.1875
141
12.0
290
     0
  0
SCALE
  5
60
102
{ACAD_REACTORS
330
47
102
}
330
47
100
AcDbScale
 70
     0
300
1/4" = 1'-0"
140
0.25
141
12.0
290
     0
  0
SCALE
  5
61
102
{ACAD_REACTORS
330
47
102
}
330
47
100
AcDbScale
 70
     0
300
3/8" = 1'-0"
140
0.375
141
12.0
290
     0
  0
SCALE
  5
62
102
{ACAD_REACTORS
330
47
102
}
330
47
100
AcDbScale
 70
     0
300
1/2" = 1'-0"
140
0.5
141
12.0
290
     0
  0
SCALE
  5
63
102
{ACAD_REACTORS
330
47
102
}
330
47
100
AcDbScale
 70
     0
300
3/4" = 1'-0"
140
0.75
141
12.0
290
     0
  0
SCALE
  5
64
102
{ACAD_REACTORS
330
47
102
}
330
47
100
AcDbScale
 70
     0
300
1" = 1'-0"
140
1.0
141
12.0
290
     0
  0
SCALE
  5
65
102
{ACAD_REACTORS
330
47
102
}
330
47
100
AcDbScale
 70
     0
300
1-1/2" = 1'-0"
140
1.5
141
12.0
290
     0
  0
SCALE
  5
66
102
{ACAD_REACTORS
330
47
102
}
330
47
100
AcDbScale
 70
     0
300
3" = 1'-0"
140
3.0
141
12.0
290
     0
  0
SCALE
  5
67
102
{ACAD_REACTORS
330
47
102
}
330
47
100
AcDbScale
 70
     0
300
6" = 1'-0"
140
6.0
141
12.0
290
     0
  0
SCALE
  5
68
102
{ACAD_REACTORS
330
47
102
}
330
47
100
AcDbScale
 70
     0
300
1'-0" = 1'-0"
140
12.0
141
12.0
290
     0
  0
ENDSEC
  0
EOF
