  0
SECTION
  2
HEADER
  9
$ACADVER
  1
AC1032
  9
$ACADMAINTVER
 90
       55
  9
$DWGCODEPAGE
  3
ANSI_1250
  9
$LASTSAVEDBY
  1
radek.stransky
  9
$REQUIREDVERSIONS
160
                 0
  9
$INSBASE
 10
0.0
 20
0.0
 30
0.0
  9
$EXTMIN
 10
0.0
 20
0.0
 30
0.0
  9
$EXTMAX
 10
20000.0
 20
10000.0
 30
0.0
  9
$LIMMIN
 10
0.0
 20
0.0
  9
$LIMMAX
 10
20000.0
 20
10000.0
  9
$ORTHOMODE
 70
     0
  9
$REGENMODE
 70
     1
  9
$FILLMODE
 70
     1
  9
$QTEXTMODE
 70
     0
  9
$MIRRTEXT
 70
     1
  9
$LTSCALE
 40
1.0
  9
$ATTMODE
 70
     1
  9
$TEXTSIZE
 40
2.0
  9
$TRACEWID
 40
1.0
  9
$TEXTSTYLE
  7
Standard
  9
$CLAYER
  8
0
  9
$CELTYPE
  6
ByLayer
  9
$CECOLOR
 62
   256
  9
$CELTSCALE
 40
1.0
  9
$DISPSILH
 70
     0
  9
$DIMSCALE
 40
1.0
  9
$DIMASZ
 40
2.0
  9
$DIMEXO
 40
1.0
  9
$DIMDLI
 40
3.75
  9
$DIMRND
 40
0.0
  9
$DIMDLE
 40
0.0
  9
$DIMEXE
 40
1.0
  9
$DIMTP
 40
0.0
  9
$DIMTM
 40
0.0
  9
$DIMTXT
 40
2.0
  9
$DIMCEN
 40
2.5
  9
$DIMTSZ
 40
0.0
  9
$DIMTOL
 70
     0
  9
$DIMLIM
 70
     0
  9
$DIMTIH
 70
     1
  9
$DIMTOH
 70
     1
  9
$DIMSE1
 70
     0
  9
$DIMSE2
 70
     0
  9
$DIMTAD
 70
     1
  9
$DIMZIN
 70
     0
  9
$DIMBLK
  1

  9
$DIMASO
 70
     1
  9
$DIMSHO
 70
     1
  9
$DIMPOST
  1

  9
$DIMAPOST
  1

  9
$DIMALT
 70
     0
  9
$DIMALTD
 70
     3
  9
$DIMALTF
 40
0.0393700787
  9
$DIMLFAC
 40
1.0
  9
$DIMTOFL
 70
     1
  9
$DIMTVP
 40
0.0
  9
$DIMTIX
 70
     0
  9
$DIMSOXD
 70
     0
  9
$DIMSAH
 70
     0
  9
$DIMBLK1
  1

  9
$DIMBLK2
  1

  9
$DIMSTYLE
  2
ISO-25
  9
$DIMCLRD
 70
     0
  9
$DIMCLRE
 70
     0
  9
$DIMCLRT
 70
     0
  9
$DIMTFAC
 40
1.0
  9
$DIMGAP
 40
1.524
  9
$DIMJUST
 70
     0
  9
$DIMSD1
 70
     0
  9
$DIMSD2
 70
     0
  9
$DIMTOLJ
 70
     0
  9
$DIMTZIN
 70
     0
  9
$DIMALTZ
 70
     0
  9
$DIMALTTZ
 70
     0
  9
$DIMUPT
 70
     0
  9
$DIMDEC
 70
     2
  9
$DIMTDEC
 70
     0
  9
$DIMALTU
 70
     2
  9
$DIMALTTD
 70
     3
  9
$DIMTXSTY
  7
Standard
  9
$DIMAUNIT
 70
     0
  9
$DIMADEC
 70
     2
  9
$DIMALTRND
 40
0.0
  9
$DIMAZIN
 70
     0
  9
$DIMDSEP
 70
    44
  9
$DIMATFIT
 70
     3
  9
$DIMFRAC
 70
     0
  9
$DIMLDRBLK
  1

  9
$DIMLUNIT
 70
     2
  9
$DIMLWD
 70
    -2
  9
$DIMLWE
 70
    -2
  9
$DIMTMOVE
 70
     0
  9
$DIMFXL
 40
1.0
  9
$DIMFXLON
 70
     0
  9
$DIMJOGANG
 40
0.7853981634
  9
$DIMTFILL
 70
     0
  9
$DIMTFILLCLR
 70
     0
  9
$DIMARCSYM
 70
     0
  9
$DIMLTYPE
  6

  9
$DIMLTEX1
  6

  9
$DIMLTEX2
  6

  9
$DIMTXTDIRECTION
 70
     0
  9
$LUNITS
 70
     2
  9
$LUPREC
 70
     3
  9
$SKETCHINC
 40
1.0
  9
$FILLETRAD
 40
10.0
  9
$AUNITS
 70
     0
  9
$AUPREC
 70
     2
  9
$MENU
  1
.
  9
$ELEVATION
 40
0.0
  9
$PELEVATION
 40
0.0
  9
$THICKNESS
 40
0.0
  9
$LIMCHECK
 70
     0
  9
$CHAMFERA
 40
0.0
  9
$CHAMFERB
 40
0.0
  9
$CHAMFERC
 40
0.0
  9
$CHAMFERD
 40
0.0
  9
$SKPOLY
 70
     0
  9
$TDCREATE
 40
2460173.27162544
  9
$TDUCREATE
 40
2460173.188292107
  9
$TDUPDATE
 40
2460173.27163103
  9
$TDUUPDATE
 40
2460173.188297697
  9
$TDINDWG
 40
0.0000000116
  9
$TDUSRTIMER
 40
0.0000000116
  9
$USRTIMER
 70
     1
  9
$ANGBASE
 50
0.0
  9
$ANGDIR
 70
     0
  9
$PDMODE
 70
     0
  9
$PDSIZE
 40
-1.0
  9
$PLINEWID
 40
0.0
  9
$SPLFRAME
 70
     0
  9
$SPLINETYPE
 70
     6
  9
$SPLINESEGS
 70
     8
  9
$HANDSEED
  5
1FD
  9
$SURFTAB1
 70
     6
  9
$SURFTAB2
 70
     6
  9
$SURFTYPE
 70
     6
  9
$SURFU
 70
     6
  9
$SURFV
 70
     6
  9
$UCSBASE
  2

  9
$UCSNAME
  2

  9
$UCSORG
 10
0.0
 20
0.0
 30
0.0
  9
$UCSXDIR
 10
1.0
 20
0.0
 30
0.0
  9
$UCSYDIR
 10
0.0
 20
1.0
 30
0.0
  9
$UCSORTHOREF
  2

  9
$UCSORTHOVIEW
 70
     0
  9
$UCSORGTOP
 10
0.0
 20
0.0
 30
0.0
  9
$UCSORGBOTTOM
 10
0.0
 20
0.0
 30
0.0
  9
$UCSORGLEFT
 10
0.0
 20
0.0
 30
0.0
  9
$UCSORGRIGHT
 10
0.0
 20
0.0
 30
0.0
  9
$UCSORGFRONT
 10
0.0
 20
0.0
 30
0.0
  9
$UCSORGBACK
 10
0.0
 20
0.0
 30
0.0
  9
$PUCSBASE
  2

  9
$PUCSNAME
  2

  9
$PUCSORG
 10
0.0
 20
0.0
 30
0.0
  9
$PUCSXDIR
 10
1.0
 20
0.0
 30
0.0
  9
$PUCSYDIR
 10
0.0
 20
1.0
 30
0.0
  9
$PUCSORTHOREF
  2

  9
$PUCSORTHOVIEW
 70
     0
  9
$PUCSORGTOP
 10
0.0
 20
0.0
 30
0.0
  9
$PUCSORGBOTTOM
 10
0.0
 20
0.0
 30
0.0
  9
$PUCSORGLEFT
 10
0.0
 20
0.0
 30
0.0
  9
$PUCSORGRIGHT
 10
0.0
 20
0.0
 30
0.0
  9
$PUCSORGFRONT
 10
0.0
 20
0.0
 30
0.0
  9
$PUCSORGBACK
 10
0.0
 20
0.0
 30
0.0
  9
$USERI1
 70
     0
  9
$USERI2
 70
     0
  9
$USERI3
 70
     0
  9
$USERI4
 70
     0
  9
$USERI5
 70
     0
  9
$USERR1
 40
0.0
  9
$USERR2
 40
0.0
  9
$USERR3
 40
0.0
  9
$USERR4
 40
0.0
  9
$USERR5
 40
0.0
  9
$WORLDVIEW
 70
     1
  9
$SHADEDGE
 70
     3
  9
$SHADEDIF
 70
    70
  9
$TILEMODE
 70
     1
  9
$MAXACTVP
 70
    64
  9
$PINSBASE
 10
0.0
 20
0.0
 30
0.0
  9
$PLIMCHECK
 70
     0
  9
$PEXTMIN
 10
1.0000000000E+20
 20
1.0000000000E+20
 30
1.0000000000E+20
  9
$PEXTMAX
 10
-1.0000000000E+20
 20
-1.0000000000E+20
 30
-1.0000000000E+20
  9
$PLIMMIN
 10
0.0
 20
0.0
  9
$PLIMMAX
 10
420.0
 20
297.0
  9
$UNITMODE
 70
     0
  9
$VISRETAIN
 70
     1
  9
$PLINEGEN
 70
     0
  9
$PSLTSCALE
 70
     1
  9
$TREEDEPTH
 70
  3020
  9
$CMLSTYLE
  2
Standard
  9
$CMLJUST
 70
     0
  9
$CMLSCALE
 40
20.0
  9
$PROXYGRAPHICS
 70
     1
  9
$MEASUREMENT
 70
     1
  9
$CELWEIGHT
370
    -1
  9
$ENDCAPS
280
     0
  9
$JOINSTYLE
280
     0
  9
$LWDISPLAY
290
     1
  9
$INSUNITS
 70
     4
  9
$HYPERLINKBASE
  1

  9
$STYLESHEET
  1

  9
$XEDIT
290
     1
  9
$CEPSNTYPE
380
     0
  9
$PSTYLEMODE
290
     1
  9
$FINGERPRINTGUID
  2
{7ff77348-35e7-4dfd-9ccd-0da8bcb07312}
  9
$VERSIONGUID
  2
{FAEB1C32-E019-11D5-929B-00C0DF256EC4}
  9
$EXTNAMES
290
     1
  9
$PSVPSCALE
 40
0.0
  9
$OLESTARTUP
290
     0
  9
$SORTENTS
280
   127
  9
$INDEXCTL
280
     0
  9
$HIDETEXT
280
     1
  9
$XCLIPFRAME
280
     2
  9
$HALOGAP
280
     0
  9
$OBSCOLOR
 70
   257
  9
$OBSLTYPE
280
     0
  9
$INTERSECTIONDISPLAY
280
     0
  9
$INTERSECTIONCOLOR
 70
   257
  9
$DIMASSOC
280
     2
  9
$PROJECTNAME
  1

  9
$CAMERADISPLAY
290
     0
  9
$LENSLENGTH
 40
50.0
  9
$CAMERAHEIGHT
 40
0.0
  9
$STEPSPERSEC
 40
2.0
  9
$STEPSIZE
 40
6.0
  9
$3DDWFPREC
 40
2.0
  9
$PSOLWIDTH
 40
5.0
  9
$PSOLHEIGHT
 40
80.0
  9
$LOFTANG1
 40
1.5707963268
  9
$LOFTANG2
 40
1.5707963268
  9
$LOFTMAG1
 40
0.0
  9
$LOFTMAG2
 40
0.0
  9
$LOFTPARAM
 70
     7
  9
$LOFTNORMALS
280
     1
  9
$LATITUDE
 40
37.795
  9
$LONGITUDE
 40
-122.394
  9
$NORTHDIRECTION
 40
0.0
  9
$TIMEZONE
 70
 -8000
  9
$LIGHTGLYPHDISPLAY
280
     1
  9
$TILEMODELIGHTSYNCH
280
     1
  9
$CMATERIAL
347
44
  9
$SOLIDHIST
280
     0
  9
$SHOWHIST
280
     1
  9
$DWFFRAME
280
     2
  9
$DGNFRAME
280
     2
  9
$REALWORLDSCALE
290
     1
  9
$INTERFERECOLOR
 62
   256
  9
$CSHADOW
280
     0
  9
$SHADOWPLANELOCATION
 40
0.0
  0
ENDSEC
  0
SECTION
  2
CLASSES
  0
CLASS
  1
ACDBDICTIONARYWDFLT
  2
AcDbDictionaryWithDefault
  3
ObjectDBX Classes
 90
        0
 91
        3
280
     0
281
     0
  0
CLASS
  1
VISUALSTYLE
  2
AcDbVisualStyle
  3
ObjectDBX Classes
 90
     4095
 91
        3
280
     0
281
     0
  0
CLASS
  1
MATERIAL
  2
AcDbMaterial
  3
ObjectDBX Classes
 90
     1153
 91
        3
280
     0
281
     0
  0
CLASS
  1
SCALE
  2
AcDbScale
  3
ObjectDBX Classes
 90
     1153
 91
        3
280
     0
281
     0
  0
CLASS
  1
TABLESTYLE
  2
AcDbTableStyle
  3
ObjectDBX Classes
 90
     4095
 91
        3
280
     0
281
     0
  0
CLASS
  1
MLEADERSTYLE
  2
AcDbMLeaderStyle
  3
ACDB_MLEADERSTYLE_CLASS
 90
     4095
 91
        3
280
     0
281
     0
  0
CLASS
  1
SUN
  2
AcDbSun
  3
SCENEOE
 90
     1153
 91
        3
280
     0
281
     0
  0
CLASS
  1
DICTIONARYVAR
  2
AcDbDictionaryVar
  3
ObjectDBX Classes
 90
        0
 91
        3
280
     0
281
     0
  0
CLASS
  1
CELLSTYLEMAP
  2
AcDbCellStyleMap
  3
ObjectDBX Classes
 90
     1152
 91
        3
280
     0
281
     0
  0
ENDSEC
  0
SECTION
  2
TABLES
  0
TABLE
  2
VPORT
  5
8
330
0
100
AcDbSymbolTable
 70
     1
  0
VPORT
  5
29
330
8
100
AcDbSymbolTableRecord
100
AcDbViewportTableRecord
  2
*Active
 70
     0
 10
0.0
 20
0.0
 11
1.0
 21
1.0
 12
10000.0
 22
5000.0
 13
0.0
 23
0.0
 14
10.0
 24
10.0
 15
10.0
 25
10.0
 16
0.0
 26
0.0
 36
1.0
 17
0.0
 27
0.0
 37
0.0
 40
10000.0
 41
2.0
 42
50.0
 43
0.0
 44
0.0
 50
0.0
 51
0.0
 71
     0
 72
  2000
 73
     1
 74
     3
 75
     0
 76
     0
 77
     0
 78
     0
281
     0
 65
     1
110
0.0
120
0.0
130
0.0
111
1.0
121
0.0
131
0.0
112
0.0
122
1.0
132
0.0
 79
     0
146
0.0
348
2F
 60
     3
 61
     5
292
     1
282
     1
141
0.0
142
0.0
 63
   250
361
6D
  0
ENDTAB
  0
TABLE
  2
LTYPE
  5
5
330
0
100
AcDbSymbolTable
 70
     6
  0
LTYPE
  5
14
330
5
100
AcDbSymbolTableRecord
100
AcDbLinetypeTableRecord
  2
ByBlock
 70
     0
  3

 72
    65
 73
     0
 40
0.0
  0
LTYPE
  5
15
330
5
100
AcDbSymbolTableRecord
100
AcDbLinetypeTableRecord
  2
ByLayer
 70
     0
  3

 72
    65
 73
     0
 40
0.0
  0
LTYPE
  5
16
330
5
100
AcDbSymbolTableRecord
100
AcDbLinetypeTableRecord
  2
Continuous
 70
     0
  3
Solid line
 72
    65
 73
     0
 40
0.0
  0
LTYPE
  5
6E
330
5
100
AcDbSymbolTableRecord
100
AcDbLinetypeTableRecord
  2
HIDDEN
 70
     0
  3
Hidden __ __ __ __ __ __ __ __ __ __ __ __ __ __
 72
    65
 73
     2
 40
1.905
 49
1.27
 74
     0
 49
-0.635
 74
     0
  0
LTYPE
  5
6F
330
5
100
AcDbSymbolTableRecord
100
AcDbLinetypeTableRecord
  2
PHANTOM
 70
     0
  3
Phantom ______  __  __  ______  __  __  ______
 72
    65
 73
     6
 40
12.7
 49
6.35
 74
     0
 49
-1.27
 74
     0
 49
1.27
 74
     0
 49
-1.27
 74
     0
 49
1.27
 74
     0
 49
-1.27
 74
     0
  0
LTYPE
  5
70
330
5
100
AcDbSymbolTableRecord
100
AcDbLinetypeTableRecord
  2
CENTER
 70
     0
  3
Center ____ _ ____ _ ____ _ ____ _ ____ _ ____
 72
    65
 73
     4
 40
10.16
 49
6.35
 74
     0
 49
-1.27
 74
     0
 49
1.27
 74
     0
 49
-1.27
 74
     0
  0
LTYPE
  5
71
330
5
100
AcDbSymbolTableRecord
100
AcDbLinetypeTableRecord
  2
CENTERX2
 70
     0
  3
Center (2x) ________  __  ________  __  _____
 72
    65
 73
     4
 40
20.32
 49
12.7
 74
     0
 49
-2.54
 74
     0
 49
2.54
 74
     0
 49
-2.54
 74
     0
  0
LTYPE
  5
72
330
5
100
AcDbSymbolTableRecord
100
AcDbLinetypeTableRecord
  2
DOT2
 70
     0
  3
Dot (.5x) ........................................
 72
    65
 73
     2
 40
0.635
 49
0.0
 74
     0
 49
-0.635
 74
     0
  0
ENDTAB
  0
TABLE
  2
LAYER
  5
2
330
0
100
AcDbSymbolTable
 70
    13
  0
LAYER
  5
10
330
2
100
AcDbSymbolTableRecord
100
AcDbLayerTableRecord
  2
0
 70
     0
 62
     7
  6
Continuous
370
    -3
390
F
347
46
348
0
  0
LAYER
  5
73
330
2
100
AcDbSymbolTableRecord
100
AcDbLayerTableRecord
  2
FORMAT
 70
     0
 62
     7
  6
Continuous
370
    -3
390
F
347
46
348
0
  0
LAYER
  5
74
330
2
100
AcDbSymbolTableRecord
100
AcDbLayerTableRecord
  2
OSA
 70
     0
 62
     7
  6
CENTER
370
    -3
390
F
347
46
348
0
  0
LAYER
  5
75
330
2
100
AcDbSymbolTableRecord
100
AcDbLayerTableRecord
  2
0_35
 70
     0
 62
     7
  6
Continuous
370
    35
390
F
347
46
348
0
  0
LAYER
  5
76
330
2
100
AcDbSymbolTableRecord
100
AcDbLayerTableRecord
  2
0_5
 70
     0
 62
     7
  6
Continuous
370
    50
390
F
347
46
348
0
  0
LAYER
  5
77
330
2
100
AcDbSymbolTableRecord
100
AcDbLayerTableRecord
  2
0_25
 70
     0
 62
     7
  6
Continuous
370
    25
390
F
347
46
348
0
  0
LAYER
  5
78
330
2
100
AcDbSymbolTableRecord
100
AcDbLayerTableRecord
  2
0_18
 70
     0
 62
     7
  6
Continuous
370
    -3
390
F
347
46
348
0
  0
LAYER
  5
79
330
2
100
AcDbSymbolTableRecord
100
AcDbLayerTableRecord
  2
SLD-0
 70
     0
 62
   179
  6
Continuous
370
    -3
390
F
347
46
348
0
  0
LAYER
  5
7A
330
2
100
AcDbSymbolTableRecord
100
AcDbLayerTableRecord
  2
KOTY
 70
     0
 62
     7
  6
Continuous
370
    -3
390
F
347
46
348
0
  0
LAYER
  5
7B
330
2
100
AcDbSymbolTableRecord
100
AcDbLayerTableRecord
  2
SILNA
 70
     0
 62
   179
  6
Continuous
370
    -3
390
F
347
46
348
0
  0
LAYER
  5
7C
330
2
100
AcDbSymbolTableRecord
100
AcDbLayerTableRecord
  2
0_18_1
 70
     0
 62
   179
  6
Continuous
370
    -3
390
F
347
46
348
0
  0
LAYER
  5
7D
330
2
100
AcDbSymbolTableRecord
100
AcDbLayerTableRecord
  2
0_35_1
 70
     0
 62
   179
  6
Continuous
370
    35
390
F
347
46
348
0
  0
LAYER
  5
7E
330
2
100
AcDbSymbolTableRecord
100
AcDbLayerTableRecord
  2
0_5_1
 70
     0
 62
   179
  6
Continuous
370
    50
390
F
347
46
348
0
  0
ENDTAB
  0
TABLE
  2
STYLE
  5
3
330
0
100
AcDbSymbolTable
 70
     1
  0
STYLE
  5
11
330
3
100
AcDbSymbolTableRecord
100
AcDbTextStyleTableRecord
  2
Standard
 70
     0
 40
0.0
 41
1.0
 50
0.0
 71
     0
 42
2.0
  3
txt
  4

  0
ENDTAB
  0
TABLE
  2
VIEW
  5
6
330
0
100
AcDbSymbolTable
 70
     0
  0
ENDTAB
  0
TABLE
  2
UCS
  5
7
330
0
100
AcDbSymbolTable
 70
     0
  0
ENDTAB
  0
TABLE
  2
APPID
  5
9
330
0
100
AcDbSymbolTable
 70
     1
  0
APPID
  5
12
330
9
100
AcDbSymbolTableRecord
100
AcDbRegAppTableRecord
  2
ACAD
 70
     0
  0
ENDTAB
  0
TABLE
  2
DIMSTYLE
  5
A
330
0
100
AcDbSymbolTable
 70
     1
100
AcDbDimStyleTable
  0
DIMSTYLE
105
27
330
A
100
AcDbSymbolTableRecord
100
AcDbDimStyleTableRecord
  2
ISO-25
 70
     0
 41
2.5
 42
0.625
 43
3.75
 44
1.25
 73
     0
 74
     0
 77
     1
 78
     8
140
2.5
141
2.5
143
0.0393700787
147
0.625
171
     3
172
     1
178
     0
271
     2
272
     2
274
     3
278
    44
283
     0
284
     8
340
11
  0
ENDTAB
  0
TABLE
  2
BLOCK_RECORD
  5
1
330
0
100
AcDbSymbolTable
 70
     1
  0
BLOCK_RECORD
  5
1F
330
1
100
AcDbSymbolTableRecord
100
AcDbBlockTableRecord
  2
*Model_Space
340
22
 70
     0
280
     1
281
     0
  0
BLOCK_RECORD
  5
1B
330
1
100
AcDbSymbolTableRecord
100
AcDbBlockTableRecord
  2
*Paper_Space
340
1E
 70
     0
280
     1
281
     0
  0
BLOCK_RECORD
  5
23
330
1
100
AcDbSymbolTableRecord
100
AcDbBlockTableRecord
  2
*Paper_Space0
340
26
 70
     0
280
     1
281
     0
  0
ENDTAB
  0
ENDSEC
  0
SECTION
  2
BLOCKS
  0
BLOCK
  5
20
330
1F
100
AcDbEntity
  8
0
100
AcDbBlockBegin
  2
*Model_Space
 70
     0
 10
0.0
 20
0.0
 30
0.0
  3
*Model_Space
  1

  0
ENDBLK
  5
21
330
1F
100
AcDbEntity
  8
0
100
AcDbBlockEnd
  0
BLOCK
  5
1C
330
1B
100
AcDbEntity
 67
     1
  8
0
100
AcDbBlockBegin
  2
*Paper_Space
 70
     0
 10
0.0
 20
0.0
 30
0.0
  3
*Paper_Space
  1

  0
ENDBLK
  5
1D
330
1B
100
AcDbEntity
 67
     1
  8
0
100
AcDbBlockEnd
  0
BLOCK
  5
24
330
23
100
AcDbEntity
  8
0
100
AcDbBlockBegin
  2
*Paper_Space0
 70
     0
 10
0.0
 20
0.0
 30
0.0
  3
*Paper_Space0
  1

  0
ENDBLK
  5
25
330
23
100
AcDbEntity
  8
0
100
AcDbBlockEnd
  0
ENDSEC
  0
SECTION
  2
ENTITIES
  0
ARC
  5
7F
330
1F
100
AcDbEntity
  8
0
  6
Continuous
 62
     7
370
    25
100
AcDbCircle
 10
7587.4941090524
 20
3735.7536471003
 30
0.0
 40
4.021952970229303
100
AcDbArc
 50
170.6427242104
 51
305.2820550939
  0
LINE
  5
80
330
1F
100
AcDbEntity
  8
0
  6
Continuous
 62
     7
370
    25
100
AcDbLine
 10
7587.4380430245
 20
3733.0969833149
 30
0.0
 11
7587.160479065
 21
3732.653436272
 31
0.0
  0
LINE
  5
81
330
1F
100
AcDbEntity
  8
0
  6
Continuous
 62
     7
370
    25
100
AcDbLine
 10
7585.937701842
 20
3734.3033143137
 30
0.0
 11
7585.4424706895
 21
3733.5119352251
 31
0.0
  0
LINE
  5
82
330
1F
100
AcDbEntity
  8
0
  6
Continuous
 62
     7
370
    25
100
AcDbLine
 10
7586.3749407572
 20
3732.9284118126
 30
0.0
 11
7586.733307784
 21
3733.5010821094
 31
0.0
  0
LINE
  5
83
330
1F
100
AcDbEntity
  8
0
  6
Continuous
 62
     7
370
    25
100
AcDbLine
 10
7584.6569323817
 20
3733.7869107657
 30
0.0
 11
7585.0070255839
 21
3734.3463594956
 31
0.0
  0
ARC
  5
84
330
1F
100
AcDbEntity
  8
0
  6
Continuous
 62
     7
370
    25
100
AcDbCircle
 10
7747.2078094368
 20
3735.7536471003
 30
0.0
 40
4.021952970228778
100
AcDbArc
 50
234.7179449062
 51
9.3572757896
  0
LINE
  5
85
330
1F
100
AcDbEntity
  8
0
  6
Continuous
 62
     7
370
    25
100
AcDbLine
 10
7749.0731172785
 20
3734.3758198319
 30
0.0
 11
7749.1152586211
 21
3734.3084779913
 31
0.0
  0
LINE
  5
86
330
1F
100
AcDbEntity
  8
0
  6
Continuous
 62
     7
370
    25
100
AcDbLine
 10
7747.5180551515
 20
3732.8473050658
 30
0.0
 11
7747.2974763817
 21
3733.1997898094
 31
0.0
  0
LINE
  5
87
330
1F
100
AcDbEntity
  8
0
  6
Continuous
 62
     7
370
    25
100
AcDbLine
 10
7747.9473874103
 20
3733.5349969221
 30
0.0
 11
7748.3269777321
 21
3732.9284118126
 31
0.0
  0
LINE
  5
88
330
1F
100
AcDbEntity
  8
0
  6
Continuous
 62
     7
370
    25
100
AcDbLine
 10
7749.2594477998
 20
3733.5119352251
 30
0.0
 11
7748.7636731519
 21
3734.3041828189
 31
0.0
  0
LINE
  5
89
330
1F
100
AcDbEntity
  8
0
  6
Continuous
 62
     7
370
    25
100
AcDbLine
 10
7749.6700424058
 20
3734.2295698394
 30
0.0
 11
7750.0683703803
 21
3733.5930419719
 31
0.0
  0
LINE
  5
8A
330
1F
100
AcDbEntity
  8
0
  6
Continuous
 62
     7
370
    25
100
AcDbLine
 10
7748.4711669107
 20
3732.1318690464
 30
0.0
 11
7747.9753922628
 21
3732.9241166403
 31
0.0
  0
LINE
  5
8B
330
1F
100
AcDbEntity
  8
0
  6
Continuous
 62
     7
370
    25
100
AcDbLine
 10
7574.8509592446
 20
3741.1362809744
 30
0.0
 11
7574.8509592446
 21
3740.1918238326
 31
0.0
  0
LINE
  5
8C
330
1F
100
AcDbEntity
  8
0
  6
Continuous
 62
     7
370
    25
100
AcDbLine
 10
7759.8509592446
 20
3740.1913105411
 30
0.0
 11
7759.8509592446
 21
3741.1352038716
 31
0.0
  0
LWPOLYLINE
  5
8D
330
1F
100
AcDbEntity
  8
0
  6
Continuous
 62
     7
370
    25
100
AcDbPolyline
 90
      223
 70
   128
 43
0.0
 10
7844.839282536
 20
4030.8387065441
 10
7844.8093373579
 20
4032.5040936618
 10
7844.7376184471
 20
4034.5350667183
 10
7844.630725333
 20
4036.5650036341
 10
7844.4886788849
 20
4038.5935090606
 10
7844.311506295
 20
4040.6201878613
 10
7844.0992410852
 20
4042.6446451306
 10
7843.8519231192
 20
4044.6664862146
 10
7843.5695986172
 20
4046.685316733
 10
7843.2523201752
 20
4048.7007426045
 10
7842.9001467877
 20
4050.7123700745
 10
7842.5131438727
 20
4052.7198057472
 10
7842.0913833
 20
4054.7226566204
 10
7841.6349434212
 20
4056.7205301254
 10
7841.1439091014
 20
4058.713034171
 10
7840.6183717521
 20
4060.6997771924
 10
7840.0584293647
 20
4062.6803682047
 10
7839.4641865437
 20
4064.6544168616
 10
7838.8357545402
 20
4066.6215335194
 10
7838.1732512832
 20
4068.5813293053
 10
7837.4768014108
 20
4070.5334161916
 10
7836.7465362979
 20
4072.4774070739
 10
7835.9825940822
 20
4074.4129158548
 10
7835.1851196876
 20
4076.3395575313
 10
7834.3542648428
 20
4078.2569482871
 10
7833.4901880975
 20
4080.1647055883
 10
7832.593054834
 20
4082.062448283
 10
7831.6630372739
 20
4083.9497967039
 10
7830.7003144809
 20
4085.826372774
 10
7829.7050723582
 20
4087.6918001146
 10
7828.6775036411
 20
4089.5457041551
 10
7827.617807884
 20
4091.3877122446
 10
7826.526191443
 20
4093.2174537649
 10
7825.4028674526
 20
4095.0345602439
 10
7824.2480557969
 20
4096.8386654693
 10
7823.0619830768
 20
4098.6294056027
 10
7821.8448825706
 20
4100.4064192926
 10
7820.5969941909
 20
4102.1693477871
 10
7819.3185644361
 20
4103.9178350455
 10
7818.0098463371
 20
4105.6515278476
 10
7816.6710994002
 20
4107.3700759024
 10
7815.3025895452
 20
4109.0731319539
 10
7813.90458904
 20
4110.760351885
 10
7812.4773764311
 20
4112.4313948189
 10
7811.0212364713
 20
4114.0859232175
 10
7809.5364600433
 20
4115.7236029778
 10
7808.0233440811
 20
4117.3441035242
 10
7806.4821914886
 20
4118.9470978989
 10
7804.913311056
 20
4120.5322628485
 10
7803.3170173732
 20
4122.0992789078
 10
7801.6936307427
 20
4123.6478304802
 10
7800.0434770898
 20
4125.1776059152
 10
7798.3668878717
 20
4126.6882975825
 10
7796.6641999856
 20
4128.1796019434
 10
7794.9357556756
 20
4129.6512196184
 10
7793.1819024388
 20
4131.1028554529
 10
7791.4029929308
 20
4132.5342185787
 10
7789.599384871
 20
4133.9450224742
 10
7787.7714409471
 20
4135.3349850202
 10
7785.9195287194
 20
4136.7038285547
 10
7784.0440205257
 20
4138.0512799238
 10
7782.1452933855
 20
4139.3770705313
 10
7780.2237289044
 20
4140.6809363851
 10
7778.2797131792
 20
4141.9626181423
 10
7776.3136367024
 20
4143.2218611513
 10
7774.3258942677
 20
4144.4584154928
 10
7772.3168848757
 20
4145.6720360184
 10
7770.2870116395
 20
4146.8624823876
 10
7768.2366816911
 20
4148.0295191035
 10
7766.1663060884
 20
4149.172915546
 10
7764.0762997219
 20
4150.2924460049
 10
7761.9670812223
 20
4151.3878897104
 10
7759.8390728686
 20
4152.4590308632
 10
7757.6927004963
 20
4153.5056586628
 10
7755.5283934058
 20
4154.5275673351
 10
7753.3465842719
 20
4155.5245561585
 10
7751.1477090526
 20
4156.4964294896
 10
7748.9322068993
 20
4157.442996787
 10
7746.7005200663
 20
4158.3640726356
 10
7744.4530938212
 20
4159.2594767684
 10
7742.1903763553
 20
4160.1290340889
 10
7739.9128186945
 20
4160.972574692
 10
7737.6208746097
 20
4161.789933884
 10
7735.3150005279
 20
4162.5809522026
 10
7732.9956554438
 20
4163.3454754355
 10
7730.6633008304
 20
4164.0833546388
 10
7728.3184005505
 20
4164.7944461544
 10
7725.9614207683
 20
4165.4786116267
 10
7723.5928298607
 20
4166.1357180194
 10
7721.2130983286
 20
4166.7656376307
 10
7718.8226987083
 20
4167.3682481083
 10
7716.4221054833
 20
4167.9434324641
 10
7714.0117949953
 20
4168.4910790876
 10
7711.5922453558
 20
4169.0110817592
 10
7709.1639363572
 20
4169.5033396629
 10
7706.7273493843
 20
4169.967757398
 10
7704.2829673252
 20
4170.4042449902
 10
7701.8312744826
 20
4170.8127179028
 10
7699.3727564851
 20
4171.1930970462
 10
7696.9079001974
 20
4171.5453087873
 10
7694.4371937269
 20
4171.8692849467
 10
7691.9611261643
 20
4172.1649628312
 10
7689.4801875187
 20
4172.4322852347
 10
7686.9948686811
 20
4172.6712004367
 10
7684.5056613352
 20
4172.8816622091
 10
7682.0130578682
 20
4173.0636298212
 10
7679.5175512811
 20
4173.2170680451
 10
7677.0196350989
 20
4173.3419471595
 10
7674.5198032818
 20
4173.4382429531
 10
7672.0185501346
 20
4173.5059367278
 10
7669.5163702179
 20
4173.5450153006
 10
7667.0137582577
 20
4173.5554710048
 10
7664.5112090566
 20
4173.537301691
 10
7662.0092174521
 20
4173.4905107279
 10
7659.5082781562
 20
4173.4151070026
 10
7657.0088856569
 20
4173.3111049163
 10
7654.5115341569
 20
4173.1785243834
 10
7652.016717484
 20
4173.0173908274
 10
7649.524929002
 20
4172.8277351779
 10
7647.0366615207
 20
4172.6095938662
 10
7644.5524072074
 20
4172.3630088199
 10
7642.072657497
 20
4172.0880274576
 10
7639.5979030032
 20
4171.7847026823
 10
7637.1286334296
 20
4171.4530928742
 10
7634.6653374807
 20
4171.0932618834
 10
7632.2085027731
 20
4170.7052790211
 10
7629.7586158456
 20
4170.2892190683
 10
7627.3161619672
 20
4169.8451622522
 10
7624.8816249976
 20
4169.3731942259
 10
7622.4554873572
 20
4168.8734060663
 10
7620.0382299387
 20
4168.3458942626
 10
7617.6303320194
 20
4167.7907607047
 10
7615.2322711727
 20
4167.2081126704
 10
7612.8445231808
 20
4166.5980628121
 10
7610.4675619469
 20
4165.9607291434
 10
7608.1018594075
 20
4165.2962350248
 10
7605.7478854448
 20
4164.6047091483
 10
7603.4061077995
 20
4163.8862855227
 10
7601.0769919833
 20
4163.1411034569
 10
7598.7610011916
 20
4162.3693075439
 10
7596.4585962162
 20
4161.5710476432
 10
7594.1702353579
 20
4160.7464788635
 10
7591.8963743394
 20
4159.8957615441
 10
7589.6374662178
 20
4159.019061236
 10
7587.3939612974
 20
4158.1165486828
 10
7585.1663070417
 20
4157.1883998003
 10
7582.9549479864
 20
4156.2347956558
 10
7580.7603256513
 20
4155.2559224469
 10
7578.5828784521
 20
4154.2519714793
 10
7576.4230416128
 20
4153.2231391442
 10
7574.2812470769
 20
4152.1696268945
 10
7572.1579234189
 20
4151.0916412208
 10
7570.053495755
 20
4149.9893936262
 10
7567.9683856544
 20
4148.8631006003
 10
7565.9030110491
 20
4147.7129835919
 10
7563.8577861439
 20
4146.5392689817
 10
7561.8331213262
 20
4145.3421880524
 10
7559.8294230751
 20
4144.1219769593
 10
7557.8470938699
 20
4142.8788766984
 10
7555.8865320983
 20
4141.6131330735
 10
7553.9481319644
 20
4140.3249966625
 10
7552.0322833961
 20
4139.0147227814
 10
7550.1393719515
 20
4137.682571447
 10
7548.269778726
 20
4136.3288073379
 10
7546.423880258
 20
4134.9536997535
 10
7544.6020484345
 20
4133.5575225716
 10
7542.804650397
 20
4132.1405542029
 10
7541.0320484462
 20
4130.703077544
 10
7539.2845999469
 20
4129.2453799284
 10
7537.5626572336
 20
4127.7677530742
 10
7535.8665675144
 20
4126.2704930296
 10
7534.1966727768
 20
4124.7539001161
 10
7532.5533096924
 20
4123.2182788681
 10
7530.936809523
 20
4121.6639379704
 10
7529.3474980263
 20
4120.0911901922
 10
7527.7856953633
 20
4118.500352318
 10
7526.2517160059
 20
4116.8917450754
 10
7524.745868646
 20
4115.26569306
 10
7523.2684561056
 20
4113.6225246562
 10
7521.819775249
 20
4111.9625719552
 10
7520.4001168962
 20
4110.2861706699
 10
7519.0097657391
 20
4108.5936600457
 10
7517.6490002596
 20
4106.8853827684
 10
7516.3180926501
 20
4105.1616848692
 10
7515.0173087376
 20
4103.4229156255
 10
7513.7469079106
 20
4101.6694274598
 10
7512.5071430491
 20
4099.901575835
 10
7511.2982604591
 20
4098.1197191468
 10
7510.1204998109
 20
4096.3242186142
 10
7508.9740940811
 20
4094.5154381669
 10
7507.8592694997
 20
4092.6937443315
 10
7506.7762455018
 20
4090.859506115
 10
7505.7252346844
 20
4089.0130948877
 10
7504.706442768
 20
4087.1548842644
 10
7503.7200685635
 20
4085.2852499854
 10
7502.7663039446
 20
4083.4045697964
 10
7501.8453338261
 20
4081.5132233295
 10
7500.9573361465
 20
4079.6115919839
 10
7500.1024818574
 20
4077.7000588083
 10
7499.2809349175
 20
4075.7790083834
 10
7498.4928522918
 20
4073.8488267081
 10
7497.7383839573
 20
4071.9099010864
 10
7497.0176729115
 20
4069.9626200178
 10
7496.330855188
 20
4068.0073730907
 10
7495.6780598745
 20
4066.0445508795
 10
7495.0594091363
 20
4064.0745448447
 10
7494.4750182432
 20
4062.0977472389
 10
7493.924995599
 20
4060.1145510156
 10
7493.4094427752
 20
4058.1253497439
 10
7492.9284545456
 20
4056.1305375278
 10
7492.4821189242
 20
4054.1305089307
 10
7492.0705172033
 20
4052.1256589047
 10
7491.693723993
 20
4050.1163827265
 10
7491.3518072608
 20
4048.1030759368
 10
7491.0448283712
 20
4046.0861342861
 10
7490.7728421239
 20
4044.0659536855
 10
7490.5358967907
 20
4042.0429301617
 10
7490.3340341516
 20
4040.0174598171
 10
7490.1672895268
 20
4037.9899387943
 10
7490.0356918074
 20
4035.9607632439
 10
7489.9392634823
 20
4033.9303292968
 10
7489.8780206611
 20
4031.8990330386
 10
7489.8645891963
 20
4030.8513517868
  0
LINE
  5
8E
330
1F
100
AcDbEntity
  8
0
  6
Continuous
 62
     7
370
    25
100
AcDbLine
 10
7489.8509592446
 20
4029.3795944747
 30
0.0
 11
7489.8509592446
 21
3878.7398448636
 31
0.0
  0
LINE
  5
8F
330
1F
100
AcDbEntity
  8
0
  6
Continuous
 62
     7
370
    25
100
AcDbLine
 10
7844.8509592446
 20
3878.7398448636
 30
0.0
 11
7844.8509592446
 21
4029.3795944747
 31
0.0
  0
LWPOLYLINE
  5
90
330
1F
100
AcDbEntity
  8
0
  6
Continuous
 62
     7
370
    25
100
AcDbPolyline
 90
      203
 70
   128
 43
0.0
 10
7812.3509592446
 20
4029.3795944747
 10
7812.3463341167
 20
4028.453872574
 10
7812.310692196
 20
4026.6483085972
 10
7812.2398606579
 20
4024.8433751994
 10
7812.1338571346
 20
4023.0395366499
 10
7811.992708861
 20
4021.2372428259
 10
7811.81645278
 20
4019.4369429538
 10
7811.6051354911
 20
4017.639085364
 10
7811.3588131828
 20
4015.844117252
 10
7811.0775515498
 20
4014.0524844486
 10
7810.7614256956
 20
4012.2646312009
 10
7810.4105200233
 20
4010.480999965
 10
7810.0249281146
 20
4008.7020312125
 10
7809.6047526004
 20
4006.9281632506
 10
7809.1501050237
 20
4005.1598320578
 10
7808.6611056964
 20
4003.3974711345
 10
7808.137883553
 20
4001.6415113691
 10
7807.5805760018
 20
3999.8923809194
 10
7806.9893287757
 20
3998.1505051093
 10
7806.3642957845
 20
3996.4163063391
 10
7805.7056389693
 20
3994.6902040098
 10
7805.0135281611
 20
3992.9726144602
 10
7804.2881409445
 20
3991.2639509144
 10
7803.5296625266
 20
3989.5646234413
 10
7802.7382856135
 20
3987.8750389211
 10
7801.914210293
 20
3986.1956010214
 10
7801.0576439257
 20
3984.5267101781
 10
7800.1688010438
 20
3982.8687635825
 10
7799.2479032568
 20
3981.2221551713
 10
7798.2951791667
 20
3979.5872756199
 10
7797.3108642892
 20
3977.9645123367
 10
7796.2952009829
 20
3976.3542494574
 10
7795.2484383857
 20
3974.7568678396
 10
7794.1708323565
 20
3973.1727450549
 10
7793.0626454235
 20
3971.6022553794
 10
7791.9241467377
 20
3970.0457697807
 10
7790.7556120301
 20
3968.503655902
 10
7789.557323574
 20
3966.9762780416
 10
7788.3295701489
 20
3965.4639971287
 10
7787.0726470086
 20
3963.9671706944
 10
7785.7868558498
 20
3962.4861528377
 10
7784.4725047826
 20
3961.0212941871
 10
7783.1299083015
 20
3959.5729418576
 10
7781.7593872559
 20
3958.1414394022
 10
7780.3612688214
 20
3956.7271267594
 10
7778.9358864683
 20
3955.3303401959
 10
7777.4835799301
 20
3953.9514122454
 10
7776.0046951695
 20
3952.5906716432
 10
7774.4995843419
 20
3951.2484432567
 10
7772.9686057573
 20
3949.9250480129
 10
7771.4121238383
 20
3948.6208028229
 10
7769.8305090755
 20
3947.3360205031
 10
7768.2241379799
 20
3946.0710096941
 10
7766.593393031
 20
3944.8260747776
 10
7764.9386626227
 20
3943.6015157913
 10
7763.2603410042
 20
3942.3976283423
 10
7761.5588282179
 20
3941.2147035191
 10
7759.8345300334
 20
3940.0530278035
 10
7758.0878578781
 20
3938.9128829807
 10
7756.3192287633
 20
3937.79454605
 10
7754.5290652074
 20
3936.698289135
 10
7752.717795155
 20
3935.6243793942
 10
7750.8858518922
 20
3934.5730789318
 10
7749.0336739594
 20
3933.5446447097
 10
7747.1617050594
 20
3932.539328459
 10
7745.270393963
 20
3931.5573765944
 10
7743.3601944112
 20
3930.5990301284
 10
7741.4315650143
 20
3929.6645245871
 10
7739.4849691479
 20
3928.7540899282
 10
7737.5208748459
 20
3927.8679504596
 10
7735.5397546916
 20
3927.0063247608
 10
7733.542085705
 20
3926.1694256052
 10
7731.5283492284
 20
3925.357459885
 10
7729.4990308091
 20
3924.5706285377
 10
7727.4546200806
 20
3923.8091264753
 10
7725.3956106408
 20
3923.0731425146
 10
7723.3224999287
 20
3922.3628593112
 10
7721.2357890987
 20
3921.678453294
 10
7719.135982894
 20
3921.0200946037
 10
7717.0235895174
 20
3920.3879470324
 10
7714.8991205006
 20
3919.7821679663
 10
7712.7630905729
 20
3919.2029083302
 10
7710.6160175269
 20
3918.6503125347
 10
7708.4584220848
 20
3918.1245184259
 10
7706.2908277617
 20
3917.6256572375
 10
7704.1137607292
 20
3917.1538535449
 10
7701.9277496767
 20
3916.7092252221
 10
7699.7333256728
 20
3916.2918834012
 10
7697.5310220251
 20
3915.9019324337
 10
7695.3213742728
 20
3915.5394698756
 10
7693.1049198821
 20
3915.2045864222
 10
7690.882197976
 20
3914.8973658613
 10
7688.6537493529
 20
3914.6178850747
 10
7686.4201163426
 20
3914.3662140107
 10
7684.1818426627
 20
3914.1424156606
 10
7681.9394732745
 20
3913.9465460365
 10
7679.6935542375
 20
3913.778654152
 10
7677.4446325647
 20
3913.6387820049
 10
7675.1932560771
 20
3913.5269645627
 10
7672.9399732574
 20
3913.4432297501
 10
7670.6853331047
 20
3913.3875984391
 10
7668.4298849877
 20
3913.3600844411
 10
7666.1741784984
 20
3913.3606945017
 10
7663.9187633092
 20
3913.3894282977
 10
7661.6641891635
 20
3913.4462784318
 10
7659.4110054402
 20
3913.5312304382
 10
7657.1597611511
 20
3913.644262788
 10
7654.911004795
 20
3913.7853468955
 10
7652.6652842109
 20
3913.9544471276
 10
7650.4231464322
 20
3914.1515208146
 10
7648.1851375407
 20
3914.3765182645
 10
7645.9518025215
 20
3914.6293827787
 10
7643.7236851168
 20
3914.9100506705
 10
7641.501327682
 20
3915.2184512861
 10
7639.2852710406
 20
3915.5545070276
 10
7637.0760543404
 20
3915.9181333788
 10
7634.8742149098
 20
3916.3092389328
 10
7632.6802881152
 20
3916.7277254232
 10
7630.4948073919
 20
3917.1734877195
 10
7628.3183039366
 20
3917.6464138888
 10
7626.1513064408
 20
3918.146385262
 10
7623.994341072
 20
3918.6732764518
 10
7621.8479313344
 20
3919.2269553951
 10
7619.7125979304
 20
3919.8072833976
 10
7617.5888586233
 20
3920.4141151812
 10
7615.477228101
 20
3921.047298934
 10
7613.3782178414
 20
3921.7066763623
 10
7611.2923359779
 20
3922.3920827455
 10
7609.220087168
 20
3923.1033469934
 10
7607.1619724614
 20
3923.8402917056
 10
7605.1184891717
 20
3924.6027332341
 10
7603.0901307477
 20
3925.3904817472
 10
7601.0773866485
 20
3926.203341297
 10
7599.0807422189
 20
3927.0411098887
 10
7597.1006785674
 20
3927.9035795519
 10
7595.137672447
 20
3928.7905364151
 10
7593.1921961368
 20
3929.7017607815
 10
7591.2647173272
 20
3930.6370272076
 10
7589.3556990072
 20
3931.5961045838
 10
7587.4655993541
 20
3932.5787562168
 10
7585.5948716262
 20
3933.5847399144
 10
7583.7439640585
 20
3934.6138080715
 10
7581.9133197608
 20
3935.6657077584
 10
7580.10337662
 20
3936.7401808104
 10
7578.3145672048
 20
3937.836963919
 10
7576.5473186737
 20
3938.9557887241
 10
7574.8020526874
 20
3940.0963819076
 10
7573.0791853242
 20
3941.258465288
 10
7571.3791269988
 20
3942.4417559152
 10
7569.7022823857
 20
3943.6459661662
 10
7568.0490503459
 20
3944.8708038409
 10
7566.4198238579
 20
3946.1159722579
 10
7564.8149899524
 20
3947.3811703501
 10
7563.2349296511
 20
3948.6660927592
 10
7561.6800179099
 20
3949.9704299298
 10
7560.1506235651
 20
3951.293868202
 10
7558.6471092852
 20
3952.6360899029
 10
7557.1698315245
 20
3953.9967734351
 10
7555.7191404822
 20
3955.3755933639
 10
7554.2953800643
 20
3956.7722205015
 10
7552.898887849
 20
3958.1863219884
 10
7551.5299950552
 20
3959.6175613706
 10
7550.1890265139
 20
3961.0655986746
 10
7548.8763006427
 20
3962.5300904766
 10
7547.5921294215
 20
3964.0106899688
 10
7546.3368183709
 20
3965.5070470202
 10
7545.1106665317
 20
3967.0188082327
 10
7543.9139664446
 20
3968.5456169921
 10
7542.7470041311
 20
3970.0871135136
 10
7541.6100590736
 20
3971.6429348823
 10
7540.5034041943
 20
3973.2127150879
 10
7539.4273058329
 20
3974.796085054
 10
7538.3820237219
 20
3976.3926726621
 10
7537.3678109586
 20
3978.0021027703
 10
7536.3849139736
 20
3979.6239972277
 10
7535.4335724948
 20
3981.2579748839
 10
7534.5140195061
 20
3982.9036515944
 10
7533.6264812002
 20
3984.5606402236
 10
7532.7711769256
 20
3986.2285506439
 10
7531.9483191252
 20
3987.9069897345
 10
7531.1581132691
 20
3989.5955613783
 10
7530.4007577776
 20
3991.29386646
 10
7529.6764439378
 20
3993.0015028649
 10
7528.9853558102
 20
3994.7180654811
 10
7528.3276701281
 20
3996.4431462055
 10
7527.7035561881
 20
3998.176333955
 10
7527.1131757326
 20
3999.9172146847
 10
7526.5566828252
 20
4001.6653714146
 10
7526.0342237191
 20
4003.4203842654
 10
7525.5459367196
 20
4005.1818305054
 10
7525.0919520413
 20
4006.9492846097
 10
7524.6723916623
 20
4008.7223183323
 10
7524.2873691756
 20
4010.5005007927
 10
7523.9369896402
 20
4012.2833985774
 10
7523.6213494322
 20
4014.0705758571
 10
7523.3405360995
 20
4015.8615945195
 10
7523.0946282207
 20
4017.6560143181
 10
7522.8836952701
 20
4019.4533930373
 10
7522.7077974909
 20
4021.2532866723
 10
7522.5669857786
 20
4023.0552496235
 10
7522.4613015758
 20
4024.8588349048
 10
7522.3907767806
 20
4026.6635943639
 10
7522.3613869235
 20
4028.1649599995
  0
LWPOLYLINE
  5
91
330
1F
100
AcDbEntity
  8
0
  6
Continuous
 62
     7
370
    25
100
AcDbPolyline
 90
       36
 70
   128
 43
0.0
 10
7650.8538305117
 20
4114.2516974637
 10
7650.8518972203
 20
4114.1549896522
 10
7650.877606702
 20
4113.6804293408
 10
7650.9383483523
 20
4113.2078001559
 10
7651.0339407721
 20
4112.7379326895
 10
7651.1642327502
 20
4112.2715788249
 10
7651.3290883667
 20
4111.8095114484
 10
7651.5283610845
 20
4111.3525506996
 10
7651.7618596536
 20
4110.9015812402
 10
7652.0293113857
 20
4110.4575577837
 10
7652.3303290394
 20
4110.0214979535
 10
7652.6643869262
 20
4109.5944638694
 10
7653.0308098046
 20
4109.177536087
 10
7653.4287752044
 20
4108.7717848494
 10
7653.8573269573
 20
4108.3782436054
 10
7654.3153958273
 20
4107.9978884572
 10
7654.8018226646
 20
4107.6316252491
 10
7655.3153802667
 20
4107.2802841081
 10
7655.8547915485
 20
4106.9446199573
 10
7656.41874308
 20
4106.6253169825
 10
7657.0058508646
 20
4106.3230163591
 10
7657.6147527867
 20
4106.0382746156
 10
7658.24407705
 20
4105.7715945543
 10
7658.8924331189
 20
4105.5234360364
 10
7659.5584115247
 20
4105.2942198412
 10
7660.2405835179
 20
4105.0843303514
 10
7660.937500886
 20
4104.8941172529
 10
7661.6476961156
 20
4104.7238964592
 10
7662.3696829802
 20
4104.5739504652
 10
7663.1019575722
 20
4104.4445283061
 10
7663.8429997576
 20
4104.3358452691
 10
7664.591275011
 20
4104.2480824727
 10
7665.3452365798
 20
4104.1813864054
 10
7666.1033279177
 20
4104.1358684896
 10
7666.8639853355
 20
4104.111604722
 10
7667.3509592446
 20
4104.1072501928
  0
LWPOLYLINE
  5
92
330
1F
100
AcDbEntity
  8
0
  6
Continuous
 62
     7
370
    25
100
AcDbPolyline
 90
       36
 70
   128
 43
0.0
 10
7667.3509592446
 20
4104.1072501928
 10
7667.7543621028
 20
4104.1102381701
 10
7668.5151444319
 20
4104.1321635737
 10
7669.2735537239
 20
4104.1753473375
 10
7670.0279784137
 20
4104.23971441
 10
7670.776864961
 20
4104.325155405
 10
7671.5186709754
 20
4104.4315264315
 10
7672.2518679071
 20
4104.5586498017
 10
7672.974943543
 20
4104.7063148601
 10
7673.6864042391
 20
4104.8742788971
 10
7674.3847768227
 20
4105.0622680944
 10
7675.0686100966
 20
4105.2699784292
 10
7675.7364758772
 20
4105.4970764332
 10
7676.3869695035
 20
4105.7431996703
 10
7677.0187097724
 20
4106.0079567497
 10
7677.6303382874
 20
4106.2909266452
 10
7678.2205182688
 20
4106.5916570373
 10
7678.7879329696
 20
4106.9096613486
 10
7679.3312839855
 20
4107.2444141278
 10
7679.8492866777
 20
4107.5953421393
 10
7680.340624332
 20
4107.9617786839
 10
7680.804046155
 20
4108.3430154872
 10
7681.2383296043
 20
4108.7382648524
 10
7681.6422924586
 20
4109.146648613
 10
7682.0148107978
 20
4109.5671899223
 10
7682.3548427014
 20
4109.9988107053
 10
7682.6614559525
 20
4110.4403376424
 10
7682.9338562078
 20
4110.8905186529
 10
7683.1714106008
 20
4111.3480499048
 10
7683.3736613834
 20
4111.8116107743
 10
7683.5403255136
 20
4112.2799017913
 10
7683.6712788973
 20
4112.7516794148
 10
7683.7665274016
 20
4113.2257820382
 10
7683.8261695544
 20
4113.7011436401
 10
7683.8503572066
 20
4114.1767940876
 10
7683.8476147651
 20
4114.2941961784
  0
LINE
  5
93
330
1F
100
AcDbEntity
  8
0
  6
Continuous
 62
     7
370
    25
100
AcDbLine
 10
7683.8509592446
 20
4114.2646473264
 30
0.0
 11
7683.8509592446
 21
4121.9775624696
 31
0.0
  0
LINE
  5
94
330
1F
100
AcDbEntity
  8
0
  6
Continuous
 62
     7
370
    25
100
AcDbLine
 10
7650.8509592446
 20
4121.9763735128
 30
0.0
 11
7650.8509592446
 21
4114.2646473264
 31
0.0
  0
ARC
  5
95
330
1F
100
AcDbEntity
  8
0
  6
Continuous
 62
     7
370
    25
100
AcDbCircle
 10
7588.9133866245
 20
3733.5341655481
 30
0.0
 40
1.395836338676128
100
AcDbArc
 50
310.3537220951
 51
34.3271778744
  0
LWPOLYLINE
  5
96
330
1F
100
AcDbEntity
  8
0
  6
Continuous
 62
     7
370
    25
100
AcDbPolyline
 90
       27
 70
   128
 43
0.0
 10
7583.5256734919
 20
3736.4075774457
 10
7583.5751612227
 20
3736.6033806016
 10
7583.6617967486
 20
3736.7920080616
 10
7583.7827607378
 20
3736.9595692301
 10
7583.936770942
 20
3737.104287917
 10
7584.1221948146
 20
3737.2246300682
 10
7584.3370668164
 20
3737.3193200269
 10
7584.5791092509
 20
3737.387354056
 10
7584.8457564079
 20
3737.428010978
 10
7585.1341817613
 20
3737.4408598193
 10
7585.4413279306
 20
3737.4257643789
 10
7585.76393909
 20
3737.3828846724
 10
7586.0985954809
 20
3737.3126752353
 10
7586.4417496623
 20
3737.215880305
 10
7586.7897641146
 20
3737.093525932
 10
7587.138949798
 20
3736.9469091029
 10
7587.4856052573
 20
3736.7775839928
 10
7587.8260558585
 20
3736.5873454898
 10
7588.1566927404
 20
3736.3782101694
 10
7588.47401107
 20
3736.152394918
 10
7588.7746471939
 20
3735.9122934336
 10
7589.0554142945
 20
3735.6604508515
 10
7589.3133361706
 20
3735.3995367658
 10
7589.5456787862
 20
3735.1323169306
 10
7589.7499792517
 20
3734.8616239428
 10
7589.9240719315
 20
3734.5903272153
 10
7590.0661113998
 20
3734.3213025609
  0
ARC
  5
97
330
1F
100
AcDbEntity
  8
0
  6
Continuous
 62
     7
370
    25
100
AcDbCircle
 10
7584.8774577296
 20
3731.5100421359
 30
0.0
 40
3.031690387688201
100
AcDbArc
 50
28.8336546417
 51
64.563405025
  0
ARC
  5
98
330
1F
100
AcDbEntity
  8
0
  6
Continuous
 62
     7
370
    25
100
AcDbCircle
 10
7585.0742877037
 20
3732.4526657439
 30
0.0
 40
2.108172527572404
100
AcDbArc
 50
58.3787855462
 51
104.2593414408
  0
ARC
  5
99
330
1F
100
AcDbEntity
  8
0
  6
Continuous
 62
     7
370
    25
100
AcDbCircle
 10
7584.8466830441
 20
3733.8694629183
 30
0.0
 40
0.6909949414746056
100
AcDbArc
 50
114.9666108763
 51
215.4983134684
  0
ARC
  5
9A
330
1F
100
AcDbEntity
  8
0
  6
Continuous
 62
     7
370
    25
100
AcDbCircle
 10
7586.9399537171
 20
3734.9303049018
 30
0.0
 40
3.031690387689592
100
AcDbArc
 50
208.8336546418
 51
244.5634050251
  0
ARC
  5
9B
330
1F
100
AcDbEntity
  8
0
  6
Continuous
 62
     7
370
    25
100
AcDbCircle
 10
7586.743123743
 20
3733.9876812938
 30
0.0
 40
2.108172527569907
100
AcDbArc
 50
238.3787855461
 51
284.2593414408
  0
ARC
  5
9C
330
1F
100
AcDbEntity
  8
0
  6
Continuous
 62
     7
370
    25
100
AcDbCircle
 10
7586.9707284026
 20
3732.5708841194
 30
0.0
 40
0.6909949414728607
100
AcDbArc
 50
294.9666108761
 51
35.4983134684
  0
ARC
  5
9D
330
1F
100
AcDbEntity
  8
0
  6
Continuous
 62
     7
370
    25
100
AcDbCircle
 10
7587.4796690435
 20
3734.2936435618
 30
0.0
 40
1.094110886782945
100
AcDbArc
 50
197.9051890846
 51
255.4918705823
  0
ARC
  5
9E
330
1F
100
AcDbEntity
  8
0
  6
Continuous
 62
     7
370
    25
100
AcDbCircle
 10
7586.0035018339
 20
3733.8302449956
 30
0.0
 40
0.453212150581112
100
AcDbArc
 50
16.2763570849
 51
67.1346314747
  0
ARC
  5
9F
330
1F
100
AcDbEntity
  8
0
  6
Continuous
 62
     7
370
    25
100
AcDbCircle
 10
7587.0411697744
 20
3732.6931343583
 30
0.0
 40
0.5657039934997168
100
AcDbArc
 50
29.5500547428
 51
73.1048587895
  0
ARC
  5
A0
330
1F
100
AcDbEntity
  8
0
  6
Continuous
 62
     7
370
    25
100
AcDbCircle
 10
7586.0047850665
 20
3734.0141752677
 30
0.0
 40
0.2918271913175658
100
AcDbArc
 50
53.1978626471
 51
122.6793631711
  0
LWPOLYLINE
  5
A1
330
1F
100
AcDbEntity
  8
0
  6
Continuous
 62
     7
370
    25
100
AcDbPolyline
 90
        9
 70
   128
 43
0.0
 10
7585.847216713
 20
3734.2598077646
 10
7585.7820062569
 20
3734.2060996864
 10
7585.6936929236
 20
3734.172146179
 10
7585.5858999248
 20
3734.1593402455
 10
7585.4630496604
 20
3734.1682072721
 10
7585.3301822812
 20
3734.1983834732
 10
7585.1927489083
 20
3734.2486308166
 10
7585.0563879906
 20
3734.3168878153
 10
7584.9266939777
 20
3734.4003541044
  0
ARC
  5
A2
330
1F
100
AcDbEntity
  8
0
  6
Continuous
 62
     7
370
    25
100
AcDbCircle
 10
7584.6436551739
 20
3734.0699530825
 30
0.0
 40
0.435058386525945
100
AcDbArc
 50
49.414911215
 51
101.7551331488
  0
LWPOLYLINE
  5
A3
330
1F
100
AcDbEntity
  8
0
  6
Continuous
 62
     7
370
    25
100
AcDbPolyline
 90
        9
 70
   128
 43
0.0
 10
7586.4659693816
 20
3732.9727868669
 10
7586.5311798376
 20
3733.0264949451
 10
7586.619493171
 20
3733.0604484526
 10
7586.7272861698
 20
3733.0732543861
 10
7586.8501364342
 20
3733.0643873595
 10
7586.9830038133
 20
3733.0342111583
 10
7587.1204371863
 20
3732.983963815
 10
7587.256798104
 20
3732.9157068163
 10
7587.3061605107
 20
3732.886235136
  0
LWPOLYLINE
  5
A4
330
1F
100
AcDbEntity
  8
0
  6
Continuous
 62
     7
370
    25
100
AcDbPolyline
 90
        3
 70
   128
 43
0.0
 10
7586.3754842525
 20
3732.9292803179
 10
7586.41175087
 20
3732.9374803855
 10
7586.4659693816
 20
3732.9727868669
  0
ARC
  5
A5
330
1F
100
AcDbEntity
  8
0
  6
Continuous
 62
     7
370
    25
100
AcDbCircle
 10
7584.6710390143
 20
3732.6734518357
 30
0.0
 40
1.394805105667581
100
AcDbArc
 50
49.3385068414
 51
71.7599766316
  0
ARC
  5
A6
330
1F
100
AcDbEntity
  8
0
  6
Continuous
 62
     7
370
    25
100
AcDbCircle
 10
7585.3051893698
 20
3734.5976852468
 30
0.0
 40
0.63123065263266
100
AcDbArc
 50
227.0560684884
 51
251.7595624927
  0
ARC
  5
A7
330
1F
100
AcDbEntity
  8
0
  6
Continuous
 62
     7
370
    25
100
AcDbCircle
 10
7587.4307912841
 20
3732.9012724636
 30
0.0
 40
0.1246066302564152
100
AcDbArc
 50
265.2908878334
 51
34.6563304753
  0
LWPOLYLINE
  5
A8
330
1F
100
AcDbEntity
  8
0
  6
Continuous
 62
     7
370
    25
100
AcDbPolyline
 90
        9
 70
   128
 43
0.0
 10
7587.267064275
 20
3732.1947873218
 10
7587.1946314024
 20
3732.3018055664
 10
7587.1472846722
 20
3732.4066747975
 10
7587.1269665683
 20
3732.5050925682
 10
7587.1345106773
 20
3732.593021114
 10
7587.1696074885
 20
3732.6668530097
 10
7587.2308170928
 20
3732.7235591703
 10
7587.3156282571
 20
3732.7608131246
 10
7587.4205614523
 20
3732.7770864626
  0
LWPOLYLINE
  5
A9
330
1F
100
AcDbEntity
  8
0
  6
Continuous
 62
     7
370
    25
100
AcDbPolyline
 90
        9
 70
   128
 43
0.0
 10
7587.2623904844
 20
3731.9444599506
 10
7587.2912127694
 20
3731.960817535
 10
7587.3125815925
 20
3731.9829898233
 10
7587.3259030988
 20
3732.0103606315
 10
7587.3308070741
 20
3732.0421693054
 10
7587.3271572335
 20
3732.0775318592
 10
7587.3150550087
 20
3732.1154655421
 10
7587.294836729
 20
3732.1549161498
 10
7587.267064275
 20
3732.1947873218
  0
LWPOLYLINE
  5
AA
330
1F
100
AcDbEntity
  8
0
  6
Continuous
 62
     7
370
    25
100
AcDbPolyline
 90
        9
 70
   128
 43
0.0
 10
7584.5550209623
 20
3734.4958870871
 10
7584.5261986773
 20
3734.4795295027
 10
7584.5048298542
 20
3734.4573572144
 10
7584.4915083479
 20
3734.4299864062
 10
7584.4866043725
 20
3734.3981777322
 10
7584.4902542132
 20
3734.3628151785
 10
7584.502356438
 20
3734.3248814956
 10
7584.5225747177
 20
3734.2854308879
 10
7584.5503471717
 20
3734.2455597159
  0
LWPOLYLINE
  5
AB
330
1F
100
AcDbEntity
  8
0
  6
Continuous
 62
     7
370
    25
100
AcDbPolyline
 90
       24
 70
   128
 43
0.0
 10
7585.4504896683
 20
3733.2901344084
 10
7585.5150530313
 20
3733.1863423923
 10
7585.6088118137
 20
3733.0850594761
 10
7585.7248123555
 20
3732.9937973504
 10
7585.8544514271
 20
3732.9193245095
 10
7585.9881142916
 20
3732.8671642633
 10
7586.1158877859
 20
3732.8411850987
 10
7586.2282955345
 20
3732.8433137715
 10
7586.3170007687
 20
3732.8733924077
 10
7586.3754246273
 20
3732.9291902125
 10
7586.3992340798
 20
3733.0065689179
 10
7586.3866632882
 20
3733.0997896995
 10
7586.3386445705
 20
3733.2019387982
 10
7586.2587392554
 20
3733.3054402827
 10
7586.1528735544
 20
3733.4026179214
 10
7586.0288990425
 20
3733.4862644934
 10
7585.8960103419
 20
3733.5501763151
 10
7585.7640631996
 20
3733.5896133391
 10
7585.6428435317
 20
3733.6016507017
 10
7585.5413416463
 20
3733.5853956467
 10
7585.4670854739
 20
3733.5420537373
 10
7585.4255822551
 20
3733.4748394447
 10
7585.4199100938
 20
3733.3887377453
 10
7585.4504896683
 20
3733.2901344084
  0
LWPOLYLINE
  5
AC
330
1F
100
AcDbEntity
  8
0
  6
Continuous
 62
     7
370
    25
100
AcDbPolyline
 90
        9
 70
   128
 43
0.0
 10
7584.5503471717
 20
3734.2455597159
 10
7584.6227800443
 20
3734.1385414713
 10
7584.6701267745
 20
3734.0336722402
 10
7584.6904448784
 20
3733.9352544695
 10
7584.6829007694
 20
3733.8473259237
 10
7584.6478039582
 20
3733.773494028
 10
7584.5865943539
 20
3733.7167878674
 10
7584.5017831896
 20
3733.6795339131
 10
7584.3968499944
 20
3733.6632605751
  0
ARC
  5
AD
330
1F
100
AcDbEntity
  8
0
  6
Continuous
 62
     7
370
    25
100
AcDbCircle
 10
7584.3866201626
 20
3733.5390745741
 30
0.0
 40
0.1246066302571633
100
AcDbArc
 50
85.2908878335
 51
214.6563304751
  0
ARC
  5
AE
330
1F
100
AcDbEntity
  8
0
  6
Continuous
 62
     7
370
    25
100
AcDbCircle
 10
7587.1737562728
 20
3732.3703939552
 30
0.0
 40
0.4350583865241642
100
AcDbArc
 50
229.414911215
 51
281.7551331489
  0
ARC
  5
AF
330
1F
100
AcDbEntity
  8
0
  6
Continuous
 62
     7
370
    25
100
AcDbCircle
 10
7585.8126263802
 20
3732.42617177
 30
0.0
 40
0.2918271913170748
100
AcDbArc
 50
233.197862647
 51
302.6793631709
  0
LWPOLYLINE
  5
B0
330
1F
100
AcDbEntity
  8
0
  6
Continuous
 62
     7
370
    25
100
AcDbPolyline
 90
        9
 70
   128
 43
0.0
 10
7585.9701947337
 20
3732.1805392731
 10
7586.0354051898
 20
3732.2342473513
 10
7586.1237185231
 20
3732.2682008587
 10
7586.2315115219
 20
3732.2810067922
 10
7586.3543617863
 20
3732.2721397656
 10
7586.4872291655
 20
3732.2419635645
 10
7586.6246625384
 20
3732.1917162211
 10
7586.7610234561
 20
3732.1234592224
 10
7586.890717469
 20
3732.0399929333
  0
ARC
  5
B1
330
1F
100
AcDbEntity
  8
0
  6
Continuous
 62
     7
370
    25
100
AcDbCircle
 10
7584.7762416723
 20
3733.7472126794
 30
0.0
 40
0.5657039935021567
100
AcDbArc
 50
209.5500547431
 51
253.1048587895
  0
ARC
  5
B2
330
1F
100
AcDbEntity
  8
0
  6
Continuous
 62
     7
370
    25
100
AcDbCircle
 10
7584.3377424032
 20
3732.1467034759
 30
0.0
 40
1.094110886786938
100
AcDbArc
 50
17.9051890847
 51
75.4918705822
  0
ARC
  5
B3
330
1F
100
AcDbEntity
  8
0
  6
Continuous
 62
     7
370
    25
100
AcDbCircle
 10
7585.8139096128
 20
3732.6101020421
 30
0.0
 40
0.453212150581112
100
AcDbArc
 50
196.2763570849
 51
247.1346314747
  0
LINE
  5
B4
330
1F
100
AcDbEntity
  8
0
  6
Continuous
 62
     7
370
    25
100
AcDbLine
 10
7586.4659693816
 20
3732.9727868669
 30
0.0
 11
7585.9701947337
 21
3732.1805392731
 31
0.0
  0
LINE
  5
B5
330
1F
100
AcDbEntity
  8
0
  6
Continuous
 62
     7
370
    25
100
AcDbLine
 10
7585.1076108299
 20
3733.9981730639
 30
0.0
 11
7584.611836182
 21
3733.2059254701
 31
0.0
  0
LWPOLYLINE
  5
B6
330
1F
100
AcDbEntity
  8
0
  6
Continuous
 62
     7
370
    25
100
AcDbPolyline
 90
       36
 70
   128
 43
0.0
 10
7744.8847214232
 20
3732.4704523489
 10
7744.7231205883
 20
3732.6077977375
 10
7744.5929646166
 20
3732.769270386
 10
7744.496821651
 20
3732.952318763
 10
7744.4357108308
 20
3733.1550025103
 10
7744.4102799459
 20
3733.3751731296
 10
7744.4207985701
 20
3733.6104967577
 10
7744.4671552033
 20
3733.8584789055
 10
7744.5488584537
 20
3734.1164909005
 10
7744.6650422464
 20
3734.3817977515
 10
7744.8144750044
 20
3734.6515871399
 10
7744.9955727032
 20
3734.9229992309
 10
7745.2064156623
 20
3735.1931569889
 10
7745.4447688937
 20
3735.4591966745
 10
7745.708105794
 20
3735.7182982008
 10
7745.9936349265
 20
3735.9677150272
 10
7746.2983296113
 20
3736.2048032732
 10
7746.618960009
 20
3736.4270497445
 10
7746.9521273576
 20
3736.6320985733
 10
7747.2943000003
 20
3736.8177761908
 10
7747.6418508221
 20
3736.9821143682
 10
7747.9910956976
 20
3737.1233710799
 10
7748.3383325444
 20
3737.2400489696
 10
7748.6798805656
 20
3737.3309112227
 10
7749.012119267
 20
3737.3949946766
 10
7749.3315268359
 20
3737.4316200309
 10
7749.6347174725
 20
3737.4403990476
 10
7749.9184772807
 20
3737.421238667
 10
7750.1797983359
 20
3737.3743419939
 10
7750.4159105699
 20
3737.3002061447
 10
7750.6243111343
 20
3737.1996169779
 10
7750.8027909312
 20
3737.0736407635
 10
7750.9494580305
 20
3736.923612881
 10
7751.0627577243
 20
3736.751123663
 10
7751.1414890078
 20
3736.5580015383
 10
7751.1762449974
 20
3736.4075774457
  0
ARC
  5
B7
330
1F
100
AcDbEntity
  8
0
  6
Continuous
 62
     7
370
    25
100
AcDbCircle
 10
7747.564157088
 20
3735.1752828491
 30
0.0
 40
3.341501759736274
100
AcDbArc
 50
291.4406950989
 51
324.866893178
  0
LWPOLYLINE
  5
B8
330
1F
100
AcDbEntity
  8
0
  6
Continuous
 62
     7
370
    25
100
AcDbPolyline
 90
        9
 70
   128
 43
0.0
 10
7750.3045049844
 20
3734.4074709807
 10
7750.4043186959
 20
3734.312684983
 10
7750.4765659381
 20
3734.1992058113
 10
7750.5200105409
 20
3734.0689751256
 10
7750.5339091551
 20
3733.9242212091
 10
7750.5180239713
 20
3733.7674208415
 10
7750.4726267897
 20
3733.6012569204
 10
7750.3984943685
 20
3733.4285725566
 10
7750.2968951339
 20
3733.2523224275
  0
ARC
  5
B9
330
1F
100
AcDbEntity
  8
0
  6
Continuous
 62
     7
370
    25
100
AcDbCircle
 10
7749.5837696836
 20
3732.936498987
 30
0.0
 40
1.638053106600149
100
AcDbArc
 50
63.8964330462
 51
118.553174977
  0
ARC
  5
BA
330
1F
100
AcDbEntity
  8
0
  6
Continuous
 62
     7
370
    25
100
AcDbCircle
 10
7750.0222684438
 20
3731.2650641886
 30
0.0
 40
3.341501759739388
100
AcDbArc
 50
111.4406950989
 51
144.866893178
  0
LWPOLYLINE
  5
BB
330
1F
100
AcDbEntity
  8
0
  6
Continuous
 62
     7
370
    25
100
AcDbPolyline
 90
        9
 70
   128
 43
0.0
 10
7747.2819205474
 20
3732.032876057
 10
7747.182106836
 20
3732.1276620547
 10
7747.1098595937
 20
3732.2411412264
 10
7747.0664149909
 20
3732.3713719121
 10
7747.0525163768
 20
3732.5161258286
 10
7747.0684015605
 20
3732.6729261962
 10
7747.1137987421
 20
3732.8390901173
 10
7747.1879311634
 20
3733.0117744811
 10
7747.2895303979
 20
3733.1880246102
  0
ARC
  5
BC
330
1F
100
AcDbEntity
  8
0
  6
Continuous
 62
     7
370
    25
100
AcDbCircle
 10
7748.0026558482
 20
3733.5038480507
 30
0.0
 40
1.638053106595585
100
AcDbArc
 50
243.8964330461
 51
298.553174977
  0
ARC
  5
BD
330
1F
100
AcDbEntity
  8
0
  6
Continuous
 62
     7
370
    25
100
AcDbCircle
 10
7748.9781378093
 20
3733.8822434929
 30
0.0
 40
0.5239915674893965
100
AcDbArc
 50
109.7790104489
 51
155.723806538
  0
ARC
  5
BE
330
1F
100
AcDbEntity
  8
0
  6
Continuous
 62
     7
370
    25
100
AcDbCircle
 10
7747.4091570831
 20
3734.6054261216
 30
0.0
 40
1.20366032316555
100
AcDbArc
 50
281.2583423151
 51
335.0492459618
  0
ARC
  5
BF
330
1F
100
AcDbEntity
  8
0
  6
Continuous
 62
     7
370
    25
100
AcDbCircle
 10
7747.7742289332
 20
3732.8463467107
 30
0.0
 40
0.5930231505440487
100
AcDbArc
 50
102.6706461163
 51
144.8188930469
  0
LWPOLYLINE
  5
C0
330
1F
100
AcDbEntity
  8
0
  6
Continuous
 62
     7
370
    25
100
AcDbPolyline
 90
        9
 70
   128
 43
0.0
 10
7749.0991014922
 20
3734.3397952296
 10
7749.0832188742
 20
3734.3656194324
 10
7749.0594508643
 20
3734.3860364834
 10
7749.0284579928
 20
3734.4004789781
 10
7748.9911015736
 20
3734.4085455493
 10
7748.9484197685
 20
3734.4100120212
 10
7748.9015987354
 20
3734.4048376395
 10
7748.8519396643
 20
3734.3931662039
 10
7748.8008226164
 20
3734.375322072
  0
ARC
  5
C1
330
1F
100
AcDbEntity
  8
0
  6
Continuous
 62
     7
370
    25
100
AcDbCircle
 10
7750.1701562093
 20
3734.080192735
 30
0.0
 40
0.3537805018318996
100
AcDbArc
 50
67.6816918454
 51
128.2529015564
  0
LWPOLYLINE
  5
C2
330
1F
100
AcDbEntity
  8
0
  6
Continuous
 62
     7
370
    25
100
AcDbPolyline
 90
        9
 70
   128
 43
0.0
 10
7749.9511187718
 20
3734.3580114608
 10
7749.8156910511
 20
3734.2863326556
 10
7749.6780141451
 20
3734.2321376918
 10
7749.5437364942
 20
3734.1976500143
 10
7749.418367078
 20
3734.1842845416
 10
7749.3070494003
 20
3734.1925896159
 10
7749.2143504672
 20
3734.2222245069
 10
7749.1440734174
 20
3734.2719733903
 10
7749.0991014922
 20
3734.3397952296
  0
ARC
  5
C3
330
1F
100
AcDbEntity
  8
0
  6
Continuous
 62
     7
370
    25
100
AcDbCircle
 10
7748.1610942172
 20
3733.1504373106
 30
0.0
 40
0.3268750825271753
100
AcDbArc
 50
243.947721451
 51
307.4467306438
  0
ARC
  5
C4
330
1F
100
AcDbEntity
  8
0
  6
Continuous
 62
     7
370
    25
100
AcDbCircle
 10
7747.6442665964
 20
3732.5857817823
 30
0.0
 40
0.4734075232640165
100
AcDbArc
 50
45.6169748109
 51
118.1930007093
  0
ARC
  5
C5
330
1F
100
AcDbEntity
  8
0
  6
Continuous
 62
     7
370
    25
100
AcDbCircle
 10
7749.3144998909
 20
3734.3904036413
 30
0.0
 40
0.5975000409736066
100
AcDbArc
 50
282.7630587115
 51
323.2380497263
  0
ARC
  5
C6
330
1F
100
AcDbEntity
  8
0
  6
Continuous
 62
     7
370
    25
100
AcDbCircle
 10
7749.7147204433
 20
3732.595990734
 30
0.0
 40
1.241008056671444
100
AcDbArc
 50
102.4819218701
 51
117.417959482
  0
LWPOLYLINE
  5
C7
330
1F
100
AcDbEntity
  8
0
  6
Continuous
 62
     7
370
    25
100
AcDbPolyline
 90
        3
 70
   128
 43
0.0
 10
7748.7636731519
 20
3734.3041828189
 10
7748.7486124746
 20
3734.3243621986
 10
7748.7308088479
 20
3734.3416697135
  0
LWPOLYLINE
  5
C8
330
1F
100
AcDbEntity
  8
0
  6
Continuous
 62
     7
370
    25
100
AcDbPolyline
 90
        9
 70
   128
 43
0.0
 10
7747.2895303979
 20
3733.1880246102
 10
7747.267463728
 20
3733.14837434
 10
7747.2533999161
 20
3733.10998397
 10
7747.2477298057
 20
3733.0739203961
 10
7747.2506109731
 20
3733.0411858507
 10
7747.2619633487
 20
3733.0126900504
 10
7747.2814714418
 20
3732.9892249139
 10
7747.3085931085
 20
3732.9714425541
 10
7747.3425746183
 20
3732.9598371556
  0
LWPOLYLINE
  5
C9
330
1F
100
AcDbEntity
  8
0
  6
Continuous
 62
     7
370
    25
100
AcDbPolyline
 90
        9
 70
   128
 43
0.0
 10
7747.3425746183
 20
3732.9598371556
 10
7747.4318941408
 20
3732.9268555604
 10
7747.4982612693
 20
3732.8740349748
 10
7747.5389531742
 20
3732.8035424576
 10
7747.5523003976
 20
3732.7182700897
 10
7747.5377553458
 20
3732.6217163221
 10
7747.4959147556
 20
3732.517842445
 10
7747.4284952117
 20
3732.4109100693
 10
7747.3382627209
 20
3732.3053062862
  0
LWPOLYLINE
  5
CA
330
1F
100
AcDbEntity
  8
0
  6
Continuous
 62
     7
370
    25
100
AcDbPolyline
 90
        9
 70
   128
 43
0.0
 10
7747.3382627209
 20
3732.3053062862
 10
7747.3039463233
 20
3732.2660768952
 10
7747.2764448205
 20
3732.2262014716
 10
7747.2565224989
 20
3732.1867881821
 10
7747.2447330142
 20
3732.1489323501
 10
7747.2414040045
 20
3732.1136860164
 10
7747.2466279855
 20
3732.0820287019
 10
7747.2602597789
 20
3732.054840186
 10
7747.2819205474
 20
3732.032876057
  0
LWPOLYLINE
  5
CB
330
1F
100
AcDbEntity
  8
0
  6
Continuous
 62
     7
370
    25
100
AcDbPolyline
 90
       24
 70
   128
 43
0.0
 10
7748.795359134
 20
3733.5459846492
 10
7748.6628185942
 20
3733.4803271059
 10
7748.5399487936
 20
3733.3953751611
 10
7748.4358624232
 20
3733.2974293121
 10
7748.358279093
 20
3733.1937537542
 10
7748.3129528036
 20
3733.0920376295
 10
7748.3032451986
 20
3732.9998247574
 10
7748.3298762466
 20
3732.923954145
 10
7748.3908708446
 20
3732.8700527685
 10
7748.4817053023
 20
3732.8421182462
 10
7748.5956428435
 20
3732.8422223541
 10
7748.7242332421
 20
3732.8703573709
 10
7748.8579395364
 20
3732.924436651
 10
7748.9868453422
 20
3733.0004493817
 10
7749.1013903056
 20
3733.0927580465
 10
7749.1930791508
 20
3733.194516534
 10
7749.2551117354
 20
3733.2981778827
 10
7749.2828873865
 20
3733.3960540046
 10
7749.2743461112
 20
3733.4808858754
 10
7749.2301213766
 20
3733.5463819035
 10
7749.1534931291
 20
3733.5876845479
 10
7749.0501445353
 20
3733.6017305806
 10
7748.9277404875
 20
3733.5874782715
 10
7748.795359134
 20
3733.5459846492
  0
LWPOLYLINE
  5
CC
330
1F
100
AcDbEntity
  8
0
  6
Continuous
 62
     7
370
    25
100
AcDbPolyline
 90
        9
 70
   128
 43
0.0
 10
7750.2481628109
 20
3734.1350407515
 10
7750.2824792085
 20
3734.1742701425
 10
7750.3099807113
 20
3734.2141455661
 10
7750.3299030329
 20
3734.2535588556
 10
7750.3416925176
 20
3734.2914146876
 10
7750.3450215273
 20
3734.3266610213
 10
7750.3397975464
 20
3734.3583183358
 10
7750.326165753
 20
3734.3855068517
 10
7750.3045049844
 20
3734.4074709807
  0
LWPOLYLINE
  5
CD
330
1F
100
AcDbEntity
  8
0
  6
Continuous
 62
     7
370
    25
100
AcDbPolyline
 90
        9
 70
   128
 43
0.0
 10
7750.2968951339
 20
3733.2523224275
 10
7750.3189618038
 20
3733.2919726977
 10
7750.3330256157
 20
3733.3303630677
 10
7750.3386957261
 20
3733.3664266416
 10
7750.3358145587
 20
3733.399161187
 10
7750.3244621831
 20
3733.4276569873
 10
7750.30495409
 20
3733.4511221238
 10
7750.2778324233
 20
3733.4689044836
 10
7750.2438509135
 20
3733.4805098821
  0
LWPOLYLINE
  5
CE
330
1F
100
AcDbEntity
  8
0
  6
Continuous
 62
     7
370
    25
100
AcDbPolyline
 90
        9
 70
   128
 43
0.0
 10
7750.2438509135
 20
3733.4805098821
 10
7750.154531391
 20
3733.5134914773
 10
7750.0881642625
 20
3733.5663120629
 10
7750.0474723576
 20
3733.6368045801
 10
7750.0341251342
 20
3733.722076948
 10
7750.048670186
 20
3733.8186307156
 10
7750.0905107762
 20
3733.9225045927
 10
7750.1579303202
 20
3734.0294369684
 10
7750.2481628109
 20
3734.1350407515
  0
ARC
  5
CF
330
1F
100
AcDbEntity
  8
0
  6
Continuous
 62
     7
370
    25
100
AcDbCircle
 10
7747.4162693225
 20
3732.3601543027
 30
0.0
 40
0.3537805018296443
100
AcDbArc
 50
247.6816918453
 51
308.2529015567
  0
LWPOLYLINE
  5
D0
330
1F
100
AcDbEntity
  8
0
  6
Continuous
 62
     7
370
    25
100
AcDbPolyline
 90
        9
 70
   128
 43
0.0
 10
7747.6353067601
 20
3732.0823355769
 10
7747.7707344807
 20
3732.1540143821
 10
7747.9084113867
 20
3732.2082093459
 10
7748.0426890377
 20
3732.2426970234
 10
7748.1680584538
 20
3732.2560624961
 10
7748.2793761315
 20
3732.2477574218
 10
7748.3720750646
 20
3732.2181225308
 10
7748.4423521144
 20
3732.1683736474
 10
7748.4873240396
 20
3732.1005518081
  0
LWPOLYLINE
  5
D1
330
1F
100
AcDbEntity
  8
0
  6
Continuous
 62
     7
370
    25
100
AcDbPolyline
 90
        9
 70
   128
 43
0.0
 10
7748.4873240396
 20
3732.1005518081
 10
7748.5032066576
 20
3732.0747276053
 10
7748.5269746675
 20
3732.0543105543
 10
7748.557967539
 20
3732.0398680596
 10
7748.5953239582
 20
3732.0318014884
 10
7748.6380057633
 20
3732.0303350165
 10
7748.6848267964
 20
3732.0355093982
 10
7748.7344858675
 20
3732.0471808338
 10
7748.7856029154
 20
3732.0650249657
  0
ARC
  5
D2
330
1F
100
AcDbEntity
  8
0
  6
Continuous
 62
     7
370
    25
100
AcDbCircle
 10
7750.1772684487
 20
3731.8349209161
 30
0.0
 40
1.20366032317009
100
AcDbArc
 50
101.2583423152
 51
155.0492459617
  0
ARC
  5
D3
330
1F
100
AcDbEntity
  8
0
  6
Continuous
 62
     7
370
    25
100
AcDbCircle
 10
7749.8121965987
 20
3733.594000327
 30
0.0
 40
0.5930231505376825
100
AcDbArc
 50
282.6706461161
 51
324.8188930471
  0
ARC
  5
D4
330
1F
100
AcDbEntity
  8
0
  6
Continuous
 62
     7
370
    25
100
AcDbCircle
 10
7748.6082877225
 20
3732.5581035448
 30
0.0
 40
0.5239915674914286
100
AcDbArc
 50
289.7790104488
 51
335.7238065379
  0
LINE
  5
D5
330
1F
100
AcDbEntity
  8
0
  6
Continuous
 62
     7
370
    25
100
AcDbLine
 10
7749.4464994367
 20
3733.8076666347
 30
0.0
 11
7749.9422740846
 21
3733.0154190408
 31
0.0
  0
LWPOLYLINE
  5
D6
330
1F
100
AcDbEntity
  8
0
  6
Continuous
 62
     7
370
    25
100
AcDbPolyline
 90
      198
 70
   128
 43
0.0
 10
7667.3509592446
 20
3664.6988180912
 10
7670.2242641151
 20
3664.7441626421
 10
7673.0966455109
 20
3664.8796815478
 10
7675.9629238555
 20
3665.1046026878
 10
7678.8179195724
 20
3665.4181539415
 10
7681.6564530851
 20
3665.8195631883
 10
7684.0462701863
 20
3666.227683539
 10
7686.4223394699
 20
3666.6973643741
 10
7688.781768928
 20
3667.2274996203
 10
7691.1590803103
 20
3667.8268114407
 10
7693.5164913631
 20
3668.4864976527
 10
7695.8512460404
 20
3669.2050410079
 10
7699.1990080225
 20
3670.351284551
 10
7702.4941399107
 20
3671.6158851104
 10
7705.7295816322
 20
3672.9930718192
 10
7708.898273114
 20
3674.4770738107
 10
7712.0574621556
 20
3676.0958735265
 10
7715.1444233168
 20
3677.8174589709
 10
7718.153449397
 20
3679.6349301966
 10
7721.0788331955
 20
3681.5413872564
 10
7724.0267938346
 20
3683.6106352178
 10
7726.8805640383
 20
3685.7647777916
 10
7729.6702487031
 20
3688.0253037965
 10
7732.3573159034
 20
3690.3595817179
 10
7734.9540740217
 20
3692.7756573982
 10
7737.4410920146
 20
3695.2527130084
 10
7739.8439326612
 20
3697.8153442351
 10
7742.1282393403
 20
3700.426061334
 10
7743.6518014686
 20
3702.2742543299
 10
7745.1151776032
 20
3704.1400995236
 10
7746.516663766
 20
3706.0202580774
 10
7747.8649307011
 20
3707.9263770502
 10
7749.1485759298
 20
3709.8423563278
 10
7750.3658139202
 20
3711.7645797582
 10
7751.5428044342
 20
3713.7376380956
 10
7752.6479458844
 20
3715.7120255868
 10
7753.6793059638
 20
3717.6836129442
 10
7754.6440135196
 20
3719.6674826403
 10
7755.5312373998
 20
3721.6428683997
 10
7756.3390903578
 20
3723.6053263819
 10
7756.9954959042
 20
3725.3531305992
 10
7757.5862507979
 20
3727.0861611725
 10
7758.1101819937
 20
3728.8011731044
 10
7758.5742557207
 20
3730.5271045645
 10
7758.9676139783
 20
3732.2302335841
 10
7759.2893556038
 20
3733.9072736036
 10
7759.5409034212
 20
3735.5718959986
 10
7759.7185320113
 20
3737.2062022805
 10
7759.8217988896
 20
3738.8071795527
 10
7759.8502163826
 20
3740.4037206519
 10
7759.8010783854
 20
3741.9625941293
 10
7759.6745140962
 20
3743.4812309251
 10
7759.4051882821
 20
3745.3331754651
 10
7759.0141002267
 20
3747.1189621715
 10
7758.5030031567
 20
3748.8355736781
 10
7757.8736502987
 20
3750.4799926186
 10
7757.1101287285
 20
3752.0844951464
 10
7756.2261992121
 20
3753.6158166154
 10
7755.2250016346
 20
3755.0733903488
 10
7754.1096758811
 20
3756.4566496698
 10
7752.8760184273
 20
3757.7732317864
 10
7751.5305831166
 20
3759.0198738689
 10
7750.0769234469
 20
3760.1977248008
 10
7748.5185929159
 20
3761.3079334653
 10
7746.8281268883
 20
3762.3704182203
 10
7745.0323185015
 20
3763.3693619345
 10
7743.1348023997
 20
3764.30670503
 10
7741.1392132269
 20
3765.184387929
 10
7738.8077783489
 20
3766.0935536023
 10
7736.3596842351
 20
3766.9365016352
 10
7734.6423823834
 20
3767.4698783349
 10
7732.8738980076
 20
3767.9757201007
 10
7731.055776905
 20
3768.454836278
 10
7729.1764864809
 20
3768.9110963506
 10
7727.2481735756
 20
3769.3423655423
 10
7725.2725222625
 20
3769.7493960543
 10
7723.2231095594
 20
3770.1380624722
 10
7721.1264815992
 20
3770.5037614959
 10
7718.9845885741
 20
3770.8471841631
 10
7716.7651160168
 20
3771.1738584652
 10
7714.5006851607
 20
3771.4793265307
 10
7712.1936380933
 20
3771.7642080289
 10
7709.8264585096
 20
3772.0312667331
 10
7707.418091034
 20
3772.2789360218
 10
7704.9713329206
 20
3772.5077431322
 10
7702.4225647324
 20
3772.7235650097
 10
7699.8361738561
 20
3772.9208718166
 10
7697.2156855887
 20
3773.1001175268
 10
7694.5374428141
 20
3773.2633161568
 10
7691.8279937565
 20
3773.4091954422
 10
7689.0915083982
 20
3773.5381048151
 10
7686.678506507
 20
3773.6372410699
 10
7684.2478482924
 20
3773.7239769181
 10
7681.8026273283
 20
3773.7984736095
 10
7679.302859993
 20
3773.8618761517
 10
7676.7913140748
 20
3773.9129854109
 10
7674.2714686435
 20
3773.9519005729
 10
7671.7233375035
 20
3773.9789105675
 10
7669.1703748025
 20
3773.9936939279
 10
7666.6162714133
 20
3773.996279976
 10
7664.01800964
 20
3773.986405648
 10
7661.4224301114
 20
3773.9638806086
 10
7658.8334069345
 20
3773.9286586218
 10
7655.4057249341
 20
3773.8620332623
 10
7651.9959590666
 20
3773.7724203421
 10
7648.6125984787
 20
3773.6594565461
 10
7645.2641323175
 20
3773.5227785592
 10
7641.8853387172
 20
3773.358130476
 10
7638.5479045024
 20
3773.1671460941
 10
7635.259361239
 20
3772.9490811806
 10
7632.027240493
 20
3772.7031915025
 10
7628.8296708852
 20
3772.426042809
 10
7625.6928124187
 20
3772.1179169925
 10
7622.6226499279
 20
3771.7776659991
 10
7619.6251682473
 20
3771.4041417745
 10
7616.6502011997
 20
3770.9879301675
 10
7613.7526563521
 20
3770.5332584898
 10
7610.9374071015
 20
3770.0384929916
 10
7608.209326845
 20
3769.5019999236
 10
7605.3679255376
 20
3768.8742724143
 10
7602.6316183523
 20
3768.1923323387
 10
7600.8452935364
 20
3767.6997705469
 10
7599.1088851385
 20
3767.1800694136
 10
7597.4239164072
 20
3766.6324148872
 10
7595.7808322146
 20
3766.0519307283
 10
7594.1911339721
 20
3765.4408386372
 10
7592.6563470949
 20
3764.7982727751
 10
7591.1582269522
 20
3764.1139608432
 10
7589.717940845
 20
3763.3948234825
 10
7588.3370958289
 20
3762.6399811169
 10
7586.991295439
 20
3761.8322412778
 10
7585.7090508438
 20
3760.9846865318
 10
7584.4921078329
 20
3760.096507991
 10
7583.3327535046
 20
3759.1589177746
 10
7582.2417478626
 20
3758.1774554911
 10
7581.220892837
 20
3757.1515735107
 10
7580.2472222726
 20
3756.0511418379
 10
7579.3497441783
 20
3754.9016103373
 10
7578.5303210342
 20
3753.7029113632
 10
7577.7832376711
 20
3752.4414729344
 10
7577.1180445408
 20
3751.1284267967
 10
7576.5363871722
 20
3749.7644976463
 10
7576.0201313105
 20
3748.2869877709
 10
7575.5967165699
 20
3746.7527664574
 10
7575.2671608225
 20
3745.1642219061
 10
7575.0324819399
 20
3743.5237423174
 10
7574.8936977941
 20
3741.8337158914
 10
7574.8514351442
 20
3740.3601441712
 10
7574.8783155837
 20
3738.8522457318
 10
7574.9742760214
 20
3737.3123792136
 10
7575.142983512
 20
3735.7123849958
 10
7575.3829290161
 20
3734.0821995409
 10
7575.6935459077
 20
3732.4247931095
 10
7576.1993836001
 20
3730.2444817415
 10
7576.8215888493
 20
3728.0249509415
 10
7577.5577870175
 20
3725.7733160399
 10
7578.4056034669
 20
3723.496692367
 10
7579.383323754
 20
3721.1543779303
 10
7580.4738912487
 20
3718.7938888489
 10
7581.6740346911
 20
3716.4226637662
 10
7582.9804828211
 20
3714.0481413257
 10
7584.4618231951
 20
3711.5610218573
 10
7586.056497106
 20
3709.0789825363
 10
7587.7606584726
 20
3706.6098295437
 10
7589.5704612138
 20
3704.1613690608
 10
7591.5178673744
 20
3701.6972157417
 10
7593.5718835236
 20
3699.2630882785
 10
7595.7286076984
 20
3696.8664588621
 10
7597.9841379357
 20
3694.5147996829
 10
7599.7109116214
 20
3692.8112308503
 10
7601.4902718617
 20
3691.1363488171
 10
7603.3206220932
 20
3689.4930153135
 10
7605.2272685547
 20
3687.8615602668
 10
7607.1849815734
 20
3686.2665563037
 10
7609.19198675
 20
3684.7109257269
 10
7611.2619916356
 20
3683.1864129928
 10
7613.3805371452
 20
3681.705935032
 10
7615.5456063345
 20
3680.2724258342
 10
7617.7885296357
 20
3678.8684563907
 10
7620.0775976589
 20
3677.5170622005
 10
7622.4103897985
 20
3676.2212291292
 10
7624.7281767958
 20
3675.012264844
 10
7627.0856102639
 20
3673.8601444156
 10
7629.4800671305
 20
3672.7675118276
 10
7631.9301939086
 20
3671.7282239712
 10
7634.4154581434
 20
3670.7531284168
 10
7636.932735944
 20
3669.8447008397
 10
7639.5494280345
 20
3668.9831662327
 10
7642.1966184463
 20
3668.195508843
 10
7644.8704272274
 20
3667.4840083358
 10
7647.5954444378
 20
3666.8445455243
 10
7650.3435937548
 20
3666.2857459539
 10
7653.1104094219
 20
3665.8093677351
 10
7656.6337211516
 20
3665.3267228134
 10
7660.176960346
 20
3664.9797846323
 10
7662.5647450931
 20
3664.8238428919
 10
7664.9570903168
 20
3664.730111987
 10
7667.3509592446
 20
3664.6988180912
  0
LWPOLYLINE
  5
D7
330
1F
100
AcDbEntity
  8
0
  6
Continuous
 62
     7
370
    25
100
AcDbPolyline
 90
      115
 70
   128
 43
0.0
 10
7574.8542091378
 20
3741.1362677241
 10
7574.8655450198
 20
3742.1011501013
 10
7574.9232014214
 20
3743.2616628376
 10
7575.0245905841
 20
3744.3993073336
 10
7575.2890156584
 20
3746.2350060731
 10
7575.6734860077
 20
3748.0068031627
 10
7576.1839095704
 20
3749.7316286587
 10
7576.8143693044
 20
3751.3845369593
 10
7577.5686953535
 20
3752.9753744582
 10
7578.4407695426
 20
3754.4925828385
 10
7579.4417761756
 20
3755.9545243631
 10
7580.560671857
 20
3757.3444131002
 10
7581.780955041
 20
3758.6488472991
 10
7583.1123500483
 20
3759.8849733235
 10
7584.5665378497
 20
3761.0648291496
 10
7586.1272859735
 20
3762.1770833562
 10
7587.80152027
 20
3763.22959673
 10
7589.5784489894
 20
3764.2186216431
 10
7591.4754746827
 20
3765.1559060565
 10
7593.4751222986
 20
3766.0347342195
 10
7595.7988028291
 20
3766.9397010508
 10
7598.2428313185
 20
3767.7797451048
 10
7599.9560898944
 20
3768.3106920353
 10
7601.7205336706
 20
3768.8141143921
 10
7603.5346268495
 20
3769.2908332711
 10
7605.4098549256
 20
3769.7447063753
 10
7607.3341304807
 20
3770.1736301736
 10
7609.3057816646
 20
3770.5783671323
 10
7610.8341070124
 20
3770.8701200912
 10
7612.3889143293
 20
3771.148855594
 10
7613.9724898074
 20
3771.4153816327
 10
7615.5816810992
 20
3771.6695552616
 10
7617.2395163804
 20
3771.9150873983
 10
7618.9226358772
 20
3772.148596323
 10
7620.6337013572
 20
3772.3708127041
 10
7622.3689711612
 20
3772.5816008444
 10
7624.1381572781
 20
3772.7823947185
 10
7625.9305261941
 20
3772.9722231424
 10
7627.7490847956
 20
3773.1517178284
 10
7629.5894775475
 20
3773.3207501867
 10
7631.4953799056
 20
3773.4832230136
 10
7633.4224842731
 20
3773.6352550967
 10
7635.3743440951
 20
3773.7774016973
 10
7637.3456290327
 20
3773.9095351899
 10
7639.3495478077
 20
3774.0327066398
 10
7641.3710867993
 20
3774.1461469939
 10
7643.4141921384
 20
3774.2502921717
 10
7645.4727286609
 20
3774.3450271944
 10
7647.2786817867
 20
3774.420053391
 10
7649.0946251761
 20
3774.4881518966
 10
7650.923332347
 20
3774.549526781
 10
7652.7603530689
 20
3774.6041177927
 10
7655.2601094103
 20
3774.6673695037
 10
7657.7718046169
 20
3774.7184737101
 10
7660.291952443
 20
3774.7575321725
 10
7662.8405970987
 20
3774.7848401215
 10
7665.3942208771
 20
3774.8000765883
 10
7667.9491216241
 20
3774.8032725962
 10
7669.8967877365
 20
3774.7976311625
 10
7671.8430197813
 20
3774.7849912039
 10
7673.7911088903
 20
3774.7652822393
 10
7675.7355665106
 20
3774.7384955095
 10
7679.1356953968
 20
3774.6742575278
 10
7682.5213387108
 20
3774.5876411337
 10
7685.9244720128
 20
3774.4767780129
 10
7689.29539796
 20
3774.3421349997
 10
7692.6512458579
 20
3774.1819357327
 10
7695.9638297821
 20
3773.9962798232
 10
7699.2695856563
 20
3773.7814495468
 10
7702.5264327918
 20
3773.5382464555
 10
7705.7020377342
 20
3773.2679327273
 10
7708.820376743
 20
3772.9672094677
 10
7711.9068952336
 20
3772.6312211242
 10
7714.9224790869
 20
3772.2617153113
 10
7717.8807264025
 20
3771.8546281774
 10
7720.7607601783
 20
3771.4102702746
 10
7723.5898728996
 20
3770.9212453953
 10
7726.3370202454
 20
3770.3893830892
 10
7729.1792228354
 20
3769.770852961
 10
7731.920937614
 20
3769.0975236842
 10
7733.7095968774
 20
3768.6113576653
 10
7735.4485049714
 20
3768.0982337176
 10
7737.1361474139
 20
3767.5573295462
 10
7738.7820733521
 20
3766.9838209005
 10
7740.3748072678
 20
3766.3798698942
 10
7741.9128330466
 20
3765.7445985795
 10
7743.0435158253
 20
3765.2406440387
 10
7744.1418395846
 20
3764.7174482528
 10
7745.2091367205
 20
3764.1735817354
 10
7746.2430737898
 20
3763.6094233609
 10
7747.2622963786
 20
3763.0128956154
 10
7748.2458758625
 20
3762.3942550651
 10
7749.1950381952
 20
3761.7517707086
 10
7750.1073992056
 20
3761.086085268
 10
7750.9874299797
 20
3760.3926109259
 10
7751.8291532815
 20
3759.6747043049
 10
7752.6336181973
 20
3758.9303619424
 10
7753.3985111608
 20
3758.1606160746
 10
7754.1402730732
 20
3757.3455270771
 10
7754.8393435754
 20
3756.5030107351
 10
7755.496610717
 20
3755.6306434774
 10
7756.1097966193
 20
3754.7301174511
 10
7756.6823683147
 20
3753.7941901918
 10
7757.2090398943
 20
3752.8293188178
 10
7757.6904417122
 20
3751.8327674121
 10
7758.1246209186
 20
3750.8070520776
 10
7758.4597778808
 20
3749.9018890314
 10
7758.7593678274
 20
3748.9753447546
 10
7759.0236242093
 20
3748.0255771146
 10
7759.2516549964
 20
3747.0547223075
 10
7759.5025154197
 20
3745.7053274642
 10
7759.6860375959
 20
3744.3182059165
 10
7759.8018023614
 20
3742.8950724924
 10
7759.8496480157
 20
3741.4231386578
 10
7759.8455551515
 20
3741.1352308757
  0
LWPOLYLINE
  5
D8
330
1F
100
AcDbEntity
  8
0
  6
Continuous
 62
     7
370
    25
100
AcDbPolyline
 90
      241
 70
   128
 43
0.0
 10
7839.8509592446
 20
4032.33359355
 10
7839.7918478029
 20
4035.9768000773
 10
7839.6145539898
 20
4039.6175097328
 10
7839.3191993136
 20
4043.253227356
 10
7838.9059861957
 20
4046.8814612077
 10
7838.3751978316
 20
4050.4997246775
 10
7837.7271979973
 20
4054.1055379885
 10
7836.9624307994
 20
4057.6964298962
 10
7836.0814203712
 20
4061.2699393829
 10
7835.0847705132
 20
4064.8236173435
 10
7833.9731642795
 20
4068.3550282647
 10
7832.7473635094
 20
4071.8617518939
 10
7831.4082083055
 20
4075.3413848978
 10
7829.956616458
 20
4078.7915425099
 10
7828.3935828154
 20
4082.2098601643
 10
7826.7201786028
 20
4085.593995117
 10
7824.937550688
 20
4088.9416280508
 10
7823.046920795
 20
4092.2504646655
 10
7821.0495846671
 20
4095.5182372496
 10
7818.9469111788
 20
4098.742706235
 10
7816.7403413974
 20
4101.9216617319
 10
7814.4313875957
 20
4105.0529250428
 10
7812.0216322152
 20
4108.1343501563
 10
7809.5127267819
 20
4111.1638252175
 10
7806.9063907743
 20
4114.1392739756
 10
7804.2044104449
 20
4117.0586572067
 10
7801.408637596
 20
4119.9199741112
 10
7798.5209883106
 20
4122.7212636855
 10
7795.5434416395
 20
4125.4606060657
 10
7792.4780382442
 20
4128.1361238433
 10
7789.3268789993
 20
4130.7459833521
 10
7786.0921235518
 20
4133.2883959247
 10
7782.7759888415
 20
4135.7616191186
 10
7779.3807475816
 20
4138.1639579101
 10
7775.9087267007
 20
4140.4937658562
 10
7772.3623057486
 20
4142.749446223
 10
7768.7439152651
 20
4144.9294530797
 10
7765.0560351142
 20
4147.0322923585
 10
7761.3011927847
 20
4149.0565228786
 10
7757.4819616581
 20
4151.0007573333
 10
7753.6009592446
 20
4152.8636632415
 10
7749.6608453894
 20
4154.6439638606
 10
7745.6643204497
 20
4156.3404390614
 10
7741.6141234441
 20
4157.9519261645
 10
7737.5130301752
 20
4159.4773207373
 10
7733.3638513276
 20
4160.9155773504
 10
7729.1694305412
 20
4162.2657102946
 10
7724.9326424625
 20
4163.5267942563
 10
7720.6563907743
 20
4164.6979649515
 10
7716.3436062061
 20
4165.7784197182
 10
7711.9972445248
 20
4166.7674180668
 10
7707.6202845098
 20
4167.6642821872
 10
7703.2157259107
 20
4168.4683974135
 10
7698.786587392
 20
4169.1792126454
 10
7694.3359044641
 20
4169.7962407255
 10
7689.8667274026
 20
4170.3190587736
 10
7685.3821191583
 20
4170.7473084764
 10
7680.8851532577
 20
4171.080696333
 10
7676.3789116965
 20
4171.3189938558
 10
7671.8664828277
 20
4171.4620377277
 10
7667.3509592446
 20
4171.5097299137
 10
7662.8354356615
 20
4171.4620377277
 10
7658.3230067927
 20
4171.3189938558
 10
7653.8167652316
 20
4171.080696333
 10
7649.319799331
 20
4170.7473084764
 10
7644.8351910867
 20
4170.3190587736
 10
7640.3660140252
 20
4169.7962407255
 10
7635.9153310972
 20
4169.1792126454
 10
7631.4861925786
 20
4168.4683974135
 10
7627.0816339795
 20
4167.6642821872
 10
7622.7046739644
 20
4166.7674180668
 10
7618.3583122832
 20
4165.7784197182
 10
7614.0455277149
 20
4164.6979649515
 10
7609.7692760268
 20
4163.5267942563
 10
7605.5324879481
 20
4162.2657102946
 10
7601.3380671616
 20
4160.9155773504
 10
7597.1888883141
 20
4159.4773207373
 10
7593.0877950452
 20
4157.9519261645
 10
7589.0375980396
 20
4156.3404390614
 10
7585.0410730998
 20
4154.6439638606
 10
7581.1009592446
 20
4152.8636632415
 10
7577.2199568311
 20
4151.0007573333
 10
7573.4007257045
 20
4149.0565228786
 10
7569.6458833751
 20
4147.0322923585
 10
7565.9580032242
 20
4144.9294530797
 10
7562.3396127406
 20
4142.749446223
 10
7558.7931917885
 20
4140.4937658562
 10
7555.3211709077
 20
4138.1639579101
 10
7551.9259296477
 20
4135.7616191186
 10
7548.6097949375
 20
4133.2883959247
 10
7545.3750394899
 20
4130.7459833521
 10
7542.223880245
 20
4128.1361238433
 10
7539.1584768498
 20
4125.4606060657
 10
7536.1809301786
 20
4122.7212636855
 10
7533.2932808933
 20
4119.9199741112
 10
7530.4975080444
 20
4117.0586572067
 10
7527.7955277149
 20
4114.1392739756
 10
7525.1891917073
 20
4111.1638252175
 10
7522.680286274
 20
4108.1343501563
 10
7520.2705308935
 20
4105.0529250428
 10
7517.9615770918
 20
4101.9216617319
 10
7515.7550073104
 20
4098.742706235
 10
7513.6523338221
 20
4095.5182372496
 10
7511.6549976943
 20
4092.2504646655
 10
7509.7643678013
 20
4088.9416280508
 10
7507.9817398864
 20
4085.593995117
 10
7506.3083356739
 20
4082.2098601643
 10
7504.7453020312
 20
4078.7915425099
 10
7503.2937101837
 20
4075.3413848978
 10
7501.9545549799
 20
4071.8617518939
 10
7500.7287542098
 20
4068.3550282647
 10
7499.617147976
 20
4064.8236173435
 10
7498.620498118
 20
4061.2699393829
 10
7497.7394876898
 20
4057.6964298962
 10
7496.974720492
 20
4054.1055379885
 10
7496.3267206576
 20
4050.4997246775
 10
7495.7959322936
 20
4046.8814612077
 10
7495.3827191757
 20
4043.253227356
 10
7495.0873644995
 20
4039.6175097328
 10
7494.9100706863
 20
4035.9768000773
 10
7494.8509592446
 20
4032.33359355
 10
7494.9100706863
 20
4028.6903870228
 10
7495.0873644995
 20
4025.0496773673
 10
7495.3827191757
 20
4021.4139597441
 10
7495.7959322936
 20
4017.7857258924
 10
7496.3267206576
 20
4014.1674624226
 10
7496.974720492
 20
4010.5616491116
 10
7497.7394876898
 20
4006.9707572038
 10
7498.620498118
 20
4003.3972477172
 10
7499.617147976
 20
3999.8435697566
 10
7500.7287542098
 20
3996.3121588353
 10
7501.9545549799
 20
3992.8054352062
 10
7503.2937101837
 20
3989.3258022022
 10
7504.7453020312
 20
3985.8756445902
 10
7506.3083356739
 20
3982.4573269358
 10
7507.9817398864
 20
3979.0731919831
 10
7509.7643678013
 20
3975.7255590492
 10
7511.6549976943
 20
3972.4167224346
 10
7513.6523338221
 20
3969.1489498505
 10
7515.7550073104
 20
3965.924480865
 10
7517.9615770918
 20
3962.7455253682
 10
7520.2705308935
 20
3959.6142620573
 10
7522.680286274
 20
3956.5328369438
 10
7525.1891917073
 20
3953.5033618826
 10
7527.795527715
 20
3950.5279131244
 10
7530.4975080444
 20
3947.6085298934
 10
7533.2932808933
 20
3944.7472129889
 10
7536.1809301786
 20
3941.9459234145
 10
7539.1584768498
 20
3939.2065810344
 10
7542.223880245
 20
3936.5310632568
 10
7545.3750394899
 20
3933.921203748
 10
7548.6097949375
 20
3931.3787911753
 10
7551.9259296477
 20
3928.9055679815
 10
7555.3211709077
 20
3926.50322919
 10
7558.7931917885
 20
3924.1734212439
 10
7562.3396127406
 20
3921.9177408771
 10
7565.9580032242
 20
3919.7377340204
 10
7569.6458833751
 20
3917.6348947415
 10
7573.4007257045
 20
3915.6106642215
 10
7577.2199568311
 20
3913.6664297668
 10
7581.1009592446
 20
3911.8035238586
 10
7585.0410730998
 20
3910.0232232395
 10
7589.0375980396
 20
3908.3267480387
 10
7593.0877950452
 20
3906.7152609356
 10
7597.1888883141
 20
3905.1898663628
 10
7601.3380671617
 20
3903.7516097497
 10
7605.5324879481
 20
3902.4014768054
 10
7609.7692760268
 20
3901.1403928438
 10
7614.045527715
 20
3899.9692221486
 10
7618.3583122832
 20
3898.8887673819
 10
7622.7046739644
 20
3897.8997690333
 10
7627.0816339795
 20
3897.0029049129
 10
7631.4861925786
 20
3896.1987896865
 10
7635.9153310972
 20
3895.4879744547
 10
7640.3660140252
 20
3894.8709463746
 10
7644.8351910867
 20
3894.3481283265
 10
7649.319799331
 20
3893.9198786236
 10
7653.8167652316
 20
3893.5864907671
 10
7658.3230067927
 20
3893.3481932443
 10
7662.8354356615
 20
3893.2051493723
 10
7667.3509592446
 20
3893.1574571864
 10
7671.8664828277
 20
3893.2051493723
 10
7676.3789116965
 20
3893.3481932443
 10
7680.8851532577
 20
3893.5864907671
 10
7685.3821191583
 20
3893.9198786236
 10
7689.8667274026
 20
3894.3481283265
 10
7694.3359044641
 20
3894.8709463746
 10
7698.786587392
 20
3895.4879744547
 10
7703.2157259107
 20
3896.1987896865
 10
7707.6202845098
 20
3897.0029049129
 10
7711.9972445248
 20
3897.8997690333
 10
7716.3436062061
 20
3898.8887673819
 10
7720.6563907743
 20
3899.9692221486
 10
7724.9326424625
 20
3901.1403928438
 10
7729.1694305412
 20
3902.4014768054
 10
7733.3638513276
 20
3903.7516097497
 10
7737.5130301752
 20
3905.1898663628
 10
7741.6141234441
 20
3906.7152609356
 10
7745.6643204497
 20
3908.3267480387
 10
7749.6608453894
 20
3910.0232232395
 10
7753.6009592446
 20
3911.8035238586
 10
7757.4819616581
 20
3913.6664297668
 10
7761.3011927847
 20
3915.6106642215
 10
7765.0560351142
 20
3917.6348947415
 10
7768.7439152651
 20
3919.7377340204
 10
7772.3623057486
 20
3921.9177408771
 10
7775.9087267007
 20
3924.1734212439
 10
7779.3807475816
 20
3926.50322919
 10
7782.7759888415
 20
3928.9055679815
 10
7786.0921235518
 20
3931.3787911753
 10
7789.3268789993
 20
3933.921203748
 10
7792.4780382442
 20
3936.5310632568
 10
7795.5434416395
 20
3939.2065810344
 10
7798.5209883106
 20
3941.9459234145
 10
7801.408637596
 20
3944.7472129889
 10
7804.2044104449
 20
3947.6085298934
 10
7806.9063907743
 20
3950.5279131245
 10
7809.5127267819
 20
3953.5033618826
 10
7812.0216322152
 20
3956.5328369438
 10
7814.4313875957
 20
3959.6142620573
 10
7816.7403413974
 20
3962.7455253682
 10
7818.9469111788
 20
3965.924480865
 10
7821.0495846671
 20
3969.1489498505
 10
7823.046920795
 20
3972.4167224346
 10
7824.937550688
 20
3975.7255590492
 10
7826.7201786028
 20
3979.0731919831
 10
7828.3935828154
 20
3982.4573269358
 10
7829.956616458
 20
3985.8756445902
 10
7831.4082083055
 20
3989.3258022022
 10
7832.7473635094
 20
3992.8054352062
 10
7833.9731642795
 20
3996.3121588353
 10
7835.0847705132
 20
3999.8435697566
 10
7836.0814203712
 20
4003.3972477172
 10
7836.9624307994
 20
4006.9707572038
 10
7837.7271979973
 20
4010.5616491116
 10
7838.3751978316
 20
4014.1674624226
 10
7838.9059861957
 20
4017.7857258924
 10
7839.3191993136
 20
4021.4139597441
 10
7839.6145539898
 20
4025.0496773673
 10
7839.7918478029
 20
4028.6903870228
 10
7839.8509592446
 20
4032.33359355
  0
LINE
  5
D9
330
1F
100
AcDbEntity
  8
0
  6
Continuous
 62
     7
370
    25
100
AcDbLine
 10
7844.8509592446
 20
4029.3795944747
 30
0.0
 11
7844.842091878
 21
4027.9481260889
 31
0.0
  0
LWPOLYLINE
  5
DA
330
1F
100
AcDbEntity
  8
0
  6
Continuous
 62
     7
370
    25
100
AcDbPolyline
 90
        3
 70
   128
 43
0.0
 10
7489.8592081228
 20
4027.9989487504
 10
7489.8509592446
 20
4029.3795944747
 10
7489.860056339
 20
4030.8294864268
  0
LINE
  5
DB
330
1F
100
AcDbEntity
  8
0
  6
Continuous
 62
     7
370
    25
100
AcDbLine
 10
7844.8420180305
 20
4030.8170109933
 30
0.0
 11
7844.8509592446
 21
4029.3795944747
 31
0.0
  0
LWPOLYLINE
  5
DC
330
1F
100
AcDbEntity
  8
0
  6
Continuous
 62
     7
370
    25
100
AcDbPolyline
 90
      241
 70
   128
 43
0.0
 10
7817.3509592446
 20
4032.33359355
 10
7817.299557991
 20
4029.1655878741
 10
7817.1453894578
 20
4025.9997533911
 10
7816.8885593046
 20
4022.8382598057
 10
7816.5292435499
 20
4019.6832738478
 10
7816.0676884507
 20
4016.536957787
 10
7815.5042103339
 20
4013.4014679514
 10
7814.8391953792
 20
4010.278953249
 10
7814.0730993547
 20
4007.1715536954
 10
7813.2064473043
 20
4004.081398947
 10
7812.239833188
 20
4001.0106068416
 10
7811.1739194749
 20
3997.9612819467
 10
7810.0094366889
 20
3994.9355141172
 10
7808.7471829085
 20
3991.9353770632
 10
7807.3880232192
 20
3988.9629269289
 10
7805.9328891213
 20
3986.0202008831
 10
7804.382777891
 20
3983.1092157233
 10
7802.7387518971
 20
3980.2319664931
 10
7801.0019378729
 20
3977.3904251157
 10
7799.1735261439
 20
3974.5865390413
 10
7797.2547698123
 20
3971.8222299137
 10
7795.2469838977
 20
3969.099392252
 10
7793.1515444364
 20
3966.4198921533
 10
7790.9698875379
 20
3963.7855660131
 10
7788.7035084009
 20
3961.1982192669
 10
7786.3539602883
 20
3958.659625153
 10
7783.9228534632
 20
3956.1715234969
 10
7781.4118540846
 20
3953.7356195192
 10
7778.8226830662
 20
3951.3535826668
 10
7776.1571148965
 20
3949.0270454689
 10
7773.4169764226
 20
3946.7576024178
 10
7770.6041455987
 20
3944.5468088764
 10
7767.7205501985
 20
3942.3961800122
 10
7764.7681664942
 20
3940.3071897587
 10
7761.7490179021
 20
3938.2812698055
 10
7758.6651735959
 20
3936.3198086171
 10
7755.5187470885
 20
3934.4241504808
 10
7752.3118947834
 20
3932.5955945861
 10
7749.0468144969
 20
3930.8353941339
 10
7745.725743952
 20
3929.1447554776
 10
7742.3509592446
 20
3927.5248372966
 10
7738.9247732836
 20
3925.9767498017
 10
7735.4495342056
 20
3924.501553975
 10
7731.9276237659
 20
3923.1002608418
 10
7728.361455706
 20
3921.7738307785
 10
7724.7534740994
 20
3920.5231728541
 10
7721.1061516764
 20
3919.3491442069
 10
7717.4219881297
 20
3918.2525494576
 10
7713.7035084009
 20
3917.2341401575
 10
7709.9532609502
 20
3916.2946142734
 10
7706.17381601
 20
3915.4346157094
 10
7702.367763823
 20
3914.6547338655
 10
7698.5377128673
 20
3913.955503234
 10
7694.6862880684
 20
3913.3374030324
 10
7690.8161290007
 20
3912.8008568757
 10
7686.9298880776
 20
3912.3462324861
 10
7683.0302287348
 20
3911.9738414401
 10
7679.1198236038
 20
3911.6839389562
 10
7675.2013526811
 20
3911.4767237189
 10
7671.2775014908
 20
3911.3523377433
 10
7667.3509592446
 20
3911.3108662773
 10
7663.4244169984
 20
3911.3523377433
 10
7659.5005658082
 20
3911.4767237189
 10
7655.5820948855
 20
3911.6839389562
 10
7651.6716897545
 20
3911.9738414401
 10
7647.7720304116
 20
3912.3462324861
 10
7643.8857894886
 20
3912.8008568757
 10
7640.0156304208
 20
3913.3374030324
 10
7636.164205622
 20
3913.955503234
 10
7632.3341546662
 20
3914.6547338655
 10
7628.5281024792
 20
3915.4346157094
 10
7624.748657539
 20
3916.2946142734
 10
7620.9984100884
 20
3917.2341401575
 10
7617.2799303596
 20
3918.2525494576
 10
7613.5957668128
 20
3919.3491442069
 10
7609.9484443899
 20
3920.5231728541
 10
7606.3404627833
 20
3921.7738307785
 10
7602.7742947234
 20
3923.1002608418
 10
7599.2523842837
 20
3924.501553975
 10
7595.7771452057
 20
3925.9767498017
 10
7592.3509592446
 20
3927.5248372966
 10
7588.9761745372
 20
3929.1447554776
 10
7585.6551039924
 20
3930.8353941339
 10
7582.3900237059
 20
3932.5955945861
 10
7579.1831714008
 20
3934.4241504808
 10
7576.0367448933
 20
3936.3198086171
 10
7572.9529005872
 20
3938.2812698055
 10
7569.9337519951
 20
3940.3071897587
 10
7566.9813682908
 20
3942.3961800122
 10
7564.0977728906
 20
3944.5468088764
 10
7561.2849420666
 20
3946.7576024178
 10
7558.5448035928
 20
3949.0270454689
 10
7555.879235423
 20
3951.3535826668
 10
7553.2900644046
 20
3953.7356195192
 10
7550.7790650261
 20
3956.1715234969
 10
7548.3479582009
 20
3958.659625153
 10
7545.9984100884
 20
3961.1982192669
 10
7543.7320309513
 20
3963.7855660131
 10
7541.5503740528
 20
3966.4198921533
 10
7539.4549345915
 20
3969.099392252
 10
7537.447148677
 20
3971.8222299137
 10
7535.5283923453
 20
3974.5865390414
 10
7533.6999806164
 20
3977.3904251157
 10
7531.9631665921
 20
3980.2319664931
 10
7530.3191405982
 20
3983.1092157233
 10
7528.7690293679
 20
3986.0202008831
 10
7527.31389527
 20
3988.9629269289
 10
7525.9547355808
 20
3991.9353770632
 10
7524.6924818004
 20
3994.9355141172
 10
7523.5279990144
 20
3997.9612819467
 10
7522.4620853013
 20
4001.0106068416
 10
7521.495471185
 20
4004.081398947
 10
7520.6288191346
 20
4007.1715536954
 10
7519.86272311
 20
4010.278953249
 10
7519.1977081554
 20
4013.4014679514
 10
7518.6342300386
 20
4016.536957787
 10
7518.1726749394
 20
4019.6832738478
 10
7517.8133591847
 20
4022.8382598057
 10
7517.5565290314
 20
4025.9997533911
 10
7517.4023604983
 20
4029.1655878741
 10
7517.3509592446
 20
4032.33359355
 10
7517.4023604983
 20
4035.5015992259
 10
7517.5565290314
 20
4038.667433709
 10
7517.8133591847
 20
4041.8289272944
 10
7518.1726749394
 20
4044.9839132523
 10
7518.6342300386
 20
4048.130229313
 10
7519.1977081554
 20
4051.2657191487
 10
7519.86272311
 20
4054.3882338511
 10
7520.6288191346
 20
4057.4956334047
 10
7521.495471185
 20
4060.5857881531
 10
7522.4620853013
 20
4063.6565802585
 10
7523.5279990144
 20
4066.7059051534
 10
7524.6924818004
 20
4069.7316729829
 10
7525.9547355808
 20
4072.7318100369
 10
7527.31389527
 20
4075.7042601711
 10
7528.7690293679
 20
4078.646986217
 10
7530.3191405982
 20
4081.5579713768
 10
7531.9631665921
 20
4084.435220607
 10
7533.6999806164
 20
4087.2767619844
 10
7535.5283923453
 20
4090.0806480587
 10
7537.447148677
 20
4092.8449571864
 10
7539.4549345915
 20
4095.5677948481
 10
7541.5503740528
 20
4098.2472949467
 10
7543.7320309513
 20
4100.881621087
 10
7545.9984100884
 20
4103.4689678332
 10
7548.3479582009
 20
4106.0075619471
 10
7550.7790650261
 20
4108.4956636032
 10
7553.2900644046
 20
4110.9315675809
 10
7555.879235423
 20
4113.3136044332
 10
7558.5448035928
 20
4115.6401416312
 10
7561.2849420666
 20
4117.9095846823
 10
7564.0977728906
 20
4120.1203782237
 10
7566.9813682908
 20
4122.2710070879
 10
7569.9337519951
 20
4124.3599973414
 10
7572.9529005872
 20
4126.3859172945
 10
7576.0367448933
 20
4128.347378483
 10
7579.1831714008
 20
4130.2430366193
 10
7582.3900237059
 20
4132.071592514
 10
7585.6551039924
 20
4133.8317929662
 10
7588.9761745372
 20
4135.5224316224
 10
7592.3509592446
 20
4137.1423498035
 10
7595.7771452057
 20
4138.6904372983
 10
7599.2523842837
 20
4140.1656331251
 10
7602.7742947234
 20
4141.5669262583
 10
7606.3404627833
 20
4142.8933563216
 10
7609.9484443899
 20
4144.144014246
 10
7613.5957668128
 20
4145.3180428932
 10
7617.2799303596
 20
4146.4146376424
 10
7620.9984100884
 20
4147.4330469426
 10
7624.748657539
 20
4148.3725728267
 10
7628.5281024793
 20
4149.2325713907
 10
7632.3341546662
 20
4150.0124532345
 10
7636.164205622
 20
4150.7116838661
 10
7640.0156304208
 20
4151.3297840677
 10
7643.8857894886
 20
4151.8663302243
 10
7647.7720304116
 20
4152.320954614
 10
7651.6716897545
 20
4152.69334566
 10
7655.5820948855
 20
4152.9832481439
 10
7659.5005658082
 20
4153.1904633811
 10
7663.4244169984
 20
4153.3148493567
 10
7667.3509592446
 20
4153.3563208228
 10
7671.2775014908
 20
4153.3148493567
 10
7675.2013526811
 20
4153.1904633811
 10
7679.1198236038
 20
4152.9832481439
 10
7683.0302287348
 20
4152.69334566
 10
7686.9298880776
 20
4152.320954614
 10
7690.8161290007
 20
4151.8663302243
 10
7694.6862880685
 20
4151.3297840677
 10
7698.5377128673
 20
4150.7116838661
 10
7702.367763823
 20
4150.0124532345
 10
7706.17381601
 20
4149.2325713907
 10
7709.9532609502
 20
4148.3725728267
 10
7713.7035084009
 20
4147.4330469426
 10
7717.4219881297
 20
4146.4146376424
 10
7721.1061516764
 20
4145.3180428932
 10
7724.7534740994
 20
4144.144014246
 10
7728.361455706
 20
4142.8933563216
 10
7731.9276237659
 20
4141.5669262583
 10
7735.4495342056
 20
4140.1656331251
 10
7738.9247732836
 20
4138.6904372983
 10
7742.3509592446
 20
4137.1423498035
 10
7745.725743952
 20
4135.5224316224
 10
7749.0468144969
 20
4133.8317929662
 10
7752.3118947834
 20
4132.071592514
 10
7755.5187470885
 20
4130.2430366193
 10
7758.6651735959
 20
4128.347378483
 10
7761.7490179021
 20
4126.3859172945
 10
7764.7681664942
 20
4124.3599973414
 10
7767.7205501985
 20
4122.2710070879
 10
7770.6041455987
 20
4120.1203782237
 10
7773.4169764226
 20
4117.9095846823
 10
7776.1571148965
 20
4115.6401416312
 10
7778.8226830662
 20
4113.3136044332
 10
7781.4118540846
 20
4110.9315675809
 10
7783.9228534632
 20
4108.4956636032
 10
7786.3539602883
 20
4106.0075619471
 10
7788.7035084009
 20
4103.4689678332
 10
7790.9698875379
 20
4100.881621087
 10
7793.1515444364
 20
4098.2472949467
 10
7795.2469838977
 20
4095.567794848
 10
7797.2547698123
 20
4092.8449571864
 10
7799.1735261439
 20
4090.0806480587
 10
7801.0019378729
 20
4087.2767619844
 10
7802.7387518971
 20
4084.435220607
 10
7804.382777891
 20
4081.5579713768
 10
7805.9328891213
 20
4078.646986217
 10
7807.3880232192
 20
4075.7042601711
 10
7808.7471829085
 20
4072.7318100369
 10
7810.0094366889
 20
4069.7316729829
 10
7811.1739194749
 20
4066.7059051534
 10
7812.239833188
 20
4063.6565802585
 10
7813.2064473043
 20
4060.5857881531
 10
7814.0730993547
 20
4057.4956334047
 10
7814.8391953792
 20
4054.3882338511
 10
7815.5042103339
 20
4051.2657191487
 10
7816.0676884507
 20
4048.130229313
 10
7816.5292435499
 20
4044.9839132523
 10
7816.8885593046
 20
4041.8289272944
 10
7817.1453894578
 20
4038.667433709
 10
7817.299557991
 20
4035.5015992259
 10
7817.3509592446
 20
4032.33359355
  0
ELLIPSE
  5
DD
330
1F
100
AcDbEntity
  8
0
  6
Continuous
 62
     7
370
    25
100
AcDbEllipse
 10
7667.3509592446
 20
3878.7398448636
 30
0.0
 11
0.0
 21
220.0000000000004
 31
3.552713678800501E-14
210
0.0
220
-1.614869854000225E-16
230
1.0
 40
0.8068181818
 41
1.570796326794897
 42
4.712388980384695
  0
LWPOLYLINE
  5
DE
330
1F
100
AcDbEntity
  8
0
  6
Continuous
 62
     7
370
    25
100
AcDbPolyline
 90
        3
 70
   128
 43
0.0
 10
7522.3574492986
 20
4030.4864577291
 10
7522.3509592446
 20
4029.3795944747
 10
7522.3590721592
 20
4028.1420607242
  0
LWPOLYLINE
  5
DF
330
1F
100
AcDbEntity
  8
0
  6
Continuous
 62
     7
370
    25
100
AcDbPolyline
 90
       39
 70
   128
 43
0.0
 10
7683.8377419784
 20
4121.9776807823
 10
7683.8446111718
 20
4122.24490295
 10
7683.7458455319
 20
4123.0846036186
 10
7683.5363674544
 20
4123.8993205795
 10
7683.216729446
 20
4124.7105466433
 10
7682.774848455
 20
4125.5351175094
 10
7682.2220271018
 20
4126.34269149
 10
7681.580274166
 20
4127.1065499561
 10
7680.8415034284
 20
4127.8415647827
 10
7679.9852679913
 20
4128.5610299118
 10
7679.03787419
 20
4129.2370100222
 10
7678.0298871108
 20
4129.8496359212
 10
7676.9481146191
 20
4130.4093022659
 10
7675.7654034479
 20
4130.9243456466
 10
7674.5208929451
 20
4131.3728585544
 10
7673.2605668553
 20
4131.7404696683
 10
7671.9590496636
 20
4132.0374645641
 10
7670.5856255347
 20
4132.2660785786
 10
7669.1882203529
 20
4132.4144229854
 10
7667.8250714096
 20
4132.4797080017
 10
7666.458635229
 20
4132.4679543317
 10
7665.0588360206
 20
4132.3752139382
 10
7663.6758540842
 20
4132.2019714057
 10
7662.361223966
 20
4131.9586463489
 10
7661.0808726054
 20
4131.6437397869
 10
7659.8087204096
 20
4131.2479526799
 10
7658.5911561457
 20
4130.7835341094
 10
7657.4637258454
 20
4130.2680773309
 10
7656.4042052217
 20
4129.6962665878
 10
7655.3928498112
 20
4129.0544178596
 10
7654.4681683638
 20
4128.3643740801
 10
7653.6556122442
 20
4127.6500248311
 10
7652.9376299862
 20
4126.9018756657
 10
7652.3030588022
 20
4126.1031390942
 10
7651.7786511926
 20
4125.2822306803
 10
7651.3795861764
 20
4124.4719055692
 10
7651.090593329
 20
4123.6536636386
 10
7650.9106776707
 20
4122.8096901516
 10
7650.8513770564
 20
4121.9763630663
  0
LWPOLYLINE
  5
E0
330
1F
100
AcDbEntity
  8
0
  6
Continuous
 62
     7
370
    25
100
AcDbPolyline
 90
      126
 70
   128
 43
0.0
 10
7667.3509592446
 20
4104.300432011
 10
7668.1297461764
 20
4104.3119982009
 10
7668.9065658248
 20
4104.3466675536
 10
7669.679455876
 20
4104.4043524912
 10
7670.4464639426
 20
4104.4849072965
 10
7671.2056524957
 20
4104.5881284812
 10
7671.9551037591
 20
4104.7137552995
 10
7672.6929245538
 20
4104.8614704073
 10
7673.4172510806
 20
4105.0309006633
 10
7674.1262536277
 20
4105.221618072
 10
7674.8181411932
 20
4105.4331408646
 10
7675.491166009
 20
4105.6649347163
 10
7676.1436279561
 20
4105.9164140956
 10
7676.7738788589
 20
4106.1869437439
 10
7677.380326649
 20
4106.4758402797
 10
7677.9614393865
 20
4106.7823739254
 10
7678.5157491304
 20
4107.1057703502
 10
7679.041855646
 20
4107.4452126269
 10
7679.5384299427
 20
4107.7998432947
 10
7680.0042176307
 20
4108.1687665258
 10
7680.4380420899
 20
4108.5510503881
 10
7680.838807442
 20
4108.9457291994
 10
7681.205501319
 20
4109.3518059668
 10
7681.5371974203
 20
4109.7682549051
 10
7681.8330578527
 20
4110.1940240281
 10
7682.0923352472
 20
4110.6280378061
 10
7682.3143746465
 20
4111.0691998826
 10
7682.4986151599
 20
4111.5163958439
 10
7682.6445913798
 20
4111.9684960342
 10
7682.7519345577
 20
4112.4243584092
 10
7682.8203735353
 20
4112.882831421
 10
7682.8497354298
 20
4113.342756927
 10
7682.8399460706
 20
4113.8029731153
 10
7682.7910301863
 20
4114.2623174401
 10
7682.7031113429
 20
4114.7196295575
 10
7682.5764116309
 20
4115.1737542577
 10
7682.4112511048
 20
4115.623544382
 10
7682.2080469744
 20
4116.0678637217
 10
7681.967312551
 20
4116.5055898876
 10
7681.6896559506
 20
4116.9356171453
 10
7681.3757785579
 20
4117.3568592087
 10
7681.0264732544
 20
4117.7682519838
 10
7680.6426224156
 20
4118.1687562566
 10
7680.2251956822
 20
4118.5573603188
 10
7679.7752475101
 20
4118.9330825226
 10
7679.2939145077
 20
4119.2949737612
 10
7678.7824125637
 20
4119.6421198659
 10
7678.2420337765
 20
4119.9736439155
 10
7677.6741431899
 20
4120.2887084515
 10
7677.0801753446
 20
4120.5865175936
 10
7676.4616306552
 20
4120.8663190499
 10
7675.820071619
 20
4121.1274060178
 10
7675.15711887
 20
4121.3691189688
 10
7674.4744470843
 20
4121.5908473152
 10
7673.77378075
 20
4121.7920309518
 10
7673.0568898112
 20
4121.9721616713
 10
7672.3255851966
 20
4122.130784448
 10
7671.5817142451
 20
4122.2674985868
 10
7670.8271560393
 20
4122.3819587361
 10
7670.0638166587
 20
4122.4738757594
 10
7669.2936243649
 20
4122.5430174666
 10
7668.5185247303
 20
4122.5892091996
 10
7667.740475724
 20
4122.612334274
 10
7666.9614427653
 20
4122.612334274
 10
7666.1833937589
 20
4122.5892091996
 10
7665.4082941244
 20
4122.5430174666
 10
7664.6381018305
 20
4122.4738757594
 10
7663.8747624499
 20
4122.3819587361
 10
7663.1202042441
 20
4122.2674985868
 10
7662.3763332926
 20
4122.130784448
 10
7661.645028678
 20
4121.9721616713
 10
7660.9281377392
 20
4121.7920309518
 10
7660.227471405
 20
4121.5908473152
 10
7659.5447996193
 20
4121.3691189688
 10
7658.8818468702
 20
4121.1274060178
 10
7658.2402878341
 20
4120.8663190499
 10
7657.6217431446
 20
4120.5865175936
 10
7657.0277752994
 20
4120.2887084515
 10
7656.4598847127
 20
4119.9736439155
 10
7655.9195059256
 20
4119.6421198659
 10
7655.4080039816
 20
4119.2949737612
 10
7654.9266709791
 20
4118.9330825226
 10
7654.4767228071
 20
4118.5573603188
 10
7654.0592960736
 20
4118.1687562566
 10
7653.6754452349
 20
4117.7682519838
 10
7653.3261399314
 20
4117.3568592087
 10
7653.0122625387
 20
4116.9356171453
 10
7652.7346059383
 20
4116.5055898876
 10
7652.4938715149
 20
4116.0678637217
 10
7652.2906673844
 20
4115.623544382
 10
7652.1255068583
 20
4115.1737542577
 10
7651.9988071463
 20
4114.7196295575
 10
7651.9108883029
 20
4114.2623174401
 10
7651.8619724187
 20
4113.8029731153
 10
7651.8521830595
 20
4113.342756927
 10
7651.881544954
 20
4112.882831421
 10
7651.9499839316
 20
4112.4243584092
 10
7652.0573271094
 20
4111.9684960342
 10
7652.2033033293
 20
4111.5163958439
 10
7652.3875438427
 20
4111.0691998826
 10
7652.6095832421
 20
4110.6280378061
 10
7652.8688606366
 20
4110.1940240281
 10
7653.164721069
 20
4109.7682549051
 10
7653.4964171703
 20
4109.3518059668
 10
7653.8631110472
 20
4108.9457291994
 10
7654.2638763993
 20
4108.5510503881
 10
7654.6977008585
 20
4108.1687665258
 10
7655.1634885465
 20
4107.7998432947
 10
7655.6600628432
 20
4107.4452126269
 10
7656.1861693589
 20
4107.1057703502
 10
7656.7404791027
 20
4106.7823739254
 10
7657.3215918403
 20
4106.4758402797
 10
7657.9280396304
 20
4106.1869437439
 10
7658.5582905332
 20
4105.9164140956
 10
7659.2107524802
 20
4105.6649347163
 10
7659.8837772961
 20
4105.4331408646
 10
7660.5756648615
 20
4105.221618072
 10
7661.2846674087
 20
4105.0309006633
 10
7662.0089939354
 20
4104.8614704073
 10
7662.7468147302
 20
4104.7137552995
 10
7663.4962659936
 20
4104.5881284812
 10
7664.2554545467
 20
4104.4849072965
 10
7665.0224626133
 20
4104.4043524912
 10
7665.7953526644
 20
4104.3466675536
 10
7666.5721723128
 20
4104.3119982009
 10
7667.3509592446
 20
4104.300432011
  0
LINE
  5
E1
330
1F
100
AcDbEntity
  8
0
  6
Continuous
 62
     7
370
    25
100
AcDbLine
 10
7650.8509710007
 20
4114.2530106618
 30
0.0
 11
7650.8509592446
 21
4114.2646473264
 31
0.0
  0
LINE
  5
E2
330
1F
100
AcDbEntity
  8
0
  6
Continuous
 62
     7
370
    25
100
AcDbLine
 10
7683.8508979311
 20
4114.2912224301
 30
0.0
 11
7683.8509592446
 21
4114.2646473264
 31
0.0
  0
LINE
  5
E3
330
1F
100
AcDbEntity
  8
0
  6
Continuous
 62
     8
370
    25
100
AcDbLine
 10
7587.5371862387
 20
3732.9634528021
 30
0.0
 11
7587.4205614523
 21
3732.7770864626
 31
0.0
  0
LINE
  5
E4
330
1F
100
AcDbEntity
  8
0
  6
Continuous
 62
     8
370
    25
100
AcDbLine
 10
7584.7099499417
 20
3734.5006048479
 30
0.0
 11
7584.5503471717
 21
3734.2455597159
 31
0.0
  0
LINE
  5
E5
330
1F
100
AcDbEntity
  8
0
  6
Continuous
 62
     8
370
    25
100
AcDbLine
 10
7587.1385576931
 20
3732.4360414647
 30
0.0
 11
7586.890717469
 21
3732.0399929333
 31
0.0
  0
LINE
  5
E6
330
1F
100
AcDbEntity
  8
0
  6
Continuous
 62
     8
370
    25
100
AcDbLine
 10
7585.7064112512
 20
3733.0065039146
 30
0.0
 11
7585.3788617401
 21
3732.4830799896
 31
0.0
  0
LINE
  5
E7
330
1F
100
AcDbEntity
  8
0
  6
Continuous
 62
     8
370
    25
100
AcDbLine
 10
7749.0822318896
 20
3734.3667528446
 30
0.0
 11
7749.0991014922
 21
3734.3397952296
 31
0.0
  0
LINE
  5
E8
330
1F
100
AcDbEntity
  8
0
  6
Continuous
 62
     8
370
    25
100
AcDbLine
 10
7747.252035383
 20
3733.1045188
 30
0.0
 11
7747.3425746183
 21
3732.9598371556
 31
0.0
  0
LINE
  5
E9
330
1F
100
AcDbEntity
  8
0
  6
Continuous
 62
     8
370
    25
100
AcDbLine
 10
7750.0732744752
 20
3734.4145122085
 30
0.0
 11
7750.2481628109
 21
3734.1350407515
 31
0.0
  0
LINE
  5
EA
330
1F
100
AcDbEntity
  8
0
  6
Continuous
 62
     8
370
    25
100
AcDbLine
 10
7747.4291432351
 20
3732.4117847677
 30
0.0
 11
7747.6353067601
 21
3732.0823355769
 31
0.0
  0
LINE
  5
EB
330
1F
100
AcDbEntity
  8
0
  6
Continuous
 62
     8
370
    25
100
AcDbLine
 10
7748.7503184457
 20
3732.8790028278
 30
0.0
 11
7749.0859449077
 21
3732.3426719401
 31
0.0
  0
LWPOLYLINE
  5
EC
330
1F
100
AcDbEntity
  8
0
  6
Continuous
 62
     8
370
    25
100
AcDbPolyline
 90
      121
 70
   128
 43
0.0
 10
7844.842091878
 20
4027.9481260889
 10
7844.7901344278
 20
4025.6307877582
 10
7844.6077016636
 20
4021.8845502866
 10
7844.3037859823
 20
4018.1434495439
 10
7843.8785956725
 20
4014.4100494937
 10
7843.3324221385
 20
4010.6869088218
 10
7842.6656397003
 20
4006.976579183
 10
7841.8787053372
 20
4003.2816034518
 10
7840.9721583749
 20
3999.60451398
 10
7839.9466201152
 20
3995.9478308611
 10
7838.8027934109
 20
3992.314060203
 10
7837.5414621837
 20
3988.7056924107
 10
7836.163490887
 20
3985.1252004791
 10
7834.6698239135
 20
3981.5750382986
 10
7833.0614849479
 20
3978.057638973
 10
7831.3395762654
 20
3974.5754131522
 10
7829.5052779762
 20
3971.1307473797
 10
7827.5598472167
 20
3967.7260024573
 10
7825.5046172881
 20
3964.3635118273
 10
7823.3409967421
 20
3961.0455799727
 10
7821.0704684164
 20
3957.7744808383
 10
7818.6945884175
 20
3954.552456272
 10
7816.2149850549
 20
3951.3817144886
 10
7813.633357725
 20
3948.264428556
 10
7810.9514757462
 20
3945.2027349063
 10
7808.1711771463
 20
3942.1987318715
 10
7805.2943674032
 20
3939.2544782451
 10
7802.3230181386
 20
3936.3719918715
 10
7799.2591657669
 20
3933.5532482629
 10
7796.1049100993
 20
3930.8001792454
 10
7792.8624129052
 20
3928.1146716349
 10
7789.5338964303
 20
3925.4985659442
 10
7786.1216418733
 20
3922.9536551215
 10
7782.6279878232
 20
3920.4816833216
 10
7779.055328656
 20
3918.0843447104
 10
7775.4061128937
 20
3915.763282304
 10
7771.6828415265
 20
3913.5200868428
 10
7767.8880662988
 20
3911.3562957007
 10
7764.0243879598
 20
3909.2733918323
 10
7760.0944544817
 20
3907.2728027557
 10
7756.1009592446
 20
3905.3558995748
 10
7752.0466391907
 20
3903.5239960392
 10
7747.9342729484
 20
3901.7783476442
 10
7743.7666789281
 20
3900.1201507699
 10
7739.5467133906
 20
3898.5505418617
 10
7735.2772684894
 20
3897.0705966511
 10
7730.9612702889
 20
3895.6813294187
 10
7726.6016767586
 20
3894.3836922987
 10
7722.2014757462
 20
3893.1785746268
 10
7717.7636829296
 20
3892.0668023306
 10
7713.2913397503
 20
3891.0491373632
 10
7708.7875113291
 20
3890.1262771814
 10
7704.2552843648
 20
3889.2988542673
 10
7699.6977650195
 20
3888.5674356954
 10
7695.1180767893
 20
3887.9325227434
 10
7690.5193583637
 20
3887.394550549
 10
7685.9047614746
 20
3886.9538878113
 10
7681.2774487363
 20
3886.6108365386
 10
7676.6405914777
 20
3886.3656318412
 10
7671.9973675693
 20
3886.2184417701
 10
7667.3509592446
 20
3886.169367202
 10
7662.70455092
 20
3886.2184417701
 10
7658.0613270115
 20
3886.3656318412
 10
7653.4244697529
 20
3886.6108365386
 10
7648.7971570146
 20
3886.9538878113
 10
7644.1825601256
 20
3887.394550549
 10
7639.5838417
 20
3887.9325227434
 10
7635.0041534698
 20
3888.5674356954
 10
7630.4466341245
 20
3889.2988542673
 10
7625.9144071602
 20
3890.1262771814
 10
7621.4105787389
 20
3891.0491373632
 10
7616.9382355597
 20
3892.0668023306
 10
7612.5004427431
 20
3893.1785746269
 10
7608.1002417306
 20
3894.3836922987
 10
7603.7406482003
 20
3895.6813294187
 10
7599.4246499998
 20
3897.0705966511
 10
7595.1552050987
 20
3898.5505418617
 10
7590.9352395612
 20
3900.1201507699
 10
7586.7676455409
 20
3901.7783476442
 10
7582.6552792985
 20
3903.5239960392
 10
7578.6009592446
 20
3905.3558995748
 10
7574.6074640075
 20
3907.2728027557
 10
7570.6775305295
 20
3909.2733918323
 10
7566.8138521905
 20
3911.3562957007
 10
7563.0190769627
 20
3913.5200868428
 10
7559.2958055956
 20
3915.763282304
 10
7555.6465898333
 20
3918.0843447104
 10
7552.073930666
 20
3920.4816833216
 10
7548.5802766159
 20
3922.9536551215
 10
7545.168022059
 20
3925.4985659442
 10
7541.839505584
 20
3928.1146716349
 10
7538.5970083899
 20
3930.8001792454
 10
7535.4427527224
 20
3933.5532482629
 10
7532.3789003506
 20
3936.3719918715
 10
7529.407551086
 20
3939.2544782451
 10
7526.5307413429
 20
3942.1987318715
 10
7523.7504427431
 20
3945.2027349063
 10
7521.0685607642
 20
3948.264428556
 10
7518.4869334343
 20
3951.3817144886
 10
7516.0073300718
 20
3954.552456272
 10
7513.6314500729
 20
3957.7744808383
 10
7511.3609217471
 20
3961.0455799727
 10
7509.1973012012
 20
3964.3635118273
 10
7507.1420712725
 20
3967.7260024573
 10
7505.1966405131
 20
3971.1307473797
 10
7503.3623422239
 20
3974.5754131522
 10
7501.6404335414
 20
3978.057638973
 10
7500.0320945758
 20
3981.5750382986
 10
7498.5384276022
 20
3985.1252004791
 10
7497.1604563055
 20
3988.7056924107
 10
7495.8991250783
 20
3992.314060203
 10
7494.755298374
 20
3995.9478308611
 10
7493.7297601144
 20
3999.60451398
 10
7492.823213152
 20
4003.2816034518
 10
7492.036278789
 20
4006.976579183
 10
7491.3694963508
 20
4010.6869088218
 10
7490.8233228168
 20
4014.4100494937
 10
7490.398132507
 20
4018.1434495439
 10
7490.0942168257
 20
4021.8845502866
 10
7489.9117840615
 20
4025.6307877582
 10
7489.8592081228
 20
4027.9989487504
  0
LWPOLYLINE
  5
ED
330
1F
100
AcDbEntity
  8
0
  6
Continuous
 62
     8
370
    25
100
AcDbPolyline
 90
      121
 70
   128
 43
0.0
 10
7812.3509592446
 20
4029.3795944747
 10
7812.3012713661
 20
4032.4419999614
 10
7812.152241784
 20
4035.5023066283
 10
7811.9039726359
 20
4038.5584170942
 10
7811.556634073
 20
4041.6082368536
 10
7811.1104641438
 20
4044.6496757122
 10
7810.5657686309
 20
4047.68064922
 10
7809.9229208414
 20
4050.699080099
 10
7809.182361351
 20
4053.7028996675
 10
7808.3445977023
 20
4056.6900492576
 10
7807.4102040565
 20
4059.6584816262
 10
7806.3798208005
 20
4062.6061623579
 10
7805.2541541074
 20
4065.5310712598
 10
7804.033975453
 20
4068.4312037453
 10
7802.7201210867
 20
4071.3045722084
 10
7801.3134914588
 20
4074.149207386
 10
7799.8150506028
 20
4076.9631597072
 10
7798.2258254754
 20
4079.7445006297
 10
7796.5469052519
 20
4082.4913239613
 10
7794.7794405806
 20
4085.2017471664
 10
7792.9246427934
 20
4087.8739126565
 10
7790.983783076
 20
4090.5059890628
 10
7788.9581915967
 20
4093.0961724915
 10
7786.8492565948
 20
4095.6426877604
 10
7784.658423429
 20
4098.143789615
 10
7782.3871935869
 20
4100.5977639252
 10
7780.0371236559
 20
4103.0029288594
 10
7777.6098242566
 20
4105.3576360379
 10
7775.1069589388
 20
4107.6602716618
 10
7772.5302430414
 20
4109.9092576198
 10
7769.8814425167
 20
4112.1030525692
 10
7767.1623727202
 20
4114.2401529925
 10
7764.3748971667
 20
4116.319094228
 10
7761.5209262525
 20
4118.338451473
 10
7758.6024159469
 20
4120.296840761
 10
7755.6213664509
 20
4122.1929199099
 10
7752.579820827
 20
4124.0253894416
 10
7749.4798635987
 20
4125.7929934731
 10
7746.3236193218
 20
4127.4945205769
 10
7743.1132511284
 20
4129.1288046113
 10
7739.8509592446
 20
4130.6947255197
 10
7736.5389794823
 20
4132.191210098
 10
7733.1795817069
 20
4133.6172327306
 10
7729.7750682818
 20
4134.9718160927
 10
7726.3277724906
 20
4136.2540318205
 10
7722.8400569376
 20
4137.4630011475
 10
7719.3143119287
 20
4138.5978955064
 10
7715.7529538335
 20
4139.6579370973
 10
7712.158423429
 20
4140.6423994208
 10
7708.5331842267
 20
4141.5506077755
 10
7704.8797207845
 20
4142.3819397207
 10
7701.2005370037
 20
4143.135825503
 10
7697.4981544132
 20
4143.8117484469
 10
7693.775110441
 20
4144.4092453084
 10
7690.0339566755
 20
4144.9279065932
 10
7686.2772571165
 20
4145.3673768365
 10
7682.5075864184
 20
4145.7273548476
 10
7678.7275281252
 20
4146.0075939154
 10
7674.9396728999
 20
4146.2079019781
 10
7671.1466167493
 20
4146.3281417545
 10
7667.3509592446
 20
4146.3682308383
 10
7663.55530174
 20
4146.3281417545
 10
7659.7622455894
 20
4146.2079019781
 10
7655.9743903641
 20
4146.0075939154
 10
7652.1943320708
 20
4145.7273548476
 10
7648.4246613727
 20
4145.3673768365
 10
7644.6679618138
 20
4144.9279065932
 10
7640.9268080483
 20
4144.4092453084
 10
7637.2037640761
 20
4143.8117484469
 10
7633.5013814855
 20
4143.135825503
 10
7629.8221977048
 20
4142.3819397207
 10
7626.1687342626
 20
4141.5506077755
 10
7622.5434950603
 20
4140.6423994208
 10
7618.9489646557
 20
4139.6579370973
 10
7615.3876065606
 20
4138.5978955064
 10
7611.8618615517
 20
4137.4630011475
 10
7608.3741459986
 20
4136.2540318205
 10
7604.9268502074
 20
4134.9718160927
 10
7601.5223367824
 20
4133.6172327306
 10
7598.162939007
 20
4132.191210098
 10
7594.8509592446
 20
4130.6947255197
 10
7591.5886673608
 20
4129.1288046113
 10
7588.3782991674
 20
4127.4945205769
 10
7585.2220548905
 20
4125.7929934731
 10
7582.1220976622
 20
4124.0253894416
 10
7579.0805520384
 20
4122.1929199099
 10
7576.0995025424
 20
4120.296840761
 10
7573.1809922368
 20
4118.338451473
 10
7570.3270213226
 20
4116.319094228
 10
7567.539545769
 20
4114.2401529925
 10
7564.8204759726
 20
4112.1030525692
 10
7562.1716754478
 20
4109.9092576198
 10
7559.5949595504
 20
4107.6602716618
 10
7557.0920942326
 20
4105.3576360379
 10
7554.6647948334
 20
4103.0029288594
 10
7552.3147249024
 20
4100.5977639252
 10
7550.0434950603
 20
4098.143789615
 10
7547.8526618944
 20
4095.6426877604
 10
7545.7437268925
 20
4093.0961724915
 10
7543.7181354133
 20
4090.5059890628
 10
7541.7772756959
 20
4087.8739126565
 10
7539.9224779086
 20
4085.2017471664
 10
7538.1550132373
 20
4082.4913239613
 10
7536.4760930139
 20
4079.7445006297
 10
7534.8868678865
 20
4076.9631597072
 10
7533.3884270305
 20
4074.149207386
 10
7531.9817974025
 20
4071.3045722084
 10
7530.6679430363
 20
4068.4312037453
 10
7529.4477643818
 20
4065.5310712598
 10
7528.3220976887
 20
4062.6061623579
 10
7527.2917144327
 20
4059.6584816262
 10
7526.357320787
 20
4056.6900492576
 10
7525.5195571382
 20
4053.7028996675
 10
7524.7789976479
 20
4050.699080099
 10
7524.1361498583
 20
4047.68064922
 10
7523.5914543454
 20
4044.6496757122
 10
7523.1452844162
 20
4041.6082368536
 10
7522.7979458533
 20
4038.5584170942
 10
7522.5496767052
 20
4035.5023066283
 10
7522.4006471232
 20
4032.4419999614
 10
7522.3574492986
 20
4030.4864577291
  0
ELLIPSE
  5
EE
330
1F
100
AcDbEntity
  8
0
  6
Continuous
 62
     8
370
    25
100
AcDbEllipse
 10
7667.3509592446
 20
3957.1642507965
 30
0.0
 11
0.0
 21
148.5360143222197
 31
0.0
210
0.0
220
0.0
230
1.0
 40
0.9761942291
 41
0.0569063323885535
 42
1.294222351322805
  0
ELLIPSE
  5
EF
330
1F
100
AcDbEntity
  8
0
  6
Continuous
 62
     8
370
    25
100
AcDbEllipse
 10
7667.3509592446
 20
3957.1642507965
 30
0.0
 11
0.0
 21
148.5360143222197
 31
0.0
210
0.0
220
0.0
230
1.0
 40
0.9761942291
 41
4.988854344626834
 42
6.226419958353405
  0
ELLIPSE
  5
F0
330
1F
100
AcDbEntity
  8
0
  6
Continuous
 62
     8
370
    25
100
AcDbEllipse
 10
7667.3509592446
 20
3952.8990680481
 30
0.0
 11
0.0
 21
100.1269234131287
 31
0.0
210
0.0
220
0.0
230
1.0
 40
0.8489225186
 41
4.528387690261471
 42
8.037985239927355
  0
LINE
  5
F1
330
1F
100
AcDbEntity
  8
0
  6
Continuous
 62
     8
370
    25
100
AcDbLine
 10
7647.114643715
 20
3914.4977226063
 30
0.0
 11
7687.587282467
 21
3914.4977226063
 31
0.0
  0
LWPOLYLINE
  5
F2
330
1F
100
AcDbEntity
  8
0
  6
Continuous
 62
     8
370
    25
100
AcDbPolyline
 90
       66
 70
   128
 43
0.0
 10
7650.8509592446
 20
4114.2646473264
 10
7650.8619672465
 20
4114.6206712001
 10
7650.9108620835
 20
4115.0945487142
 10
7650.9987510146
 20
4115.5664577938
 10
7651.1254255769
 20
4116.0352791229
 10
7651.2905853126
 20
4116.4999007089
 10
7651.4938384808
 20
4116.9592205209
 10
7651.7347029875
 20
4117.412149103
 10
7652.0126075288
 20
4117.8576121586
 10
7652.3268929457
 20
4118.2945530985
 10
7652.6768137881
 20
4118.7219355472
 10
7653.0615400822
 20
4119.1387458007
 10
7653.4801592998
 20
4119.5439952311
 10
7653.9316785225
 20
4119.9367226316
 10
7654.4150267964
 20
4120.3159964961
 10
7654.929057673
 20
4120.6809172289
 10
7655.4725519276
 20
4121.0306192784
 10
7656.0442204521
 20
4121.3642731899
 10
7656.6427073118
 20
4121.6810875733
 10
7657.266592962
 20
4121.9803109798
 10
7657.9143976149
 20
4122.2612336845
 10
7658.5845847494
 20
4122.5231893699
 10
7659.2755647557
 20
4122.765556706
 10
7659.9856987056
 20
4122.9877608242
 10
7660.7133022397
 20
4123.1892746809
 10
7661.4566495629
 20
4123.3696203076
 10
7662.2139775375
 20
4123.5283699442
 10
7662.9834898651
 20
4123.6651470543
 10
7663.7633613475
 20
4123.7796272177
 10
7664.5517422158
 20
4123.8715388999
 10
7665.3467625177
 20
4123.9406640967
 10
7666.1465365527
 20
4123.9868388508
 10
7666.9491673453
 20
4124.0099536407
 10
7667.7527511439
 20
4124.0099536407
 10
7668.5553819365
 20
4123.9868388508
 10
7669.3551559716
 20
4123.9406640967
 10
7670.1501762734
 20
4123.8715388999
 10
7670.9385571417
 20
4123.7796272177
 10
7671.7184286242
 20
4123.6651470543
 10
7672.4879409518
 20
4123.5283699442
 10
7673.2452689263
 20
4123.3696203076
 10
7673.9886162495
 20
4123.1892746809
 10
7674.7162197837
 20
4122.9877608242
 10
7675.4263537335
 20
4122.765556706
 10
7676.1173337398
 20
4122.5231893699
 10
7676.7875208743
 20
4122.2612336845
 10
7677.4353255272
 20
4121.9803109798
 10
7678.0592111775
 20
4121.6810875733
 10
7678.6576980372
 20
4121.3642731899
 10
7679.2293665616
 20
4121.0306192784
 10
7679.7728608163
 20
4120.6809172289
 10
7680.2868916928
 20
4120.3159964961
 10
7680.7702399668
 20
4119.9367226316
 10
7681.2217591894
 20
4119.5439952311
 10
7681.6403784071
 20
4119.1387458007
 10
7682.0251047012
 20
4118.7219355472
 10
7682.3750255435
 20
4118.2945530985
 10
7682.6893109604
 20
4117.8576121586
 10
7682.9672155017
 20
4117.412149103
 10
7683.2080800085
 20
4116.9592205209
 10
7683.4113331767
 20
4116.4999007089
 10
7683.5764929123
 20
4116.0352791229
 10
7683.7031674747
 20
4115.5664577938
 10
7683.7910564058
 20
4115.0945487142
 10
7683.8399512427
 20
4114.6206712001
 10
7683.8508979311
 20
4114.2912224301
  0
ARC
  5
F3
330
1F
100
AcDbEntity
  8
0
  6
Continuous
 62
     7
370
    25
100
AcDbCircle
 10
8114.0771070755
 20
3735.7536471003
 30
0.0
 40
4.021952970230193
100
AcDbArc
 50
317.7617499576
 51
14.6834603821
  0
ARC
  5
F4
330
1F
100
AcDbEntity
  8
0
  6
Continuous
 62
     7
370
    25
100
AcDbCircle
 10
8114.0771070755
 20
3735.7536471003
 30
0.0
 40
4.021952970228784
100
AcDbArc
 50
237.7441117526
 51
294.6658221771
  0
LINE
  5
F5
330
1F
100
AcDbEntity
  8
0
  6
Continuous
 62
     7
370
    25
100
AcDbLine
 10
8114.8364762132
 20
3733.1734460929
 30
0.0
 11
8114.7762772279
 21
3733.2556560643
 31
0.0
  0
LINE
  5
F6
330
1F
100
AcDbEntity
  8
0
  6
Continuous
 62
     7
370
    25
100
AcDbLine
 10
8116.539048739
 20
3734.501502651
 30
0.0
 11
8116.7322574588
 21
3734.2376496436
 31
0.0
  0
LINE
  5
F7
330
1F
100
AcDbEntity
  8
0
  6
Continuous
 62
     7
370
    25
100
AcDbLine
 10
8114.9980630703
 20
3733.5650139825
 30
0.0
 11
8115.4885157186
 21
3732.8952336206
 31
0.0
  0
LINE
  5
F8
330
1F
100
AcDbEntity
  8
0
  6
Continuous
 62
     7
370
    25
100
AcDbLine
 10
8116.3760157186
 20
3733.5451134171
 30
0.0
 11
8116.0045813891
 21
3734.0523579402
 31
0.0
  0
LINE
  5
F9
330
1F
100
AcDbEntity
  8
0
  6
Continuous
 62
     7
370
    25
100
AcDbLine
 10
8115.1322739784
 20
3732.2026973941
 30
0.0
 11
8114.7342742648
 21
3732.7462205928
 31
0.0
  0
LINE
  5
FA
330
1F
100
AcDbEntity
  8
0
  6
Continuous
 62
     7
370
    25
100
AcDbLine
 10
8116.447924852
 20
3734.0591485386
 30
0.0
 11
8117.028055224
 21
3733.2669009448
 31
0.0
  0
LINE
  5
FB
330
1F
100
AcDbEntity
  8
0
  6
Continuous
 62
     7
370
    25
100
AcDbLine
 10
8051.4597525091
 20
3664.6988180912
 30
0.0
 11
8200.7211161454
 21
3773.9967838793
 31
0.0
  0
LINE
  5
FC
330
1F
100
AcDbEntity
  8
0
  6
Continuous
 62
     7
370
    25
100
AcDbLine
 10
8050.868952694
 20
3665.505636273
 30
0.0
 11
8051.4597525091
 21
3664.6988180912
 31
0.0
  0
LINE
  5
FD
330
1F
100
AcDbEntity
  8
0
  6
Continuous
 62
     7
370
    25
100
AcDbLine
 10
8200.7211161454
 20
3773.9967838793
 30
0.0
 11
8200.1303163304
 21
3774.8036020611
 31
0.0
  0
LINE
  5
FE
330
1F
100
AcDbEntity
  8
0
  6
Continuous
 62
     7
370
    25
100
AcDbLine
 10
8142.481609253
 20
4172.5898217474
 30
0.0
 11
8041.6293365257
 21
4098.7398448636
 31
0.0
  0
LINE
  5
FF
330
1F
100
AcDbEntity
  8
0
  6
Continuous
 62
     7
370
    25
100
AcDbLine
 10
8200.1303163304
 20
3774.8036020611
 30
0.0
 11
8352.2155436031
 21
3886.169367202
 31
0.0
  0
LINE
  5
100
330
1F
100
AcDbEntity
  8
0
  6
Continuous
 62
     7
370
    25
100
AcDbLine
 10
8041.6293365257
 20
3658.7398448636
 30
0.0
 11
8050.868952694
 21
3665.505636273
 31
0.0
  0
ARC
  5
101
330
1F
100
AcDbEntity
  8
0
  6
Continuous
 62
     7
370
    25
100
AcDbCircle
 10
8145.4356083283
 20
4168.5557308383
 30
0.0
 40
4.999999999999405
100
AcDbArc
 50
36.2137860673
 51
126.2137860673
  0
ARC
  5
102
330
1F
100
AcDbEntity
  8
0
  6
Continuous
 62
     7
370
    25
100
AcDbCircle
 10
8349.2615445277
 20
3890.2034581111
 30
0.0
 40
4.999999999999602
100
AcDbArc
 50
306.2137860673
 51
36.2137860673
  0
LWPOLYLINE
  5
103
330
1F
100
AcDbEntity
  8
0
  6
Continuous
 62
     7
370
    25
100
AcDbPolyline
 90
       36
 70
   128
 43
0.0
 10
8111.9305850321
 20
3732.3523901544
 10
8111.8019023286
 20
3732.4515142234
 10
8111.6874984207
 20
3732.586178377
 10
8111.6057910497
 20
3732.74435908
 10
8111.5576463339
 20
3732.9243795776
 10
8111.5435746194
 20
3733.1243316077
 10
8111.5637250698
 20
3733.342095629
 10
8111.6178840853
 20
3733.5753632889
 10
8111.7054775668
 20
3733.821661892
 10
8111.8255770018
 20
3734.0783806118
 10
8111.9769093062
 20
3734.3427981662
 10
8112.1578703201
 20
3734.6121116632
 10
8112.3665418116
 20
3734.8834663127
 10
8112.6007118111
 20
3735.153985688
 10
8112.8578980583
 20
3735.4208022164
 10
8113.1353743149
 20
3735.6810875764
 10
8113.4301992637
 20
3735.9320826782
 10
8113.7392476868
 20
3736.1711269116
 10
8114.0592435941
 20
3736.395686348
 10
8114.3867949493
 20
3736.6033806016
 10
8114.7184296267
 20
3736.7920080616
 10
8115.050632216
 20
3736.9595692301
 10
8115.3798812873
 20
3737.104287917
 10
8115.7026867184
 20
3737.2246300682
 10
8116.0156266916
 20
3737.3193200269
 10
8116.3153839651
 20
3737.387354056
 10
8116.5987810374
 20
3737.428010978
 10
8116.862813829
 20
3737.4408598193
 10
8117.1046835266
 20
3737.4257643789
 10
8117.3218262513
 20
3737.3828846724
 10
8117.5119402361
 20
3737.3126752353
 10
8117.6730102255
 20
3737.215880305
 10
8117.8033288375
 20
3737.093525932
 10
8117.9015146626
 20
3736.9469091029
 10
8117.9665269063
 20
3736.7775839928
 10
8117.9677069428
 20
3736.7731265592
  0
ARC
  5
104
330
1F
100
AcDbEntity
  8
0
  6
Continuous
 62
     7
370
    25
100
AcDbCircle
 10
8116.0308486243
 20
3734.1806098812
 30
0.0
 40
1.537820881855549
100
AcDbArc
 50
308.2016642824
 51
2.505789697
  0
LWPOLYLINE
  5
105
330
1F
100
AcDbEntity
  8
0
  6
Continuous
 62
     7
370
    25
100
AcDbPolyline
 90
        9
 70
   128
 43
0.0
 10
8116.5175797024
 20
3734.4958870871
 10
8116.7148783581
 20
3734.5437253704
 10
8116.8987862946
 20
3734.5689173146
 10
8117.066156796
 20
3734.5710318785
 10
8117.2141261068
 20
3734.5500328813
 10
8117.3401624309
 20
3734.5062796218
 10
8117.4421092519
 20
3734.4405207302
 10
8117.5182222315
 20
3734.3538813595
 10
8117.5671990554
 20
3734.2478439334
  0
ARC
  5
106
330
1F
100
AcDbEntity
  8
0
  6
Continuous
 62
     7
370
    25
100
AcDbCircle
 10
8117.7328459107
 20
3730.7481524721
 30
0.0
 40
3.939846025092199
100
AcDbArc
 50
107.9661615917
 51
136.3383297894
  0
ARC
  5
107
330
1F
100
AcDbEntity
  8
0
  6
Continuous
 62
     7
370
    25
100
AcDbCircle
 10
8115.8336828129
 20
3732.2597371565
 30
0.0
 40
1.537820881859083
100
AcDbArc
 50
128.2016642825
 51
182.5057896969
  0
LWPOLYLINE
  5
108
330
1F
100
AcDbEntity
  8
0
  6
Continuous
 62
     7
370
    25
100
AcDbPolyline
 90
        9
 70
   128
 43
0.0
 10
8115.3469517348
 20
3731.9444599506
 10
8115.1496530791
 20
3731.8966216673
 10
8114.9657451426
 20
3731.8714297231
 10
8114.7983746412
 20
3731.8693151592
 10
8114.6504053304
 20
3731.8903141564
 10
8114.5243690063
 20
3731.9340674159
 10
8114.4224221853
 20
3731.9998263075
 10
8114.3463092058
 20
3732.0864656782
 10
8114.2973323818
 20
3732.1925031043
  0
ARC
  5
109
330
1F
100
AcDbEntity
  8
0
  6
Continuous
 62
     7
370
    25
100
AcDbCircle
 10
8114.1316855265
 20
3735.6921945656
 30
0.0
 40
3.939846025096092
100
AcDbArc
 50
287.9661615917
 51
316.3383297893
  0
ARC
  5
10A
330
1F
100
AcDbEntity
  8
0
  6
Continuous
 62
     7
370
    25
100
AcDbCircle
 10
8116.7286596686
 20
3733.8401844532
 30
0.0
 40
0.6888401092580434
100
AcDbArc
 50
107.844102494
 51
143.9500989728
  0
ARC
  5
10B
330
1F
100
AcDbEntity
  8
0
  6
Continuous
 62
     7
370
    25
100
AcDbCircle
 10
8115.0204199394
 20
3735.0491419784
 30
0.0
 40
1.404014733395592
100
AcDbArc
 50
279.2184756899
 51
325.0860156912
  0
ARC
  5
10C
330
1F
100
AcDbEntity
  8
0
  6
Continuous
 62
     7
370
    25
100
AcDbCircle
 10
8115.339767719
 20
3733.0529212892
 30
0.0
 40
0.6176003457722183
100
AcDbArc
 50
98.7944825178
 51
137.744809796
  0
LWPOLYLINE
  5
10D
330
1F
100
AcDbEntity
  8
0
  6
Continuous
 62
     7
370
    25
100
AcDbPolyline
 90
        9
 70
   128
 43
0.0
 10
8114.8826463656
 20
3733.4682166726
 10
8114.8475687563
 20
3733.4285404377
 10
8114.8186241673
 20
3733.3887478649
 10
8114.7966169896
 20
3733.3499448184
 10
8114.7821588184
 20
3733.3132096625
 10
8114.7756514567
 20
3733.2795632936
 10
8114.7772757486
 20
3733.2499407684
 10
8114.786986554
 20
3733.225165318
 10
8114.8045140025
 20
3733.2059254701
  0
ARC
  5
10E
330
1F
100
AcDbEntity
  8
0
  6
Continuous
 62
     7
370
    25
100
AcDbCircle
 10
8116.0892438126
 20
3734.0430626818
 30
0.0
 40
0.4240670627149548
100
AcDbArc
 50
297.6954192934
 51
351.0293534489
  0
LWPOLYLINE
  5
10F
330
1F
100
AcDbEntity
  8
0
  6
Continuous
 62
     7
370
    25
100
AcDbPolyline
 90
        3
 70
   128
 43
0.0
 10
8115.1126719063
 20
3732.9870349157
 10
8115.1969194603
 20
3733.0940531603
 10
8115.2798196761
 20
3733.1802366914
  0
ARC
  5
110
330
1F
100
AcDbEntity
  8
0
  6
Continuous
 62
     7
370
    25
100
AcDbCircle
 10
8114.5722358486
 20
3733.3710951974
 30
0.0
 40
0.663003342676664
100
AcDbArc
 50
285.1359066864
 51
324.6005377159
  0
ARC
  5
111
330
1F
100
AcDbEntity
  8
0
  6
Continuous
 62
     7
370
    25
100
AcDbCircle
 10
8116.8192030125
 20
3734.1961677047
 30
0.0
 40
0.3957546263825173
100
AcDbArc
 50
132.8363507236
 51
200.2564411105
  0
LWPOLYLINE
  5
112
330
1F
100
AcDbEntity
  8
0
  6
Continuous
 62
     7
370
    25
100
AcDbPolyline
 90
        9
 70
   128
 43
0.0
 10
8114.8045140025
 20
3733.2059254701
 10
8114.8493405157
 20
3733.1526153037
 10
8114.8684293436
 20
3733.08169958
 10
8114.8609973328
 20
3732.9960877429
 10
8114.8273493949
 20
3732.8992921705
 10
8114.7688659966
 20
3732.7952840736
 10
8114.6879465234
 20
3732.6883305696
 10
8114.5879108408
 20
3732.5828196167
 10
8114.4728630909
 20
3732.4830799896
  0
ARC
  5
113
330
1F
100
AcDbEntity
  8
0
  6
Continuous
 62
     7
370
    25
100
AcDbCircle
 10
8114.6464356036
 20
3732.1799234457
 30
0.0
 40
0.349329797249507
100
AcDbArc
 50
119.7933281001
 51
177.9362847866
  0
LWPOLYLINE
  5
114
330
1F
100
AcDbEntity
  8
0
  6
Continuous
 62
     7
370
    25
100
AcDbPolyline
 90
        9
 70
   128
 43
0.0
 10
8116.7047450154
 20
3734.4003541044
 10
8116.7067971564
 20
3734.4319010994
 10
8116.7007143758
 20
3734.4589570181
 10
8116.6866657182
 20
3734.480769957
 10
8116.6650416059
 20
3734.496733719
 10
8116.6364429886
 20
3734.5064046596
 10
8116.6016646424
 20
3734.5095140166
 10
8116.5616730822
 20
3734.5059753787
 10
8116.5175797024
 20
3734.4958870871
  0
LWPOLYLINE
  5
115
330
1F
100
AcDbEntity
  8
0
  6
Continuous
 62
     7
370
    25
100
AcDbPolyline
 90
        9
 70
   128
 43
0.0
 10
8117.5671990554
 20
3734.2478439334
 10
8117.5553068517
 20
3734.2711625838
 10
8117.5357105194
 20
3734.2887828683
 10
8117.5089546544
 20
3734.3002151066
 10
8117.4757828214
 20
3734.3051415886
 10
8117.4371168894
 20
3734.3034254037
 10
8117.3940314125
 20
3734.2951142461
 10
8117.3477237668
 20
3734.2804390887
 10
8117.299480875
 20
3734.2598077646
  0
LWPOLYLINE
  5
116
330
1F
100
AcDbEntity
  8
0
  6
Continuous
 62
     7
370
    25
100
AcDbPolyline
 90
        9
 70
   128
 43
0.0
 10
8117.299480875
 20
3734.2598077646
 10
8117.1704068078
 20
3734.2060996864
 10
8117.0485667875
 20
3734.172146179
 10
8116.938959518
 20
3734.1593402455
 10
8116.8460818327
 20
3734.1682072721
 10
8116.7737442042
 20
3734.1983834732
 10
8116.7249144125
 20
3734.2486308166
 10
8116.7015957869
 20
3734.3168878153
 10
8116.7047450154
 20
3734.4003541044
  0
LWPOLYLINE
  5
117
330
1F
100
AcDbEntity
  8
0
  6
Continuous
 62
     7
370
    25
100
AcDbPolyline
 90
       24
 70
   128
 43
0.0
 10
8115.6362192344
 20
3733.2901344084
 10
8115.5496523198
 20
3733.1863423923
 10
8115.4914620906
 20
3733.0850594761
 10
8115.46596425
 20
3732.9937973504
 10
8115.4750498561
 20
3732.9193245095
 10
8115.5180450711
 20
3732.8671642633
 10
8115.5917611366
 20
3732.8411850987
 10
8115.6907308693
 20
3732.8433137715
 10
8115.8076141367
 20
3732.8733924077
 10
8115.9337422418
 20
3732.9291902125
 10
8116.0597608399
 20
3733.0065689179
 10
8116.176323708
 20
3733.0997896995
 10
8116.2747859117
 20
3733.2019387982
 10
8116.3478449595
 20
3733.3054402827
 10
8116.3900823961
 20
3733.4026179214
 10
8116.3983656642
 20
3733.4862644934
 10
8116.3720804316
 20
3733.5501763151
 10
8116.3131761537
 20
3733.5896133391
 10
8116.2260214914
 20
3733.6016507017
 10
8116.1170803073
 20
3733.5853956467
 10
8115.9944322706
 20
3733.5420537373
 10
8115.8671736251
 20
3733.4748394447
 10
8115.7447425625
 20
3733.3887377453
 10
8115.6362192344
 20
3733.2901344084
  0
LWPOLYLINE
  5
118
330
1F
100
AcDbEntity
  8
0
  6
Continuous
 62
     7
370
    25
100
AcDbPolyline
 90
        9
 70
   128
 43
0.0
 10
8114.2973323818
 20
3732.1925031043
 10
8114.3092245855
 20
3732.1691844539
 10
8114.3288209178
 20
3732.1515641694
 10
8114.3555767828
 20
3732.1401319311
 10
8114.3887486158
 20
3732.1352054491
 10
8114.4274145478
 20
3732.136921634
 10
8114.4705000247
 20
3732.1452327916
 10
8114.5168076704
 20
3732.159907949
 10
8114.5650505622
 20
3732.1805392731
  0
LWPOLYLINE
  5
119
330
1F
100
AcDbEntity
  8
0
  6
Continuous
 62
     7
370
    25
100
AcDbPolyline
 90
        9
 70
   128
 43
0.0
 10
8114.5650505622
 20
3732.1805392731
 10
8114.6941246294
 20
3732.2342473513
 10
8114.8159646497
 20
3732.2682008587
 10
8114.9255719192
 20
3732.2810067922
 10
8115.0184496045
 20
3732.2721397656
 10
8115.090787233
 20
3732.2419635645
 10
8115.1396170247
 20
3732.1917162211
 10
8115.1629356504
 20
3732.1234592224
 10
8115.1597864218
 20
3732.0399929333
  0
LWPOLYLINE
  5
11A
330
1F
100
AcDbEntity
  8
0
  6
Continuous
 62
     7
370
    25
100
AcDbPolyline
 90
        9
 70
   128
 43
0.0
 10
8115.1597864218
 20
3732.0399929333
 10
8115.1577342808
 20
3732.0084459383
 10
8115.1638170615
 20
3731.9813900196
 10
8115.177865719
 20
3731.9595770807
 10
8115.1994898313
 20
3731.9436133187
 10
8115.2280884486
 20
3731.9339423781
 10
8115.2628667949
 20
3731.9308330211
 10
8115.302858355
 20
3731.934371659
 10
8115.3469517348
 20
3731.9444599506
  0
ARC
  5
11B
330
1F
100
AcDbEntity
  8
0
  6
Continuous
 62
     7
370
    25
100
AcDbCircle
 10
8117.2180958336
 20
3734.260423592
 30
0.0
 40
0.3493297972494906
100
AcDbArc
 50
299.7933281001
 51
357.9362847867
  0
LWPOLYLINE
  5
11C
330
1F
100
AcDbEntity
  8
0
  6
Continuous
 62
     7
370
    25
100
AcDbPolyline
 90
        9
 70
   128
 43
0.0
 10
8117.0600174347
 20
3733.2344215676
 10
8117.0151909215
 20
3733.287731734
 10
8116.9961020936
 20
3733.3586474577
 10
8117.0035341044
 20
3733.4442592948
 10
8117.0371820423
 20
3733.5410548672
 10
8117.0956654406
 20
3733.6450629641
 10
8117.1765849139
 20
3733.7520164681
 10
8117.2766205964
 20
3733.857527421
 10
8117.3916683463
 20
3733.9572670481
  0
LWPOLYLINE
  5
11D
330
1F
100
AcDbEntity
  8
0
  6
Continuous
 62
     7
370
    25
100
AcDbPolyline
 90
        9
 70
   128
 43
0.0
 10
8116.9818850716
 20
3732.9721303651
 10
8117.0169626809
 20
3733.0118066
 10
8117.0459072699
 20
3733.0515991728
 10
8117.0679144476
 20
3733.0904022193
 10
8117.0823726188
 20
3733.1271373752
 10
8117.0888799805
 20
3733.1607837441
 10
8117.0872556886
 20
3733.1904062693
 10
8117.0775448833
 20
3733.2151817197
 10
8117.0600174347
 20
3733.2344215676
  0
ARC
  5
11E
330
1F
100
AcDbEntity
  8
0
  6
Continuous
 62
     7
370
    25
100
AcDbCircle
 10
8116.8441114978
 20
3731.3912050593
 30
0.0
 40
1.404014733395781
100
AcDbArc
 50
99.2184756899
 51
145.0860156912
  0
ARC
  5
11F
330
1F
100
AcDbEntity
  8
0
  6
Continuous
 62
     7
370
    25
100
AcDbCircle
 10
8116.5247637182
 20
3733.3874257485
 30
0.0
 40
0.6176003457893511
100
AcDbArc
 50
278.7944825182
 51
317.7448097953
  0
ARC
  5
120
330
1F
100
AcDbEntity
  8
0
  6
Continuous
 62
     7
370
    25
100
AcDbCircle
 10
8115.1358717687
 20
3732.6001625844
 30
0.0
 40
0.6888401092552161
100
AcDbArc
 50
287.8441024939
 51
323.9500989728
  0
LINE
  5
121
330
1F
100
AcDbEntity
  8
0
  6
Continuous
 62
     7
370
    25
100
AcDbLine
 10
8115.1126719063
 20
3732.9870349157
 30
0.0
 11
8115.6928022783
 21
3732.1947873218
 31
0.0
  0
LWPOLYLINE
  5
122
330
1F
100
AcDbEntity
  8
0
  6
Continuous
 62
     7
370
    25
100
AcDbPolyline
 90
      120
 70
   128
 43
0.0
 10
8200.7158847857
 20
3773.9959723556
 10
8200.7178688274
 20
3773.996279976
 10
8200.677843945
 20
3773.9900673026
 10
8200.592255597
 20
3773.9767638454
 10
8200.4608413614
 20
3773.9562969089
 10
8200.2839153536
 20
3773.9286586218
 10
8199.8612417972
 20
3773.8622607962
 10
8199.2990803879
 20
3773.7731011144
 10
8198.5939790985
 20
3773.6599315833
 10
8197.7519689152
 20
3773.5227785592
 10
8196.7614540565
 20
3773.3586381008
 10
8195.6365922694
 20
3773.1684840934
 10
8194.3722063891
 20
3772.9499371433
 10
8192.9795098123
 20
3772.7031915025
 10
8191.4608042233
 20
3772.4268102623
 10
8189.8222767198
 20
3772.1198622245
 10
8188.0574958412
 20
3771.7788724012
 10
8186.1809278077
 20
3771.4041417745
 10
8184.1732136934
 20
3770.9890032959
 10
8182.0611135787
 20
3770.5359332373
 10
8179.836848352
 20
3770.0401287009
 10
8177.5173405149
 20
3769.5019999236
 10
8174.9274069612
 20
3768.8747804525
 10
8172.2357886394
 20
3768.1923323387
 10
8170.8397930852
 20
3767.8256815075
 10
8169.421273011
 20
3767.4439767257
 10
8167.9787739948
 20
3767.0461670376
 10
8166.5153395293
 20
3766.6324148872
 10
8165.0246934503
 20
3766.2001991123
 10
8163.5146038907
 20
3765.7510042418
 10
8161.9834577937
 20
3765.283613315
 10
8160.4345285107
 20
3764.7982727751
 10
8158.8507298874
 20
3764.2886610535
 10
8157.2505457637
 20
3763.7597277886
 10
8155.6321372534
 20
3763.2100350132
 10
8153.9991559387
 20
3762.6399811169
 10
8152.3231827271
 20
3762.0383890478
 10
8150.6341293516
 20
3761.414700674
 10
8148.9298430715
 20
3760.767185345
 10
8147.2145450269
 20
3760.096507991
 10
8145.4792070888
 20
3759.3980613315
 10
8143.7349672106
 20
3758.6752472275
 10
8141.9793827737
 20
3757.9260655438
 10
8140.217214729
 20
3757.1515735107
 10
8138.4069219121
 20
3756.3317365457
 10
8136.5923343644
 20
3755.4846018766
 10
8134.7705295961
 20
3754.607753979
 10
8132.9471741964
 20
3753.7029113632
 10
8131.1101519524
 20
3752.7628289721
 10
8129.2744703646
 20
3751.7940040436
 10
8127.4368333631
 20
3750.7937146121
 10
8125.6035573619
 20
3749.7644976463
 10
8123.4970758616
 20
3748.5419214307
 10
8121.4002616605
 20
3747.2810743499
 10
8119.3164133218
 20
3745.9830246296
 10
8117.2295808941
 20
3744.6363307374
 10
8115.1595745628
 20
3743.252660019
 10
8113.1096586255
 20
3741.8337158914
 10
8111.5673160988
 20
3740.7329906636
 10
8110.0384382959
 20
3739.612987668
 10
8108.5204402492
 20
3738.4716945819
 10
8107.0176909207
 20
3737.3123792136
 10
8105.5070632081
 20
3736.116588075
 10
8104.013793286
 20
3734.9037878494
 10
8102.5351848906
 20
3733.6719368178
 10
8101.0754395086
 20
3732.4247931095
 10
8098.6152843662
 20
3730.2508752293
 10
8096.2152899438
 20
3728.0397429264
 10
8093.8627082987
 20
3725.7817235464
 10
8091.5752275348
 20
3723.496692367
 10
8089.3263697131
 20
3721.1605336572
 10
8087.1466463145
 20
3718.8080152689
 10
8085.024258088
 20
3716.4306254261
 10
8082.9725982803
 20
3714.0481413257
 10
8080.9107532951
 20
3711.5672011713
 10
8078.9251126246
 20
3709.0930429157
 10
8077.0043451263
 20
3706.6176839768
 10
8075.1591842129
 20
3704.1613690608
 10
8073.3693016633
 20
3701.7029368372
 10
8071.6547178218
 20
3699.2759841278
 10
8070.0057212128
 20
3696.8735923766
 10
8068.4306789397
 20
3694.5147996829
 10
8067.5937952806
 20
3693.2354377734
 10
8066.7789017757
 20
3691.972039587
 10
8065.9845804485
 20
3690.7235639291
 10
8065.2120144538
 20
3689.4930153135
 10
8064.4522366577
 20
3688.2670100604
 10
8063.7144601962
 20
3687.0613186269
 10
8062.9973764537
 20
3685.8749481226
 10
8062.302133984
 20
3684.7109257269
 10
8061.6252069493
 20
3683.5643972602
 10
8060.9701588574
 20
3682.4424326782
 10
8060.3358133723
 20
3681.3441098859
 10
8059.7232843252
 20
3680.2724258342
 10
8059.1252718993
 20
3679.2154988127
 10
8058.5495317888
 20
3678.1879185268
 10
8057.9949973128
 20
3677.1888255322
 10
8057.4627764276
 20
3676.2212291292
 10
8056.9658357027
 20
3675.3100250824
 10
8056.4900654206
 20
3674.43057894
 10
8056.0346210681
 20
3673.5821971808
 10
8055.6004682354
 20
3672.7675118276
 10
8055.1852096331
 20
3671.9828078074
 10
8054.7915719474
 20
3671.2339890257
 10
8054.4188455091
 20
3670.5204724824
 10
8054.0679276081
 20
3669.8447008397
 10
8053.7310648592
 20
3669.1923320233
 10
8053.4172171695
 20
3668.5812860862
 10
8053.1257985052
 20
3668.0110981593
 10
8052.8576362913
 20
3667.4840083358
 10
8052.6110995781
 20
3666.997390701
 10
8052.3882961776
 20
3666.5559302939
 10
8052.1888254927
 20
3666.1593447842
 10
8052.0133351956
 20
3665.8093677351
 10
8051.7723063982
 20
3665.3270624565
 10
8051.5993386347
 20
3664.9797846323
 10
8051.5383330334
 20
3664.8570686646
 10
8051.4947252161
 20
3664.7692727487
 10
8051.4684971866
 20
3664.716439769
 10
8051.4597525091
 20
3664.6988180912
  0
LWPOLYLINE
  5
123
330
1F
100
AcDbEntity
  8
0
  6
Continuous
 62
     7
370
    25
100
AcDbPolyline
 90
      110
 70
   128
 43
0.0
 10
8050.868952694
 20
3665.505636273
 10
8050.8843076903
 20
3665.5367696474
 10
8050.9303448841
 20
3665.630020347
 10
8051.0070225825
 20
3665.7851642366
 10
8051.1152828544
 20
3666.0039167824
 10
8051.2546055238
 20
3666.2848466935
 10
8051.4248678796
 20
3666.6272814193
 10
8051.6294122656
 20
3667.0374396315
 10
8051.8657768551
 20
3667.5096811479
 10
8052.1337650668
 20
3668.042883377
 10
8052.4357426681
 20
3668.6409413233
 10
8052.7697332917
 20
3669.2989408331
 10
8053.1354908342
 20
3670.015378155
 10
8053.7238105535
 20
3671.1587806853
 10
8054.3788747033
 20
3672.4188748651
 10
8055.1053836709
 20
3673.8005365967
 10
8055.899025645
 20
3675.2909238476
 10
8056.771128932
 20
3676.9061200953
 10
8057.7118891053
 20
3678.6222742509
 10
8058.7277214204
 20
3680.4452624193
 10
8059.8132594777
 20
3682.3592171485
 10
8061.0147310134
 20
3684.4371230222
 10
8062.2921695136
 20
3686.6005288495
 10
8063.6546730598
 20
3688.8568515346
 10
8065.0954967652
 20
3691.1865458754
 10
8066.2410730573
 20
3692.9983396457
 10
8067.4327021999
 20
3694.8456009657
 10
8068.6752001998
 20
3696.7318766215
 10
8069.9651096274
 20
3698.6479158857
 10
8071.7734972355
 20
3701.2633278031
 10
8072.7552377668
 20
3702.6493267715
 10
8073.7617442733
 20
3704.0460521261
 10
8074.7963206698
 20
3705.4565695644
 10
8075.8558041861
 20
3706.8750569364
 10
8076.9423973781
 20
3708.3029962429
 10
8078.0543607408
 20
3709.7366424817
 10
8079.2078698803
 20
3711.1948587294
 10
8080.3877836941
 20
3712.6565005316
 10
8081.5967082845
 20
3714.1232779798
 10
8082.8323768578
 20
3715.590953994
 10
8084.1133687791
 20
3717.0794946311
 10
8085.4219881095
 20
3718.5662522671
 10
8086.7613083621
 20
3720.0532138136
 10
8088.1283018924
 20
3721.5355790717
 10
8089.5289865102
 20
3723.018336343
 10
8090.9581713998
 20
3724.4944817169
 10
8092.7092989632
 20
3726.2538034882
 10
8094.4996592237
 20
3727.9980977689
 10
8096.3276554162
 20
3729.7240498229
 10
8098.2095676558
 20
3731.4445584976
 10
8100.1286329097
 20
3733.1422863143
 10
8102.0825492118
 20
3734.8139672485
 10
8104.3615102898
 20
3736.6936903875
 10
8106.6822855879
 20
3738.5335373509
 10
8109.0555387699
 20
3740.3404469902
 10
8111.4649978238
 20
3742.1011501013
 10
8113.1088523409
 20
3743.2612945046
 10
8114.7675907455
 20
3744.3993073336
 10
8117.5588075315
 20
3746.2428796497
 10
8120.3795996131
 20
3748.0189661438
 10
8123.2444282082
 20
3749.7374640921
 10
8126.1275110625
 20
3751.3845369593
 10
8129.0631871805
 20
3752.9808164507
 10
8132.0052968499
 20
3754.5029515447
 10
8134.9670969967
 20
3755.9605638892
 10
8137.9231603228
 20
3757.3444131002
 10
8140.8620289848
 20
3758.6533331188
 10
8143.7836184358
 20
3759.8917361067
 10
8146.6990220463
 20
3761.0680195149
 10
8149.5860170526
 20
3762.1770833562
 10
8152.470915111
 20
3763.2324693552
 10
8155.3162626596
 20
3764.224016151
 10
8158.1316346455
 20
3765.1590165459
 10
8160.8969560433
 20
3766.0347342195
 10
8163.8990945324
 20
3766.9397010508
 10
8166.1193514087
 20
3767.5796031042
 10
8168.294480257
 20
3768.1831941629
 10
8170.4290876279
 20
3768.7538596387
 10
8172.5126577427
 20
3769.2908332711
 10
8174.5641532053
 20
3769.8008001604
 10
8176.5577539241
 20
3770.2790992444
 10
8178.497595832
 20
3770.7286411682
 10
8180.3732641489
 20
3771.148855594
 10
8181.5959818155
 20
3771.4153246896
 10
8182.7880164822
 20
3771.6695552616
 10
8183.963743298
 20
3771.9150320544
 10
8185.1060411892
 20
3772.148596323
 10
8186.2173356743
 20
3772.3712330479
 10
8187.2925289599
 20
3772.5823976937
 10
8188.3326629048
 20
3772.782771714
 10
8189.3346800851
 20
3772.9722231424
 10
8190.3115912735
 20
3773.1535961225
 10
8191.2473387248
 20
3773.3242827357
 10
8192.1428421163
 20
3773.4848785712
 10
8192.995127315
 20
3773.6352550967
 10
8193.8153210125
 20
3773.777725783
 10
8194.58909577
 20
3773.9101364864
 10
8195.3172051562
 20
3774.0329842377
 10
8195.9969057799
 20
3774.1461469939
 10
8196.6300855132
 20
3774.2502608796
 10
8197.2131244511
 20
3774.3450271944
 10
8197.8290254274
 20
3774.4440033828
 10
8198.3739955679
 20
3774.5306066222
 10
8198.8467979339
 20
3774.6050034118
 10
8199.2495227124
 20
3774.6678559907
 10
8199.5774276753
 20
3774.7186654723
 10
8199.8297228495
 20
3774.7575321725
 10
8200.0248437079
 20
3774.7874712321
 10
8200.1201171976
 20
3774.8020433044
 10
8200.1177907397
 20
3774.8016893928
  0
LINE
  5
124
330
1F
100
AcDbEntity
  8
0
  6
Continuous
 62
     7
370
    25
100
AcDbLine
 10
8041.6293365257
 20
3658.7398448636
 30
0.0
 11
8041.6293365257
 21
4098.7398448636
 31
0.0
  0
LINE
  5
125
330
1F
100
AcDbEntity
  8
0
  6
Continuous
 62
     7
370
    25
100
AcDbLine
 10
8149.4696992374
 20
4171.5097299137
 30
0.0
 11
8353.2956354368
 21
3893.1574571864
 31
0.0
  0
LINE
  5
126
330
1F
100
AcDbEntity
  8
0
  6
Continuous
 62
     7
370
    25
100
AcDbLine
 10
8041.6293365257
 20
3988.3719139795
 30
0.0
 11
8041.5655713338
 21
3988.4165628475
 31
0.0
  0
LINE
  5
127
330
1F
100
AcDbEntity
  8
0
  6
Continuous
 62
     7
370
    25
100
AcDbLine
 10
8041.5655713338
 20
3988.4165628475
 30
0.0
 11
8041.6293365257
 21
3988.5076289793
 31
0.0
  0
LINE
  5
128
330
1F
100
AcDbEntity
  8
0
  6
Continuous
 62
     8
370
    25
100
AcDbLine
 10
8114.7803924304
 20
3733.2388667854
 30
0.0
 11
8114.8045140025
 21
3733.2059254701
 31
0.0
  0
LINE
  5
129
330
1F
100
AcDbEntity
  8
0
  6
Continuous
 62
     8
370
    25
100
AcDbLine
 10
8116.6258199763
 20
3734.5081370706
 30
0.0
 11
8116.7047450154
 21
3734.4003541044
 31
0.0
  0
LINE
  5
12A
330
1F
100
AcDbEntity
  8
0
  6
Continuous
 62
     8
370
    25
100
AcDbLine
 10
8114.3953326799
 20
3732.41231232
 30
0.0
 11
8114.5650505622
 21
3732.1805392731
 31
0.0
  0
LINE
  5
12B
330
1F
100
AcDbEntity
  8
0
  6
Continuous
 62
     8
370
    25
100
AcDbLine
 10
8117.2012074356
 20
3734.2173675453
 30
0.0
 11
8117.3916683463
 21
3733.9572670481
 31
0.0
  0
LINE
  5
12C
330
1F
100
AcDbEntity
  8
0
  6
Continuous
 62
     8
370
    25
100
AcDbLine
 10
8116.2922497535
 20
3733.2235669144
 30
0.0
 11
8116.6191890495
 21
3732.7770864626
 31
0.0
  0
LINE
  5
12D
330
1F
100
AcDbEntity
  8
0
  6
Continuous
 62
     8
370
    25
100
AcDbLine
 10
8352.2155436031
 20
3886.169367202
 30
0.0
 11
8142.481609253
 21
4172.5898217474
 31
0.0
  0
LWPOLYLINE
  5
12E
330
1F
100
AcDbEntity
  8
0
  6
Continuous
 62
     7
370
    25
100
AcDbPolyline
 90
      224
 70
   128
 43
0.0
 10
7489.8569161752
 20
3254.765160236
 10
7489.8751856864
 20
3253.5972539607
 10
7489.9340718853
 20
3252.08278734
 10
7490.0281319875
 20
3250.5690562593
 10
7490.1573501386
 20
3249.0563215941
 10
7490.3217088321
 20
3247.5448446519
 10
7490.5211887229
 20
3246.0348877841
 10
7490.7557683518
 20
3244.5267149691
 10
7491.0254237863
 20
3243.0205923553
 10
7491.3301281875
 20
3241.5167887533
 10
7491.6698513109
 20
3240.0155760687
 10
7492.0445589529
 20
3238.5172296663
 10
7492.4542123542
 20
3237.0220286597
 10
7492.8987675736
 20
3235.5302561216
 10
7493.3781748445
 20
3234.0421992105
 10
7493.892377928
 20
3232.5581492124
 10
7494.4413134753
 20
3231.0784014988
 10
7495.0249104118
 20
3229.6032554018
 10
7495.6430893553
 20
3228.1330140106
 10
7496.2957620778
 20
3226.6679838945
 10
7496.9828310215
 20
3225.2084747598
 10
7497.7041888751
 20
3223.7547990473
 10
7498.4597182178
 20
3222.3072714812
 10
7499.2492912341
 20
3220.8662085769
 10
7500.072769502
 20
3219.4319281195
 10
7500.9300038558
 20
3218.0047486228
 10
7501.8208343213
 20
3216.5849887772
 10
7502.7450901212
 20
3215.1729668995
 10
7503.7025897468
 20
3213.7690003897
 10
7504.6931410911
 20
3212.3734052055
 10
7505.7165416355
 20
3210.9864953614
 10
7506.7725786859
 20
3209.6085824573
 10
7507.8610296486
 20
3208.239975242
 10
7508.9816623404
 20
3206.8809792165
 10
7510.1342353238
 20
3205.5318962773
 10
7511.3184982625
 20
3204.1930244038
 10
7512.5341922879
 20
3202.8646573879
 10
7513.7810503721
 20
3201.5470846067
 10
7515.0587977008
 20
3200.240590837
 10
7516.3671520421
 20
3198.9454561089
 10
7517.7058241058
 20
3197.6619555966
 10
7519.0745178901
 20
3196.3903595435
 10
7520.4729310136
 20
3195.1309332182
 10
7521.900755029
 20
3193.8839368987
 10
7523.3576757179
 20
3192.6496258801
 10
7524.8433733657
 20
3191.428250504
 10
7526.3575230154
 20
3190.2200562056
 10
7527.8997947011
 20
3189.0252835748
 10
7529.469853661
 20
3187.8441684293
 10
7531.0673605306
 20
3186.6769418969
 10
7532.691971517
 20
3185.5238305034
 10
7534.3433385556
 20
3184.3850562656
 10
7536.0211094497
 20
3183.2608367857
 10
7537.7249279955
 20
3182.1513853469
 10
7539.4544340922
 20
3181.0569110079
 10
7541.2092638404
 20
3179.9776186945
 10
7542.9890437316
 20
3178.9137127643
 10
7544.7934013354
 20
3177.8653905262
 10
7546.6219622222
 20
3176.8328444775
 10
7548.474348462
 20
3175.8162633504
 10
7550.3501786752
 20
3174.8158321811
 10
7552.2490680788
 20
3173.831732372
 10
7554.1706285286
 20
3172.8641417496
 10
7556.1144685583
 20
3171.9132346144
 10
7558.0801934165
 20
3170.9791817869
 10
7560.0674051015
 20
3170.0621506468
 10
7562.0757023957
 20
3169.1623051671
 10
7564.1046808996
 20
3168.2798059428
 10
7566.1539330651
 20
3167.4148102153
 10
7568.2230482301
 20
3166.5674718909
 10
7570.3116126534
 20
3165.7379415565
 10
7572.4192095512
 20
3164.9263664896
 10
7574.5454191345
 20
3164.1328906658
 10
7576.689818648
 20
3163.3576547624
 10
7578.8519824118
 20
3162.6007961584
 10
7581.0314818634
 20
3161.8624489323
 10
7583.2278856034
 20
3161.1427438571
 10
7585.4407594417
 20
3160.4418083928
 10
7587.6696664469
 20
3159.7597666769
 10
7589.9141669977
 20
3159.0967395133
 10
7592.1738188362
 20
3158.4528443592
 10
7594.4481771231
 20
3157.8281953112
 10
7596.736794496
 20
3157.2229030897
 10
7599.0392211292
 20
3156.6370750228
 10
7601.355004795
 20
3156.0708150291
 10
7603.6836909288
 20
3155.5242235999
 10
7606.0248226938
 20
3154.9973977813
 10
7608.37794105
 20
3154.4904311555
 10
7610.7425848231
 20
3154.0034138224
 10
7613.1182907768
 20
3153.5364323807
 10
7615.5045936853
 20
3153.0895699096
 10
7617.9010264086
 20
3152.6629059502
 10
7620.3071199692
 20
3152.2565164873
 10
7622.7224036296
 20
3151.8704739318
 10
7625.1464049717
 20
3151.5048471032
 10
7627.578649978
 20
3151.1597012129
 10
7630.0186631134
 20
3150.835097848
 10
7632.465967408
 20
3150.5310949556
 10
7634.9200845419
 20
3150.247746828
 10
7637.3805349306
 20
3149.9851040884
 10
7639.8468378109
 20
3149.743213678
 10
7642.3185113285
 20
3149.5221188431
 10
7644.7950726261
 20
3149.3218591238
 10
7647.2760379319
 20
3149.1424703431
 10
7649.7609226494
 20
3148.9839845972
 10
7652.2492414476
 20
3148.8464302469
 10
7654.7405083513
 20
3148.7298319098
 10
7657.2342368329
 20
3148.6342104533
 10
7659.7299399033
 20
3148.5595829891
 10
7662.2271302044
 20
3148.5059628684
 10
7664.725320101
 20
3148.4733596785
 10
7667.2240217734
 20
3148.4617792397
 10
7669.7227473101
 20
3148.4712236047
 10
7672.2210076202
 20
3148.5016910379
 10
7674.7183134418
 20
3148.5531759899
 10
7677.2141771513
 20
3148.6256691444
 10
7679.7081114078
 20
3148.7191574225
 10
7682.1996292459
 20
3148.833623986
 10
7684.6882441674
 20
3148.9690482429
 10
7687.1734702338
 20
3149.1254058537
 10
7689.6548221577
 20
3149.3026687381
 10
7692.1318153941
 20
3149.5008050838
 10
7694.6039662308
 20
3149.7197793558
 10
7697.0707918791
 20
3149.9595523062
 10
7699.5318105631
 20
3150.2200809862
 10
7701.9865416082
 20
3150.5013187581
 10
7704.4345055301
 20
3150.8032153086
 10
7706.8752241212
 20
3151.125716663
 10
7709.3082205376
 20
3151.4687652002
 10
7711.733019384
 20
3151.8322996689
 10
7714.1491467987
 20
3152.2162552042
 10
7716.5561305363
 20
3152.6205633449
 10
7718.9535000499
 20
3153.0451520519
 10
7721.3407865721
 20
3153.4899457273
 10
7723.7175231941
 20
3153.9548652335
 10
7726.0832449439
 20
3154.4398279134
 10
7728.4374888625
 20
3154.9447476106
 10
7730.779794079
 20
3155.4695346906
 10
7733.1097018839
 20
3156.0140960614
 10
7735.4267558002
 20
3156.5783351952
 10
7737.7305016532
 20
3157.1621521493
 10
7740.0204876382
 20
3157.7654435875
 10
7742.2962643863
 20
3158.3881028012
 10
7744.5573850279
 20
3159.03001973
 10
7746.8034052545
 20
3159.6910809821
 10
7749.0338833776
 20
3160.3711698534
 10
7751.2483803867
 20
3161.0701663469
 10
7753.4464600031
 20
3161.7879471899
 10
7755.6276887334
 20
3162.5243858508
 10
7757.7916359191
 20
3163.2793525539
 10
7759.9378737847
 20
3164.0527142926
 10
7762.065977483
 20
3164.8443348413
 10
7764.1755251384
 20
3165.6540747641
 10
7766.2660978878
 20
3166.4817914215
 10
7768.337279919
 20
3167.3273389743
 10
7770.3886585073
 20
3168.1905683846
 10
7772.4198240501
 20
3169.0713274127
 10
7774.4303700993
 20
3169.9694606109
 10
7776.4198933923
 20
3170.8848093128
 10
7778.3879938819
 20
3171.8172116183
 10
7780.3342747641
 20
3172.7665023735
 10
7782.2583425065
 20
3173.7325131459
 10
7784.1598068752
 20
3174.7150721937
 10
7786.0382809628
 20
3175.7140044292
 10
7787.8933812157
 20
3176.7291313764
 10
7789.7247274647
 20
3177.7602711216
 10
7791.5319429555
 20
3178.8072382579
 10
7793.3146543837
 20
3179.8698438225
 10
7795.0724919327
 20
3180.9478952268
 10
7796.8050893159
 20
3182.0411961801
 10
7798.5120830498
 20
3183.1495460942
 10
7800.1931072822
 20
3184.2727363767
 10
7801.84780632
 20
3185.4105584293
 10
7803.4758282652
 20
3186.5627995383
 10
7805.0768251034
 20
3187.7292427667
 10
7806.6504528052
 20
3188.9096668427
 10
7808.1963714428
 20
3190.103846045
 10
7809.7142453212
 20
3191.3115500876
 10
7811.203743127
 20
3192.5325440039
 10
7812.6645380963
 20
3193.7665880336
 10
7814.0963082011
 20
3195.0134375136
 10
7815.4987363576
 20
3196.2728427763
 10
7816.8715106561
 20
3197.5445490573
 10
7818.2143246128
 20
3198.8282964162
 10
7819.5268774445
 20
3200.1238196732
 10
7820.8088743656
 20
3201.4308483658
 10
7822.0600269067
 20
3202.7491067292
 10
7823.2800532537
 20
3204.0783137027
 10
7824.4686786053
 20
3205.4181829691
 10
7825.6256355465
 20
3206.768423027
 10
7826.7506644351
 20
3208.1287373026
 10
7827.843513796
 20
3209.498824303
 10
7828.9039407205
 20
3210.8783778127
 10
7829.9317112623
 20
3212.2670871383
 10
7830.9266008269
 20
3213.6646373991
 10
7831.8883945457
 20
3215.0707098678
 10
7832.8168876272
 20
3216.4849823572
 10
7833.7118856794
 20
3217.9071296551
 10
7834.5732049937
 20
3219.3368240002
 10
7835.4006727839
 20
3220.7737355993
 10
7836.1941273717
 20
3222.2175331767
 10
7836.9534183124
 20
3223.6678845512
 10
7837.6784064553
 20
3225.1244572327
 10
7838.3689639318
 20
3226.5869190287
 10
7839.0249740694
 20
3228.0549386512
 10
7839.6463312287
 20
3229.5281863153
 10
7840.2329405621
 20
3231.0063343151
 10
7840.7847176969
 20
3232.4890575708
 10
7841.3015883442
 20
3233.9760341317
 10
7841.7834878405
 20
3235.4669456282
 10
7842.2303606267
 20
3236.9614776628
 10
7842.6421596754
 20
3238.4593201297
 10
7843.0188458747
 20
3239.9601674597
 10
7843.3603873801
 20
3241.4637187816
 10
7843.6667589485
 20
3242.9696779984
 10
7843.9379412645
 20
3244.4777537759
 10
7844.1739202755
 20
3245.9876594424
 10
7844.3746865471
 20
3247.499112804
 10
7844.5402346521
 20
3249.0118358758
 10
7844.6705626064
 20
3250.5255545366
 10
7844.7656713636
 20
3252.0399981131
 10
7844.8255643772
 20
3253.5548989021
 10
7844.8498249498
 20
3254.9900975543
 10
7844.8509592446
 20
3255.3747202108
  0
LINE
  5
12F
330
1F
100
AcDbEntity
  8
0
  6
Continuous
 62
     7
370
    25
100
AcDbLine
 10
7844.8509592446
 20
3255.3747202108
 30
0.0
 11
7844.8509592446
 21
3461.0939601132
 31
0.0
  0
LINE
  5
130
330
1F
100
AcDbEntity
  8
0
  6
Continuous
 62
     7
370
    25
100
AcDbLine
 10
7489.8509592446
 20
3461.0939601132
 30
0.0
 11
7489.8509592446
 21
3255.3747202108
 31
0.0
  0
LWPOLYLINE
  5
131
330
1F
100
AcDbEntity
  8
0
  6
Continuous
 62
     7
370
    25
100
AcDbPolyline
 90
      204
 70
   128
 43
0.0
 10
7522.3570370247
 20
3255.8003209267
 10
7522.366675247
 20
3256.5947389097
 10
7522.4175374475
 20
3257.8856165077
 10
7522.5035851705
 20
3259.1759273327
 10
7522.6247821143
 20
3260.4652639704
 10
7522.7810703541
 20
3261.753224306
 10
7522.9723715833
 20
3263.039414449
 10
7523.1985887661
 20
3264.3234512613
 10
7523.459608104
 20
3265.6049643905
 10
7523.7553012108
 20
3266.8835977515
 10
7524.085527382
 20
3268.1590104334
 10
7524.4501358557
 20
3269.4308770455
 10
7524.8489679702
 20
3270.698887545
 10
7525.2818591424
 20
3271.9627466113
 10
7525.748640609
 20
3273.2221726469
 10
7526.2491408934
 20
3274.4768964914
 10
7526.7831869795
 20
3275.726659938
 10
7527.3506051904
 20
3276.9712141328
 10
7527.9512217826
 20
3278.2103179335
 10
7528.5848632785
 20
3279.4437362882
 10
7529.2513565641
 20
3280.6712386868
 10
7529.9505287853
 20
3281.8925977227
 10
7530.682207078
 20
3283.1075877923
 10
7531.4462181638
 20
3284.3159839482
 10
7532.2423878459
 20
3285.5175609158
 10
7533.0705404332
 20
3286.7120922732
 10
7533.9304981194
 20
3287.8993497903
 10
7534.82208034
 20
3289.079102919
 10
7535.7451031257
 20
3290.2511184229
 10
7536.6993784681
 20
3291.4151601328
 10
7537.6847137099
 20
3292.5709888162
 10
7538.7009109697
 20
3293.7183621441
 10
7539.7477666062
 20
3294.8570347428
 10
7540.8250707294
 20
3295.9867583174
 10
7541.9326067594
 20
3297.107281834
 10
7543.0701510344
 20
3298.2183517504
 10
7544.2374724693
 20
3299.3197122838
 10
7545.4343322619
 20
3300.4111057077
 10
7546.6604836472
 20
3301.4922726691
 10
7547.9156716958
 20
3302.5629525204
 10
7549.1996331547
 20
3303.6228836582
 10
7550.5120963279
 20
3304.6718038662
 10
7551.8527809934
 20
3305.7094506564
 10
7553.2213983527
 20
3306.7355616061
 10
7554.6176510124
 20
3307.7498746877
 10
7556.0412329917
 20
3308.7521285891
 10
7557.4918297552
 20
3309.7420630231
 10
7558.9691182682
 20
3310.7194190246
 10
7560.4727670702
 20
3311.6839392347
 10
7562.002427356
 20
3312.6353626521
 10
7563.5577511537
 20
3313.5734364595
 10
7565.1383828415
 20
3314.4979104449
 10
7566.7439588259
 20
3315.4085369416
 10
7568.3741076769
 20
3316.3050710456
 10
7570.0284502719
 20
3317.1872708193
 10
7571.7065999465
 20
3318.0548974831
 10
7573.4081626516
 20
3318.9077155945
 10
7575.1327371143
 20
3319.7454932148
 10
7576.8799150033
 20
3320.5680020654
 10
7578.649281097
 20
3321.3750176724
 10
7580.4404134533
 20
3322.1663195018
 10
7582.2528835818
 20
3322.9416910846
 10
7584.0862566158
 20
3323.7009201332
 10
7585.9400914859
 20
3324.4437986489
 10
7587.8139410929
 20
3325.1701230223
 10
7589.7073524805
 20
3325.8796941256
 10
7591.619867008
 20
3326.5723173979
 10
7593.5510205218
 20
3327.2478029251
 10
7595.5003435256
 20
3327.9059655129
 10
7597.4673613504
 20
3328.5466247545
 10
7599.4515943225
 20
3329.1696050937
 10
7601.4525579305
 20
3329.7747358826
 10
7603.469762991
 20
3330.3618514353
 10
7605.5027158131
 20
3330.9307910777
 10
7607.5509183607
 20
3331.4813991933
 10
7609.6138684145
 20
3332.0135252656
 10
7611.6910597318
 20
3332.5270239173
 10
7613.7819822055
 20
3333.0217549469
 10
7615.886122021
 20
3333.4975833619
 10
7618.002961813
 20
3333.9543794103
 10
7620.1319808197
 20
3334.392018609
 10
7622.2726550369
 20
3334.8103817708
 10
7624.4244573706
 20
3335.2093550285
 10
7626.586857788
 20
3335.5888298579
 10
7628.7593234686
 20
3335.948703099
 10
7630.941318953
 20
3336.2888769748
 10
7633.1323062921
 20
3336.6092591098
 10
7635.3317451942
 20
3336.9097625458
 10
7637.5390931723
 20
3337.1903057576
 10
7639.7538056902
 20
3337.4508126665
 10
7641.9753363079
 20
3337.6912126528
 10
7644.2031368262
 20
3337.9114405678
 10
7646.4366574315
 20
3338.111436744
 10
7648.6753468391
 20
3338.2911470045
 10
7650.9186524365
 20
3338.4505226717
 10
7653.166020426
 20
3338.5895205745
 10
7655.4168959677
 20
3338.7081030554
 10
7657.6707233206
 20
3338.8062379757
 10
7659.9269459853
 20
3338.883898721
 10
7662.1850068447
 20
3338.941064205
 10
7664.4443483055
 20
3338.9777188728
 10
7666.7044124395
 20
3338.9938527037
 10
7668.964641124
 20
3338.9894612124
 10
7671.2244754664
 20
3338.9645454617
 10
7673.4833547476
 20
3338.9191121246
 10
7675.7407211163
 20
3338.8531734172
 10
7677.9960170962
 20
3338.7667470904
 10
7680.2486857259
 20
3338.659856428
 10
7682.4981707009
 20
3338.5325302435
 10
7684.7439165135
 20
3338.3848028764
 10
7686.985368595
 20
3338.2167141881
 10
7689.2219734566
 20
3338.0283095563
 10
7691.4531788314
 20
3337.8196398689
 10
7693.6784338164
 20
3337.5907615173
 10
7695.8971890148
 20
3337.3417363886
 10
7698.1088966792
 20
3337.0726318566
 10
7700.3130108544
 20
3336.7835207726
 10
7702.5089875217
 20
3336.4744814547
 10
7704.6962847431
 20
3336.145597676
 10
7706.8743628062
 20
3335.7969586524
 10
7709.04268437
 20
3335.4286590283
 10
7711.2007146113
 20
3335.0407988618
 10
7713.347921372
 20
3334.6334836089
 10
7715.483775307
 20
3334.2068241052
 10
7717.6077500335
 20
3333.7609365474
 10
7719.7193222805
 20
3333.2959424724
 10
7721.8179720405
 20
3332.8119687354
 10
7723.903182721
 20
3332.3091474855
 10
7725.9744412984
 20
3331.7876161401
 10
7728.031238472
 20
3331.2475173567
 10
7730.0730688205
 20
3330.6889990028
 10
7732.0994309588
 20
3330.1122141228
 10
7734.1098276969
 20
3329.5173209034
 10
7736.1037661999
 20
3328.9044826346
 10
7738.0807581498
 20
3328.2738676688
 10
7740.0403199085
 20
3327.6256493761
 10
7741.9819726827
 20
3326.9600060958
 10
7743.9052426901
 20
3326.2771210841
 10
7745.8096613273
 20
3325.5771824575
 10
7747.6947653393
 20
3324.8603831311
 10
7749.5600969902
 20
3324.1269207524
 10
7751.4052042355
 20
3323.3769976291
 10
7753.2296408958
 20
3322.6108206512
 10
7755.0329668314
 20
3321.8286012063
 10
7756.8147481178
 20
3321.0305550879
 10
7758.5745572221
 20
3320.2169023967
 10
7760.3119731799
 20
3319.387867433
 10
7762.0265817716
 20
3318.5436785807
 10
7763.7179756992
 20
3317.6845681819
 10
7765.3857547618
 20
3316.8107724015
 10
7767.0295260292
 20
3315.9225310807
 10
7768.648904014
 20
3315.0200875793
 10
7770.2435108402
 20
3314.1036886061
 10
7771.812976408
 20
3313.1735840363
 10
7773.356938554
 20
3312.230026715
 10
7774.8750432045
 20
3311.2732722475
 10
7776.3669445217
 20
3310.3035787739
 10
7777.8323050409
 20
3309.3212067293
 10
7779.2707913551
 20
3308.3264217078
 10
7780.6820778226
 20
3307.3194920821
 10
7782.0658524142
 20
3306.3006845538
 10
7783.4218119308
 20
3305.2702670652
 10
7784.7496620742
 20
3304.2285084806
 10
7786.0491174958
 20
3303.175678251
 10
7787.3199018218
 20
3302.1120460643
 10
7788.5617476506
 20
3301.0378814819
 10
7789.7743965203
 20
3299.9534535627
 10
7790.9575988428
 20
3298.859030478
 10
7792.1111138008
 20
3297.7548791191
 10
7793.2347092047
 20
3296.6412647022
 10
7794.3281613059
 20
3295.5184503735
 10
7795.3912545635
 20
3294.3866968219
 10
7796.4237813614
 20
3293.2462619043
 10
7797.4255416735
 20
3292.0974002913
 10
7798.3963426755
 20
3290.940363142
 10
7799.3359983015
 20
3289.7753978182
 10
7800.2443287462
 20
3288.6027476489
 10
7801.1211599141
 20
3287.4226517568
 10
7801.9663228183
 20
3286.2353449628
 10
7802.7796529353
 20
3285.04105778
 10
7803.5609895215
 20
3283.8400165155
 10
7804.3101749034
 20
3282.632443494
 10
7805.0270537543
 20
3281.4185574199
 10
7805.7114723739
 20
3280.1985738926
 10
7806.3632779927
 20
3278.9727060878
 10
7806.9823181238
 20
3277.7411656162
 10
7807.5684399918
 20
3276.5041635646
 10
7808.121490069
 20
3275.2619117206
 10
7808.641313754
 20
3274.0146239744
 10
7809.1277552276
 20
3272.7625178819
 10
7809.5806575223
 20
3271.5058163625
 10
7809.999862839
 20
3270.244749494
 10
7810.38521314
 20
3268.9795563528
 10
7810.7365510409
 20
3267.7104868372
 10
7811.0537210118
 20
3266.4378033954
 10
7811.3365708843
 20
3265.1617825755
 10
7811.5849536467
 20
3263.8827163037
 10
7811.7987294857
 20
3262.6009127997
 10
7811.9777680176
 20
3261.316697043
 10
7812.1219506299
 20
3260.0304107163
 10
7812.2311728372
 20
3258.7424115762
 10
7812.3053465462
 20
3257.453072226
 10
7812.3444021144
 20
3256.1627783055
 10
7812.3509592446
 20
3255.3747202108
  0
CIRCLE
  5
132
330
1F
100
AcDbEntity
  8
0
  6
Continuous
 62
     7
370
    25
100
AcDbCircle
 10
7667.3509592446
 20
3321.0939601132
 30
0.0
 40
5.0
  0
ARC
  5
133
330
1F
100
AcDbEntity
  8
0
  6
Continuous
 62
     7
370
    25
100
AcDbCircle
 10
7667.3509592446
 20
3321.0939601132
 30
0.0
 40
4.985548613686432
100
AcDbArc
 50
84.2441375389
 51
95.7558624611
  0
ARC
  5
134
330
1F
100
AcDbEntity
  8
0
  6
Continuous
 62
     7
370
    25
100
AcDbCircle
 10
7667.3509592446
 20
3321.0939601132
 30
0.0
 40
4.985548613686432
100
AcDbArc
 50
264.2441375389
 51
275.7558624611
  0
LINE
  5
135
330
1F
100
AcDbEntity
  8
0
  6
Continuous
 62
     7
370
    25
100
AcDbLine
 10
7667.8509592446
 20
3316.13354733
 30
0.0
 11
7667.8509592446
 21
3326.0543728963
 31
0.0
  0
LINE
  5
136
330
1F
100
AcDbEntity
  8
0
  6
Continuous
 62
     7
370
    25
100
AcDbLine
 10
7666.8509592446
 20
3326.0543728963
 30
0.0
 11
7666.8509592446
 21
3316.13354733
 31
0.0
  0
LWPOLYLINE
  5
137
330
1F
100
AcDbEntity
  8
0
  6
Continuous
 62
     7
370
    25
100
AcDbPolyline
 90
       39
 70
   128
 43
0.0
 10
7667.3509592446
 20
3299.4239513109
 10
7667.8501059433
 20
3299.468744762
 10
7668.3476459187
 20
3299.5878428423
 10
7668.8507657247
 20
3299.7934277619
 10
7669.3236115726
 20
3300.0827384637
 10
7669.7300729834
 20
3300.4361422664
 10
7670.077328751
 20
3300.8609981746
 10
7670.3398186012
 20
3301.3206013591
 10
7670.5255804647
 20
3301.8268042404
 10
7670.6213818189
 20
3302.3653583559
 10
7670.6169873577
 20
3302.9280623548
 10
7670.5170646392
 20
3303.453892951
 10
7670.3199383499
 20
3303.9710888993
 10
7670.0379257915
 20
3304.4375428421
 10
7669.6634873271
 20
3304.8640390115
 10
7669.2423105904
 20
3305.2057461275
 10
7668.7526353987
 20
3305.484084167
 10
7668.2338267529
 20
3305.6764458066
 10
7667.6718058124
 20
3305.7861677006
 10
7667.1206172928
 20
3305.8018116715
 10
7666.5581950424
 20
3305.7265684252
 10
7666.0403932237
 20
3305.5711912823
 10
7665.5435924828
 20
3305.3300588587
 10
7665.1052851966
 20
3305.0218668996
 10
7664.7157481525
 20
3304.6407401427
 10
7664.3972660348
 20
3304.2013597346
 10
7664.1547372485
 20
3303.7038360598
 10
7664.0065158713
 20
3303.1884111522
 10
7663.9515379597
 20
3302.6412339
 10
7663.9924469334
 20
3302.1090208571
 10
7664.1301480094
 20
3301.5759624475
 10
7664.3579037842
 20
3301.0802731172
 10
7664.6810623947
 20
3300.6146969447
 10
7665.0679937828
 20
3300.2247048208
 10
7665.5353432504
 20
3299.8940120926
 10
7666.023877684
 20
3299.6580174153
 10
7666.5625861127
 20
3299.4978284386
 10
7666.9515478591
 20
3299.4388751374
 10
7667.3509592446
 20
3299.4239513109
  0
LWPOLYLINE
  5
138
330
1F
100
AcDbEntity
  8
0
  6
Continuous
 62
     7
370
    25
100
AcDbPolyline
 90
       39
 70
   128
 43
0.0
 10
7686.6026758973
 20
3321.0892282308
 10
7686.6393944289
 20
3320.5893134746
 10
7686.748164554
 20
3320.0896019071
 10
7686.9394900974
 20
3319.5845339128
 10
7687.213272823
 20
3319.108513983
 10
7687.5470748201
 20
3318.6996433217
 10
7687.9485451603
 20
3318.3468624515
 10
7688.3924575943
 20
3318.0768866173
 10
7688.8846134373
 20
3317.8857939949
 10
7689.3895479488
 20
3317.7878886074
 10
7689.9169125649
 20
3317.7836685482
 10
7690.4275880001
 20
3317.8734463889
 10
7690.9313958989
 20
3318.0589865609
 10
7691.3960637879
 20
3318.3322023838
 10
7691.8238710128
 20
3318.6987313697
 10
7692.1703095562
 20
3319.1210874761
 10
7692.4517100004
 20
3319.6198384972
 10
7692.6358202221
 20
3320.1210037897
 10
7692.7448438523
 20
3320.6633760792
 10
7692.7690035569
 20
3321.2109656309
 10
7692.7073273832
 20
3321.7710165393
 10
7692.5636413837
 20
3322.2947088809
 10
7692.332407861
 20
3322.7982506874
 10
7692.0451270808
 20
3323.22797544
 10
7691.6895146946
 20
3323.6114595426
 10
7691.2747995138
 20
3323.9313502306
 10
7690.8052610494
 20
3324.1792307808
 10
7690.3069256845
 20
3324.337689275
 10
7689.776340681
 20
3324.4039117073
 10
7689.2574631902
 20
3324.3736173655
 10
7688.7359560899
 20
3324.2435488319
 10
7688.2593248782
 20
3324.0262918031
 10
7687.8099240346
 20
3323.7160831871
 10
7687.4246989937
 20
3323.336508528
 10
7687.0944236098
 20
3322.8772713445
 10
7686.8501842993
 20
3322.3851759252
 10
7686.6822890917
 20
3321.8381522649
 10
7686.6224807649
 20
3321.4689126336
 10
7686.6026758973
 20
3321.0892282308
  0
CIRCLE
  5
139
330
1F
100
AcDbEntity
  8
0
  6
Continuous
 62
     7
370
    25
100
AcDbCircle
 10
7661.6270927115
 20
3311.690656313
 30
0.0
 40
3.354724921155225
  0
CIRCLE
  5
13A
330
1F
100
AcDbEntity
  8
0
  6
Continuous
 62
     7
370
    25
100
AcDbCircle
 10
7678.8504373556
 20
3321.0976071767
 30
0.0
 40
3.378225665048776
  0
CIRCLE
  5
13B
330
1F
100
AcDbEntity
  8
0
  6
Continuous
 62
     7
370
    25
100
AcDbCircle
 10
7673.0500498471
 20
3311.6552873794
 30
0.0
 40
3.363534304454715
  0
LWPOLYLINE
  5
13C
330
1F
100
AcDbEntity
  8
0
  6
Continuous
 62
     7
370
    25
100
AcDbPolyline
 90
       39
 70
   128
 43
0.0
 10
7681.0244146334
 20
3311.7712532469
 10
7681.0521323225
 20
3311.2745314284
 10
7681.1514605752
 20
3310.7917242363
 10
7681.3442365127
 20
3310.2816476645
 10
7681.6175063232
 20
3309.8163636739
 10
7681.96785533
 20
3309.4055186814
 10
7682.3820774868
 20
3309.0641662552
 10
7682.8551915083
 20
3308.8010662192
 10
7683.3685099901
 20
3308.6259246136
 10
7683.9083391519
 20
3308.5447987116
 10
7684.458718165
 20
3308.5600656904
 10
7684.998112479
 20
3308.6710149948
 10
7685.5166609583
 20
3308.8738483853
 10
7685.9926816774
 20
3309.1610484011
 10
7686.4198654569
 20
3309.5245031646
 10
7686.7822660965
 20
3309.9516652007
 10
7687.0731263206
 20
3310.4322369601
 10
7687.2811622152
 20
3310.9444257442
 10
7687.40625902
 20
3311.4804181381
 10
7687.4432290402
 20
3312.0288518819
 10
7687.3930407437
 20
3312.571165625
 10
7687.2537524617
 20
3313.1002149003
 10
7687.0306310153
 20
3313.593258652
 10
7686.7264507028
 20
3314.0405364839
 10
7686.3520962525
 20
3314.4251428481
 10
7685.9136644749
 20
3314.7369617039
 10
7685.4273177589
 20
3314.9664707903
 10
7684.9006425495
 20
3315.1064131235
 10
7684.3536318296
 20
3315.1507177454
 10
7683.8092640309
 20
3315.0989731129
 10
7683.2759144483
 20
3314.9540334206
 10
7682.7702725471
 20
3314.7184028513
 10
7682.3056203092
 20
3314.3997932399
 10
7681.902367534
 20
3314.0095564453
 10
7681.565330837
 20
3313.5572408751
 10
7681.308710099
 20
3313.0689473041
 10
7681.1305016502
 20
3312.5481854751
 10
7681.0549249551
 20
3312.1617290631
 10
7681.0244146334
 20
3311.7712532469
  0
CIRCLE
  5
13D
330
1F
100
AcDbEntity
  8
0
  6
Continuous
 62
     7
370
    25
100
AcDbCircle
 10
7655.8598475636
 20
3321.0906947415
 30
0.0
 40
3.368709218792179
  0
LWPOLYLINE
  5
13E
330
1F
100
AcDbEntity
  8
0
  6
Continuous
 62
     7
370
    25
100
AcDbPolyline
 90
       39
 70
   128
 43
0.0
 10
7659.3523097801
 20
3302.67529914
 10
7659.307806238
 20
3303.1529749705
 10
7659.1913123562
 20
3303.6244462436
 10
7658.9705292143
 20
3304.1408979752
 10
7658.6612795857
 20
3304.6182763064
 10
7658.2958706197
 20
3305.0184085963
 10
7657.8708744437
 20
3305.3592583547
 10
7657.3954171377
 20
3305.6305513447
 10
7656.8853685412
 20
3305.8249549109
 10
7656.3548952431
 20
3305.9366159827
 10
7655.8190568314
 20
3305.9632699928
 10
7655.2897642074
 20
3305.9035694853
 10
7654.7837893124
 20
3305.7615506981
 10
7654.2996328436
 20
3305.5312854876
 10
7653.8674879147
 20
3305.2243865035
 10
7653.495128497
 20
3304.8439003822
 10
7653.1987700415
 20
3304.4041752
 10
7652.9874556349
 20
3303.9169509014
 10
7652.8657228032
 20
3303.3967710277
 10
7652.8399374221
 20
3302.852721813
 10
7652.9110520046
 20
3302.3053795605
 10
7653.075795144
 20
3301.7799397265
 10
7653.3297888525
 20
3301.2827268752
 10
7653.6562123323
 20
3300.8408828422
 10
7654.0514583564
 20
3300.4531028211
 10
7654.4991559849
 20
3300.1363685134
 10
7654.9900133673
 20
3299.8921238572
 10
7655.5101635172
 20
3299.7286892119
 10
7656.0449093632
 20
3299.6495075396
 10
7656.5762829811
 20
3299.6556889907
 10
7657.0930395269
 20
3299.7448073704
 10
7657.5960152589
 20
3299.922042009
 10
7658.0560774363
 20
3300.178279586
 10
7658.4690769541
 20
3300.5159678942
 10
7658.8131075985
 20
3300.9193111177
 10
7659.0803281383
 20
3301.380755879
 10
7659.2604378103
 20
3301.8844364763
 10
7659.3325024035
 20
3302.2751923725
 10
7659.3523097801
 20
3302.67529914
  0
LWPOLYLINE
  5
13F
330
1F
100
AcDbEntity
  8
0
  6
Continuous
 62
     7
370
    25
100
AcDbPolyline
 90
       39
 70
   128
 43
0.0
 10
7653.6355275785
 20
3311.8148960075
 10
7653.590419973
 20
3312.3145620183
 10
7653.4737789178
 20
3312.8057317548
 10
7653.2602586942
 20
3313.3288665103
 10
7652.9641637084
 20
3313.8104445629
 10
7652.6110850759
 20
3314.2183194343
 10
7652.2017379711
 20
3314.5648123694
 10
7651.7354021803
 20
3314.8458357418
 10
7651.2351559937
 20
3315.0465879381
 10
7650.7037795003
 20
3315.1627297262
 10
7650.1660901251
 20
3315.1871477119
 10
7649.6328794182
 20
3315.1179174948
 10
7649.1226122489
 20
3314.9587221517
 10
7648.6393720303
 20
3314.7057303155
 10
7648.2083699301
 20
3314.369973151
 10
7647.8438230769
 20
3313.961287197
 10
7647.5552476991
 20
3313.4903745606
 10
7647.3551404737
 20
3312.9809347067
 10
7647.2420368908
 20
3312.4392965858
 10
7647.2219505883
 20
3311.8812167162
 10
7647.2935308793
 20
3311.3223240839
 10
7647.4542318365
 20
3310.7867979863
 10
7647.6993430271
 20
3310.2824655739
 10
7648.0130129662
 20
3309.8351370156
 10
7648.3910639434
 20
3309.444092692
 10
7648.8253882364
 20
3309.1209659296
 10
7649.3009877239
 20
3308.872862375
 10
7649.8150002
 20
3308.7036007884
 10
7650.3441237221
 20
3308.6221941727
 10
7650.8855828516
 20
3308.631558402
 10
7651.413123532
 20
3308.733246446
 10
7651.9193583201
 20
3308.9300654466
 10
7652.3824735495
 20
3309.2131379534
 10
7652.7906711062
 20
3309.5792920149
 10
7653.1293615775
 20
3310.0154214319
 10
7653.3850142732
 20
3310.5015354963
 10
7653.5550756389
 20
3311.0299622065
 10
7653.6186238215
 20
3311.4185380662
 10
7653.6355275785
 20
3311.8148960075
  0
LWPOLYLINE
  5
140
330
1F
100
AcDbEntity
  8
0
  6
Continuous
 62
     7
370
    25
100
AcDbPolyline
 90
       39
 70
   128
 43
0.0
 10
7648.0901688935
 20
3321.0980203097
 10
7648.0534229085
 20
3321.5979193891
 10
7647.9443114456
 20
3322.0975829906
 10
7647.7521196665
 20
3322.5999934937
 10
7647.4753443888
 20
3323.0724588196
 10
7647.147505667
 20
3323.4665795138
 10
7646.756483111
 20
3323.80718304
 10
7646.3126574486
 20
3324.0774462046
 10
7645.8215589059
 20
3324.2702113143
 10
7645.3087869921
 20
3324.3726574031
 10
7644.7729776763
 20
3324.3804914309
 10
7644.2517848869
 20
3324.2917797917
 10
7643.7372470687
 20
3324.1022384674
 10
7643.2780414219
 20
3323.8288445599
 10
7642.8558888064
 20
3323.4625667625
 10
7642.515276315
 20
3323.0444991196
 10
7642.2375986689
 20
3322.5533211942
 10
7642.0512205852
 20
3322.0476602475
 10
7641.9428443118
 20
3321.4988593819
 10
7641.9226311015
 20
3320.9601395061
 10
7641.9871974034
 20
3320.4096976496
 10
7642.1305694926
 20
3319.8969173621
 10
7642.357882886
 20
3319.4041504504
 10
7642.6453662848
 20
3318.9749060515
 10
7643.0019009821
 20
3318.592453587
 10
7643.4131199907
 20
3318.2777922524
 10
7643.8779925367
 20
3318.0341860236
 10
7644.3738746356
 20
3317.876980883
 10
7644.9015983629
 20
3317.811347391
 10
7645.4218896281
 20
3317.8406604092
 10
7645.9449054484
 20
3317.967128057
 10
7646.4365195295
 20
3318.1860051176
 10
7646.9003371113
 20
3318.5030148862
 10
7647.2870651351
 20
3318.8845105004
 10
7647.6172521919
 20
3319.3481129685
 10
7647.8543438228
 20
3319.833555127
 10
7648.0158769763
 20
3320.372552868
 10
7648.071887906
 20
3320.7305179376
 10
7648.0901688935
 20
3321.0980203097
  0
LWPOLYLINE
  5
141
330
1F
100
AcDbEntity
  8
0
  6
Continuous
 62
     7
370
    25
100
AcDbPolyline
 90
       39
 70
   128
 43
0.0
 10
7647.220657816
 20
3330.2318059125
 10
7647.246389042
 20
3329.7349862386
 10
7647.3435733195
 20
3329.2518116373
 10
7647.5360922967
 20
3328.7397533592
 10
7647.8118444803
 20
3328.2742537651
 10
7648.1540951683
 20
3327.8777316699
 10
7648.5562149848
 20
3327.5464472337
 10
7649.0297556824
 20
3327.2791731292
 10
7649.5437771206
 20
3327.098834087
 10
7650.0926436148
 20
3327.0115426472
 10
7650.653063688
 20
3327.0231089449
 10
7651.1987276569
 20
3327.132258177
 10
7651.7234073602
 20
3327.3354643986
 10
7652.1992789311
 20
3327.6218934305
 10
7652.6261045344
 20
3327.9850080723
 10
7652.9862343674
 20
3328.40918627
 10
7653.2755670325
 20
3328.8862908578
 10
7653.4834156884
 20
3329.3975607208
 10
7653.6073713831
 20
3329.9328757489
 10
7653.6417594373
 20
3330.4739937062
 10
7653.590054853
 20
3331.0088207803
 10
7653.4513054986
 20
3331.52948541
 10
7653.2306812284
 20
3332.0147614659
 10
7652.9290719745
 20
3332.4581754342
 10
7652.5589180794
 20
3332.8404293887
 10
7652.1193496276
 20
3333.1558777098
 10
7651.6314353242
 20
3333.3886984192
 10
7651.1028159994
 20
3333.53187641
 10
7650.5534716182
 20
3333.5790845779
 10
7650.0053480699
 20
3333.5293159225
 10
7649.468067561
 20
3333.3851559692
 10
7648.9606446245
 20
3333.1499836486
 10
7648.4943371227
 20
3332.8310447097
 10
7648.0912389745
 20
3332.4422016736
 10
7647.7541442321
 20
3331.9912603682
 10
7647.4983612792
 20
3331.5039481798
 10
7647.3220198272
 20
3330.983898501
 10
7647.2501914899
 20
3330.6097117583
 10
7647.220657816
 20
3330.2318059125
  0
CIRCLE
  5
142
330
1F
100
AcDbEntity
  8
0
  6
Continuous
 62
     7
370
    25
100
AcDbCircle
 10
7661.5901871532
 20
3330.411746586
 30
0.0
 40
3.359350049446756
  0
CIRCLE
  5
143
330
1F
100
AcDbEntity
  8
0
  6
Continuous
 62
     7
370
    25
100
AcDbCircle
 10
7673.0897570675
 20
3330.4226868725
 30
0.0
 40
3.358540468794606
  0
LWPOLYLINE
  5
144
330
1F
100
AcDbEntity
  8
0
  6
Continuous
 62
     7
370
    25
100
AcDbPolyline
 90
       39
 70
   128
 43
0.0
 10
7687.4576027865
 20
3330.2847331139
 10
7687.4064807442
 20
3330.7839206296
 10
7687.2842598584
 20
3331.2737958906
 10
7687.0646401416
 20
3331.7967197147
 10
7686.7632729628
 20
3332.27745103
 10
7686.4034005234
 20
3332.6867563063
 10
7685.9872513451
 20
3333.0335207315
 10
7685.5139181001
 20
3333.3131805734
 10
7685.0068665319
 20
3333.5106967005
 10
7684.4732418628
 20
3333.6204869573
 10
7683.9343984715
 20
3333.6372796367
 10
7683.4065496644
 20
3333.560714752
 10
7682.9026218715
 20
3333.395129346
 10
7682.4262682428
 20
3333.1370845025
 10
7682.0023336166
 20
3332.7980493846
 10
7681.6427434066
 20
3332.3838122772
 10
7681.3599613014
 20
3331.9081298512
 10
7681.166247742
 20
3331.3960365172
 10
7681.0590889305
 20
3330.8529715977
 10
7681.0437957605
 20
3330.2904993975
 10
7681.1206056499
 20
3329.7281130161
 10
7681.2876714913
 20
3329.1889232192
 10
7681.5401804964
 20
3328.6823496543
 10
7681.8592979257
 20
3328.2367470308
 10
7682.2415971115
 20
3327.8473149319
 10
7682.6866602413
 20
3327.520454513
 10
7683.1737323937
 20
3327.2712779465
 10
7683.6948978727
 20
3327.1066629552
 10
7684.2305176622
 20
3327.0335270398
 10
7684.7617659162
 20
3327.0527746634
 10
7685.2780467397
 20
3327.1612982387
 10
7685.7788029277
 20
3327.3648094813
 10
7686.2353648036
 20
3327.6535794106
 10
7686.6360775641
 20
3328.0233267148
 10
7686.9674714917
 20
3328.4610942703
 10
7687.2186532977
 20
3328.9517576466
 10
7687.3842615132
 20
3329.4837114883
 10
7687.4451182528
 20
3329.880428583
 10
7687.4576027865
 20
3330.2847331139
  0
LWPOLYLINE
  5
145
330
1F
100
AcDbEntity
  8
0
  6
Continuous
 62
     7
370
    25
100
AcDbPolyline
 90
       39
 70
   128
 43
0.0
 10
7675.2301630643
 20
3302.6229950725
 10
7675.254737629
 20
3302.1495426789
 10
7675.3500120704
 20
3301.6895142735
 10
7675.550359441
 20
3301.1826146792
 10
7675.8420766576
 20
3300.7237671232
 10
7676.1997405728
 20
3300.3431645612
 10
7676.6215592419
 20
3300.0284723352
 10
7677.1096067765
 20
3299.7843357456
 10
7677.6397383934
 20
3299.626301562
 10
7678.1912363906
 20
3299.562198378
 10
7678.7531419736
 20
3299.5920087248
 10
7679.287389776
 20
3299.7093733681
 10
7679.8002500197
 20
3299.9097215355
 10
7680.2748836121
 20
3300.1883765859
 10
7680.7005618507
 20
3300.5358271317
 10
7681.0653325137
 20
3300.943805073
 10
7681.3586614425
 20
3301.3995837301
 10
7681.5725850747
 20
3301.8898564271
 10
7681.7030468404
 20
3302.401093896
 10
7681.7452023766
 20
3302.9325860951
 10
7681.6969722882
 20
3303.4572548872
 10
7681.5550280587
 20
3303.9722918253
 10
7681.3244574612
 20
3304.4513215858
 10
7681.0076575864
 20
3304.8841580352
 10
7680.6153758345
 20
3305.2537578696
 10
7680.1628105368
 20
3305.5447771911
 10
7679.6601046476
 20
3305.7548248374
 10
7679.1237324512
 20
3305.8749084874
 10
7678.56703046
 20
3305.9034040665
 10
7678.0192682392
 20
3305.8405073974
 10
7677.483956755
 20
3305.6890831129
 10
7676.9893358527
 20
3305.4586936179
 10
7676.5350124699
 20
3305.155527039
 10
7676.1306901384
 20
3304.7825468745
 10
7675.791328979
 20
3304.3545247462
 10
7675.5249727169
 20
3303.8812777539
 10
7675.3406898118
 20
3303.3779281995
 10
7675.2623351467
 20
3303.0019706334
 10
7675.2301630643
 20
3302.6229950725
  0
ARC
  5
146
330
1F
100
AcDbEntity
  8
0
  6
Continuous
 62
     7
370
    25
100
AcDbCircle
 10
7694.882999464
 20
3312.0280804908
 30
0.0
 40
3.25240943851725
100
AcDbArc
 50
76.7456303106
 51
246.8225555804
  0
LWPOLYLINE
  5
147
330
1F
100
AcDbEntity
  8
0
  6
Continuous
 62
     7
370
    25
100
AcDbPolyline
 90
        5
 70
   128
 43
0.0
 10
7693.6029160136
 20
3309.0381718775
 10
7695.2088292518
 20
3308.5332509739
 10
7696.7764142542
 20
3308.0348723733
 10
7698.4430875663
 20
3307.5208585376
 10
7700.0575068304
 20
3307.0118939666
  0
ARC
  5
148
330
1F
100
AcDbEntity
  8
0
  6
Continuous
 62
     7
370
    25
100
AcDbCircle
 10
7667.3509592446
 20
3321.0939601132
 30
0.0
 40
35.60930836081018
100
AcDbArc
 50
325.5046674778
 51
336.7053179558
  0
LWPOLYLINE
  5
149
330
1F
100
AcDbEntity
  8
0
  6
Continuous
 62
     7
370
    25
100
AcDbPolyline
 90
        5
 70
   128
 43
0.0
 10
7696.6991657777
 20
3300.9270164868
 10
7695.5293811902
 20
3301.9401544203
 10
7694.3172062068
 20
3302.9759369738
 10
7692.7958838033
 20
3304.2862824662
 10
7691.2202377418
 20
3305.6322154498
  0
ARC
  5
14A
330
1F
100
AcDbEntity
  8
0
  6
Continuous
 62
     7
370
    25
100
AcDbCircle
 10
7689.3665371791
 20
3302.9587122728
 30
0.0
 40
3.253279111382975
100
AcDbArc
 50
55.264104469
 51
225.8953401849
  0
LWPOLYLINE
  5
14B
330
1F
100
AcDbEntity
  8
0
  6
Continuous
 62
     7
370
    25
100
AcDbPolyline
 90
        5
 70
   128
 43
0.0
 10
7687.1023486096
 20
3300.622631132
 10
7688.4237477369
 20
3299.5632805366
 10
7689.7104741046
 20
3298.5214726354
 10
7691.2451820421
 20
3297.2994994764
 10
7692.725066538
 20
3296.1104151085
  0
ARC
  5
14C
330
1F
100
AcDbEntity
  8
0
  6
Continuous
 62
     7
370
    25
100
AcDbCircle
 10
7667.3509592446
 20
3321.0939601132
 30
0.0
 40
35.60930836081005
100
AcDbArc
 50
306.1498929386
 51
315.444363887
  0
ARC
  5
14D
330
1F
100
AcDbEntity
  8
0
  6
Continuous
 62
     7
370
    25
100
AcDbCircle
 10
7643.4133617905
 20
3269.0954673276
 30
0.0
 40
50.59882610995464
100
AcDbArc
 50
27.3480303626
 51
32.3674937525
  0
ARC
  5
14E
330
1F
100
AcDbEntity
  8
0
  6
Continuous
 62
     7
370
    25
100
AcDbCircle
 10
7683.5882153426
 20
3294.2426026491
 30
0.0
 40
3.214551867729611
100
AcDbArc
 50
37.1399207316
 51
205.2824652608
  0
ARC
  5
14F
330
1F
100
AcDbEntity
  8
0
  6
Continuous
 62
     7
370
    25
100
AcDbCircle
 10
7644.2887514636
 20
3267.6323042321
 30
0.0
 40
44.28730241311276
100
AcDbArc
 50
29.0183162726
 51
34.7402460301
  0
ARC
  5
150
330
1F
100
AcDbEntity
  8
0
  6
Continuous
 62
     7
370
    25
100
AcDbCircle
 10
7667.3509592446
 20
3321.0939601132
 30
0.0
 40
35.60930836081069
100
AcDbArc
 50
286.1791383079
 51
296.0991835931
  0
LWPOLYLINE
  5
151
330
1F
100
AcDbEntity
  8
0
  6
Continuous
 62
     7
370
    25
100
AcDbPolyline
 90
        6
 70
   128
 43
0.0
 10
7677.27318819
 20
3286.8949511408
 10
7677.0126247413
 20
3288.4205456488
 10
7676.7379695542
 20
3289.9914712862
 10
7676.5348647164
 20
3291.1513022153
 10
7676.3305193234
 20
3292.3338935174
 10
7675.8916200919
 20
3294.7618540677
  0
ARC
  5
152
330
1F
100
AcDbEntity
  8
0
  6
Continuous
 62
     7
370
    25
100
AcDbCircle
 10
7672.7576309769
 20
3293.8941520964
 30
0.0
 40
3.251890902621012
100
AcDbArc
 50
15.4757203108
 51
187.0721739055
  0
LWPOLYLINE
  5
153
330
1F
100
AcDbEntity
  8
0
  6
Continuous
 62
     7
370
    25
100
AcDbPolyline
 90
        5
 70
   128
 43
0.0
 10
7669.530480952
 20
3293.4937808197
 10
7669.87694293
 20
3291.8188778949
 10
7670.2200530615
 20
3290.1806806166
 10
7670.7002906641
 20
3287.8928412942
 10
7671.1646184804
 20
3285.6894569368
  0
ARC
  5
154
330
1F
100
AcDbEntity
  8
0
  6
Continuous
 62
     7
370
    25
100
AcDbCircle
 10
7667.3509592446
 20
3321.0939601132
 30
0.0
 40
35.60930836081053
100
AcDbArc
 50
263.1349337177
 51
276.1480119903
  0
LWPOLYLINE
  5
155
330
1F
100
AcDbEntity
  8
0
  6
Continuous
 62
     7
370
    25
100
AcDbPolyline
 90
        6
 70
   128
 43
0.0
 10
7663.0945243456
 20
3285.7399560417
 10
7663.4474262276
 20
3287.2465017486
 10
7663.8216801619
 20
3288.7972240783
 10
7664.0874132964
 20
3289.9434910691
 10
7664.3550758061
 20
3291.1122544676
 10
7664.9093515175
 20
3293.5150834216
  0
ARC
  5
156
330
1F
100
AcDbEntity
  8
0
  6
Continuous
 62
     7
370
    25
100
AcDbCircle
 10
7661.6914453797
 20
3293.9485426829
 30
0.0
 40
3.246968863884223
100
AcDbArc
 50
352.3283079127
 51
164.0376295632
  0
LWPOLYLINE
  5
157
330
1F
100
AcDbEntity
  8
0
  6
Continuous
 62
     7
370
    25
100
AcDbPolyline
 90
        5
 70
   128
 43
0.0
 10
7658.569671469
 20
3294.8414785429
 10
7658.2320489219
 20
3293.1647331951
 10
7657.9088116998
 20
3291.5223431838
 10
7657.4518643355
 20
3289.2282944099
 10
7657.0123649835
 20
3287.01850985
  0
ARC
  5
158
330
1F
100
AcDbEntity
  8
0
  6
Continuous
 62
     7
370
    25
100
AcDbCircle
 10
7667.3509592446
 20
3321.0939601132
 30
0.0
 40
35.60930836081086
100
AcDbArc
 50
243.2448209888
 51
253.1220445981
  0
ARC
  5
159
330
1F
100
AcDbEntity
  8
0
  6
Continuous
 62
     7
370
    25
100
AcDbCircle
 10
7243.7876848093
 20
3558.3266875676
 30
0.0
 40
488.323513971142
100
AcDbArc
 50
326.5695037068
 51
327.089144266
  0
ARC
  5
15A
330
1F
100
AcDbEntity
  8
0
  6
Continuous
 62
     7
370
    25
100
AcDbCircle
 10
7650.8742336218
 20
3294.4080566251
 30
0.0
 40
3.194352940677113
100
AcDbArc
 50
333.9283093111
 51
142.5764809405
  0
ARC
  5
15B
330
1F
100
AcDbEntity
  8
0
  6
Continuous
 62
     7
370
    25
100
AcDbCircle
 10
7591.0945334771
 20
3328.2046460092
 30
0.0
 40
65.50961376224303
100
AcDbArc
 50
327.0304947476
 51
330.9042718822
  0
ARC
  5
15C
330
1F
100
AcDbEntity
  8
0
  6
Continuous
 62
     7
370
    25
100
AcDbCircle
 10
7667.3509592446
 20
3321.0939601132
 30
0.0
 40
35.60930836081115
100
AcDbArc
 50
224.0550458215
 51
233.2690069799
  0
LWPOLYLINE
  5
15D
330
1F
100
AcDbEntity
  8
0
  6
Continuous
 62
     7
370
    25
100
AcDbPolyline
 90
        5
 70
   128
 43
0.0
 10
7641.7595432258
 20
3296.3330581084
 10
7642.9817939222
 20
3297.2818888757
 10
7644.2409680459
 20
3298.2603197291
 10
7645.8207934805
 20
3299.49262068
 10
7647.4502444014
 20
3300.7660171894
  0
ARC
  5
15E
330
1F
100
AcDbEntity
  8
0
  6
Continuous
 62
     7
370
    25
100
AcDbCircle
 10
7645.2279533382
 20
3303.1097492217
 30
0.0
 40
3.229807636593259
100
AcDbArc
 50
313.4764845378
 51
124.8175811384
  0
LWPOLYLINE
  5
15F
330
1F
100
AcDbEntity
  8
0
  6
Continuous
 62
     7
370
    25
100
AcDbPolyline
 90
        5
 70
   128
 43
0.0
 10
7643.383844577
 20
3305.7613374714
 10
7642.0846295033
 20
3304.6751382044
 10
7640.8121658256
 20
3303.6160166424
 10
7639.3119504888
 20
3302.3561162915
 10
7637.8593862165
 20
3301.1372579241
  0
ARC
  5
160
330
1F
100
AcDbEntity
  8
0
  6
Continuous
 62
     7
370
    25
100
AcDbCircle
 10
7667.3509592446
 20
3321.0939601132
 30
0.0
 40
35.60930836081085
100
AcDbArc
 50
203.0029632117
 51
214.0858851768
  0
LWPOLYLINE
  5
161
330
1F
100
AcDbEntity
  8
0
  6
Continuous
 62
     7
370
    25
100
AcDbPolyline
 90
        5
 70
   128
 43
0.0
 10
7634.5731376984
 20
3307.1785996572
 10
7636.0527353185
 20
3307.6304153573
 10
7637.5788375767
 20
3308.0926539757
 10
7639.2815564279
 20
3308.6162418542
 10
7641.0329207221
 20
3309.1555102818
  0
ARC
  5
162
330
1F
100
AcDbEntity
  8
0
  6
Continuous
 62
     7
370
    25
100
AcDbCircle
 10
7639.8014952932
 20
3312.1293617745
 30
0.0
 40
3.218726650332
100
AcDbArc
 50
292.4936833507
 51
103.6189790901
  0
LWPOLYLINE
  5
163
330
1F
100
AcDbEntity
  8
0
  6
Continuous
 62
     7
370
    25
100
AcDbPolyline
 90
        5
 70
   128
 43
0.0
 10
7639.0436008612
 20
3315.2575876737
 10
7637.4497446097
 20
3314.7156173596
 10
7635.8936002443
 20
3314.181513461
 10
7634.2519734627
 20
3313.6158986275
 10
7632.6584617846
 20
3313.0656687683
  0
ARC
  5
164
330
1F
100
AcDbEntity
  8
0
  6
Continuous
 62
     7
370
    25
100
AcDbCircle
 10
7667.3509592446
 20
3321.0939601132
 30
0.0
 40
35.60930836081119
100
AcDbArc
 50
184.9749121915
 51
193.0296265274
  0
LWPOLYLINE
  5
165
330
1F
100
AcDbEntity
  8
0
  6
Continuous
 62
     7
370
    25
100
AcDbPolyline
 90
        3
 70
   128
 43
0.0
 10
7631.8757995155
 20
3318.0059374236
 10
7633.4884331051
 20
3317.9735371413
 10
7635.1522534313
 20
3317.9489223724
  0
ARC
  5
166
330
1F
100
AcDbEntity
  8
0
  6
Continuous
 62
     7
370
    25
100
AcDbCircle
 10
7634.8111323398
 20
3321.1030646592
 30
0.0
 40
3.172534812848066
100
AcDbArc
 50
276.1725602545
 51
83.8192517399
  0
LWPOLYLINE
  5
167
330
1F
100
AcDbEntity
  8
0
  6
Continuous
 62
     7
370
    25
100
AcDbPolyline
 90
        3
 70
   128
 43
0.0
 10
7635.1527042807
 20
3324.2571581499
 10
7633.4914370298
 20
3324.2227885198
 10
7631.876921552
 20
3324.1948457475
  0
ARC
  5
168
330
1F
100
AcDbEntity
  8
0
  6
Continuous
 62
     7
370
    25
100
AcDbCircle
 10
7667.3509592446
 20
3321.0939601132
 30
0.0
 40
35.60930836081107
100
AcDbArc
 50
166.9466647236
 51
175.0043125929
  0
ARC
  5
169
330
1F
100
AcDbEntity
  8
0
  6
Continuous
 62
     7
370
    25
100
AcDbCircle
 10
7713.2036663877
 20
3552.7859622595
 30
0.0
 40
237.7099677116945
100
AcDbArc
 50
250.1947484129
 51
251.8212981979
  0
ARC
  5
16A
330
1F
100
AcDbEntity
  8
0
  6
Continuous
 62
     7
370
    25
100
AcDbCircle
 10
7639.7991287207
 20
3330.0731858875
 30
0.0
 40
3.222714364719549
100
AcDbArc
 50
256.421166287
 51
67.337655264
  0
LWPOLYLINE
  5
16B
330
1F
100
AcDbEntity
  8
0
  6
Continuous
 62
     7
370
    25
100
AcDbPolyline
 90
        5
 70
   128
 43
0.0
 10
7641.040839474
 20
3333.0470793422
 10
7639.4314400262
 20
3333.5406846984
 10
7637.8574133476
 20
3334.0192750239
 10
7636.1951587097
 20
3334.5321701758
 10
7634.5785574329
 20
3335.0220799225
  0
ARC
  5
16C
330
1F
100
AcDbEntity
  8
0
  6
Continuous
 62
     7
370
    25
100
AcDbCircle
 10
7667.3509592446
 20
3321.0939601132
 30
0.0
 40
35.60930836081111
100
AcDbArc
 50
153.6006403148
 51
156.9747315374
  0
LINE
  5
16D
330
1F
100
AcDbEntity
  8
0
  6
Continuous
 62
     7
370
    25
100
AcDbLine
 10
7641.8978963659
 20
3337.6828325923
 30
0.0
 11
7643.3890477465
 21
3336.4369759787
 31
0.0
  0
ARC
  5
16E
330
1F
100
AcDbEntity
  8
0
  6
Continuous
 62
     7
370
    25
100
AcDbCircle
 10
7645.2128553094
 20
3339.0673813231
 30
0.0
 40
3.20082899567197
100
AcDbArc
 50
235.2642616759
 51
345.4244585211
  0
ARC
  5
16F
330
1F
100
AcDbEntity
  8
0
  6
Continuous
 62
     7
370
    25
100
AcDbCircle
 10
7689.4022046515
 20
3339.1390749075
 30
0.0
 40
3.18380442656569
100
AcDbArc
 50
195.9334059104
 51
305.4059554313
  0
LWPOLYLINE
  5
170
330
1F
100
AcDbEntity
  8
0
  6
Continuous
 62
     7
370
    25
100
AcDbPolyline
 90
        3
 70
   128
 43
0.0
 10
7691.2467923422
 20
3336.5440591322
 10
7692.5375583966
 20
3337.6406373555
 10
7692.6073312544
 20
3337.7009296511
  0
ARC
  5
171
330
1F
100
AcDbEntity
  8
0
  6
Continuous
 62
     7
370
    25
100
AcDbCircle
 10
7667.3509592446
 20
3321.0939601132
 30
0.0
 40
35.60930836080995
100
AcDbArc
 50
23.2458965172
 51
26.4043352116
  0
LWPOLYLINE
  5
172
330
1F
100
AcDbEntity
  8
0
  6
Continuous
 62
     7
370
    25
100
AcDbPolyline
 90
        5
 70
   128
 43
0.0
 10
7700.0694854026
 20
3335.1481725772
 10
7698.5936985255
 20
3334.6847758362
 10
7697.07123738
 20
3334.211294208
 10
7695.3705673961
 20
3333.6811728537
 10
7693.6221947171
 20
3333.1326988508
  0
ARC
  5
173
330
1F
100
AcDbEntity
  8
0
  6
Continuous
 62
     7
370
    25
100
AcDbCircle
 10
7694.8997771516
 20
3330.1417253715
 30
0.0
 40
3.252405139380758
100
AcDbArc
 50
113.1295600944
 51
283.2588016564
  0
LWPOLYLINE
  5
174
330
1F
100
AcDbEntity
  8
0
  6
Continuous
 62
     7
370
    25
100
AcDbPolyline
 90
        5
 70
   128
 43
0.0
 10
7695.6457159969
 20
3326.9760162205
 10
7697.2357263634
 20
3327.5288160264
 10
7698.7898118945
 20
3328.06802632
 10
7700.4322277651
 20
3328.6392497871
 10
7702.0269119133
 20
3329.1934137032
  0
ARC
  5
175
330
1F
100
AcDbEntity
  8
0
  6
Continuous
 62
     7
370
    25
100
AcDbCircle
 10
7667.3509592446
 20
3321.0939601132
 30
0.0
 40
35.60930836081037
100
AcDbArc
 50
4.9997174226
 51
13.1471812621
  0
LWPOLYLINE
  5
176
330
1F
100
AcDbEntity
  8
0
  6
Continuous
 62
     7
370
    25
100
AcDbPolyline
 90
        3
 70
   128
 43
0.0
 10
7702.8247787424
 20
3324.1973408786
 10
7701.2058684143
 20
3324.2295532875
 10
7699.535065077
 20
3324.2666258681
  0
LWPOLYLINE
  5
177
330
1F
100
AcDbEntity
  8
0
  6
Continuous
 62
     7
370
    25
100
AcDbPolyline
 90
       21
 70
   128
 43
0.0
 10
7699.5350649858
 20
3324.2666258538
 10
7698.9260402463
 20
3324.1551935475
 10
7698.6207864474
 20
3324.0679911177
 10
7698.3243340052
 20
3323.9433678925
 10
7697.9647791272
 20
3323.7114751707
 10
7697.6336303991
 20
3323.3956288357
 10
7697.3571526659
 20
3323.0303517619
 10
7697.1244801841
 20
3322.606011793
 10
7696.9429480822
 20
3322.1194549782
 10
7696.8288791458
 20
3321.5858345572
 10
7696.7949113573
 20
3321.0664126271
 10
7696.8357968739
 20
3320.5314022589
 10
7696.9416568282
 20
3320.0435785796
 10
7697.1162877249
 20
3319.5712586542
 10
7697.3493942779
 20
3319.1465051192
 10
7697.6421036241
 20
3318.7632180041
 10
7697.9865232163
 20
3318.4357899152
 10
7698.378677964
 20
3318.173684615
 10
7698.8095590613
 20
3317.9916392752
 10
7699.274500617
 20
3317.9050885118
 10
7699.5272807639
 20
3317.8912589379
  0
LWPOLYLINE
  5
178
330
1F
100
AcDbEntity
  8
0
  6
Continuous
 62
     7
370
    25
100
AcDbPolyline
 90
        4
 70
   128
 43
0.0
 10
7699.5272807732
 20
3317.8912589395
 10
7700.3681673111
 20
3317.9023654001
 10
7701.6078287981
 20
3317.9204775598
 10
7702.8203464161
 20
3317.9403248113
  0
ARC
  5
179
330
1F
100
AcDbEntity
  8
0
  6
Continuous
 62
     7
370
    25
100
AcDbCircle
 10
7667.3509592446
 20
3321.0939601132
 30
0.0
 40
35.60930836081039
100
AcDbArc
 50
346.7728089669
 51
354.9191085653
  0
LWPOLYLINE
  5
17A
330
1F
100
AcDbEntity
  8
0
  6
Continuous
 62
     7
370
    25
100
AcDbPolyline
 90
        5
 70
   128
 43
0.0
 10
7702.0155677556
 20
3312.9460917589
 10
7700.5576501038
 20
3313.4648774349
 10
7699.0524424004
 20
3313.9907555838
 10
7697.3654351034
 20
3314.5855752416
 10
7695.6286945067
 20
3315.1938515021
  0
ARC
  5
17B
330
1F
100
AcDbEntity
  8
0
  6
Continuous
 62
     7
370
    25
100
AcDbCircle
 10
7678.5528421991
 20
3339.5517807222
 30
0.0
 40
3.281949220795422
100
AcDbArc
 50
192.0830359649
 51
342.7479973745
  0
ARC
  5
17C
330
1F
100
AcDbEntity
  8
0
  6
Continuous
 62
     7
370
    25
100
AcDbCircle
 10
7667.3076133146
 20
3339.7143028653
 30
0.0
 40
3.357865225135347
100
AcDbArc
 50
192.7882222901
 51
347.2219185548
  0
ARC
  5
17D
330
1F
100
AcDbEntity
  8
0
  6
Continuous
 62
     7
370
    25
100
AcDbCircle
 10
7656.0660783208
 20
3339.476721938
 30
0.0
 40
3.267698208675891
100
AcDbArc
 50
196.025285586
 51
349.1473981513
  0
ARC
  5
17E
330
1F
100
AcDbEntity
  8
0
  6
Continuous
 62
     7
370
    25
100
AcDbCircle
 10
7673.064808136
 20
3330.2458133994
 30
0.0
 40
3.216582347694457
100
AcDbArc
 50
315.4947710591
 51
0.9709864296
  0
ARC
  5
17F
330
1F
100
AcDbEntity
  8
0
  6
Continuous
 62
     7
370
    25
100
AcDbCircle
 10
7672.959992675
 20
3330.2819643336
 30
0.0
 40
3.320986660608634
100
AcDbArc
 50
0.31671844
 51
162.4861265088
  0
ARC
  5
180
330
1F
100
AcDbEntity
  8
0
  6
Continuous
 62
     7
370
    25
100
AcDbCircle
 10
7661.6427960463
 20
3311.9286567302
 30
0.0
 40
3.252983089967026
100
AcDbArc
 50
133.9424583736
 51
225.7144678009
  0
ARC
  5
181
330
1F
100
AcDbEntity
  8
0
  6
Continuous
 62
     7
370
    25
100
AcDbCircle
 10
7661.7333166303
 20
3311.9002769041
 30
0.0
 40
3.296957474171204
100
AcDbArc
 50
224.2438058357
 51
343.716458128
  0
ARC
  5
182
330
1F
100
AcDbEntity
  8
0
  6
Continuous
 62
     7
370
    25
100
AcDbCircle
 10
7672.9544990213
 20
3311.8862057559
 30
0.0
 40
3.318671186423115
100
AcDbArc
 50
196.9723426129
 51
47.5497352848
  0
ARC
  5
183
330
1F
100
AcDbEntity
  8
0
  6
Continuous
 62
     7
370
    25
100
AcDbCircle
 10
7661.7204839593
 20
3330.2647581686
 30
0.0
 40
3.322070614342839
100
AcDbArc
 50
16.9679298112
 51
179.8507744248
  0
ARC
  5
184
330
1F
100
AcDbEntity
  8
0
  6
Continuous
 62
     7
370
    25
100
AcDbCircle
 10
7661.5311870938
 20
3330.211600819
 30
0.0
 40
3.133372175803504
100
AcDbArc
 50
178.869697363
 51
230.4311023578
  0
ARC
  5
185
330
1F
100
AcDbEntity
  8
0
  6
Continuous
 62
     7
370
    25
100
AcDbCircle
 10
7656.1165109972
 20
3321.112539774
 30
0.0
 40
3.294279790516915
100
AcDbArc
 50
76.5255781338
 51
203.1446025184
  0
ARC
  5
186
330
1F
100
AcDbEntity
  8
0
  6
Continuous
 62
     7
370
    25
100
AcDbCircle
 10
7656.1060289975
 20
3321.0324719471
 30
0.0
 40
3.253912907622904
100
AcDbArc
 50
201.9206703487
 51
284.9336547588
  0
ARC
  5
187
330
1F
100
AcDbEntity
  8
0
  6
Continuous
 62
     7
370
    25
100
AcDbCircle
 10
7678.5728895379
 20
3321.0699176681
 30
0.0
 40
3.302350433128447
100
AcDbArc
 50
257.2613596941
 51
17.5475762023
  0
ARC
  5
188
330
1F
100
AcDbEntity
  8
0
  6
Continuous
 62
     7
370
    25
100
AcDbCircle
 10
7678.6007089328
 20
3321.1750389018
 30
0.0
 40
3.245431533664822
100
AcDbArc
 50
15.9259522521
 51
105.3956107909
  0
LINE
  5
189
330
1F
100
AcDbEntity
  8
0
  6
Continuous
 62
     7
370
    25
100
AcDbLine
 10
7670.5636424794
 20
3338.9718314603
 30
0.0
 11
7670.5586341468
 21
3338.8774771092
 31
0.0
  0
LINE
  5
18A
330
1F
100
AcDbEntity
  8
0
  6
Continuous
 62
     7
370
    25
100
AcDbLine
 10
7664.0441393681
 20
3338.9241992567
 30
0.0
 11
7664.0416292267
 21
3338.9711853168
 31
0.0
  0
ARC
  5
18B
330
1F
100
AcDbEntity
  8
0
  6
Continuous
 62
     7
370
    25
100
AcDbCircle
 10
7667.2890269312
 20
3303.0330616676
 30
0.0
 40
3.260512756115619
100
AcDbArc
 50
175.2303960034
 51
6.1246939131
  0
ARC
  5
18C
330
1F
100
AcDbEntity
  8
0
  6
Continuous
 62
     7
370
    25
100
AcDbCircle
 10
7650.817246112
 20
3330.1053572052
 30
0.0
 40
3.228954665080523
100
AcDbArc
 50
56.4620120169
 51
180.719528367
  0
ARC
  5
18D
330
1F
100
AcDbEntity
  8
0
  6
Continuous
 62
     7
370
    25
100
AcDbCircle
 10
7650.6366153973
 20
3329.9411722627
 30
0.0
 40
3.050575789136385
100
AcDbArc
 50
177.6772314211
 51
246.8624541129
  0
ARC
  5
18E
330
1F
100
AcDbEntity
  8
0
  6
Continuous
 62
     7
370
    25
100
AcDbCircle
 10
7684.0283164923
 20
3329.9721039212
 30
0.0
 40
3.065246088629043
100
AcDbArc
 50
292.9837454861
 51
2.705085917
  0
ARC
  5
18F
330
1F
100
AcDbEntity
  8
0
  6
Continuous
 62
     7
370
    25
100
AcDbCircle
 10
7683.8491735251
 20
3330.1462487056
 30
0.0
 40
3.241107494044162
100
AcDbArc
 50
359.4788477308
 51
122.8399636166
  0
ARC
  5
190
330
1F
100
AcDbEntity
  8
0
  6
Continuous
 62
     7
370
    25
100
AcDbCircle
 10
7683.8416802752
 20
3312.0642838211
 30
0.0
 40
3.269018599756903
100
AcDbArc
 50
237.6717578311
 51
64.4077271731
  0
ARC
  5
191
330
1F
100
AcDbEntity
  8
0
  6
Continuous
 62
     7
370
    25
100
AcDbCircle
 10
7650.8154555385
 20
3312.1139984537
 30
0.0
 40
3.252659614185066
100
AcDbArc
 50
115.4777299865
 51
302.1501341887
  0
ARC
  5
192
330
1F
100
AcDbEntity
  8
0
  6
Continuous
 62
     7
370
    25
100
AcDbCircle
 10
7656.3614543733
 20
3303.245701828
 30
0.0
 40
3.231415673856732
100
AcDbArc
 50
147.1321028247
 51
330.9272109087
  0
ARC
  5
193
330
1F
100
AcDbEntity
  8
0
  6
Continuous
 62
     7
370
    25
100
AcDbCircle
 10
7678.2039292915
 20
3303.1623634472
 30
0.0
 40
3.230639934925835
100
AcDbArc
 50
210.0235033153
 51
338.5123630174
  0
ARC
  5
194
330
1F
100
AcDbEntity
  8
0
  6
Continuous
 62
     7
370
    25
100
AcDbCircle
 10
7678.5413817098
 20
3303.2309444235
 30
0.0
 40
2.947727280332204
100
AcDbArc
 50
334.8669052956
 51
35.8025804301
  0
ARC
  5
195
330
1F
100
AcDbEntity
  8
0
  6
Continuous
 62
     7
370
    25
100
AcDbCircle
 10
7655.6636859753
 20
3338.7218524289
 30
0.0
 40
2.526152631443067
100
AcDbArc
 50
183.0378297952
 51
217.2441994071
  0
ARC
  5
196
330
1F
100
AcDbEntity
  8
0
  6
Continuous
 62
     7
370
    25
100
AcDbCircle
 10
7678.6610642313
 20
3338.8899557133
 30
0.0
 40
2.834858325077783
100
AcDbArc
 50
323.4586650036
 51
353.9294221782
  0
ARC
  5
197
330
1F
100
AcDbEntity
  8
0
  6
Continuous
 62
     7
370
    25
100
AcDbCircle
 10
7689.1350749756
 20
3321.0892729094
 30
0.0
 40
3.242528264689274
100
AcDbArc
 50
269.0961309861
 51
90.823747442
  0
ARC
  5
198
330
1F
100
AcDbEntity
  8
0
  6
Continuous
 62
     7
370
    25
100
AcDbCircle
 10
7645.5501880567
 20
3321.0916147682
 30
0.0
 40
3.225053525026931
100
AcDbArc
 50
89.2877936663
 51
225.4063168603
  0
ARC
  5
199
330
1F
100
AcDbEntity
  8
0
  6
Continuous
 62
     7
370
    25
100
AcDbCircle
 10
7645.373747928
 20
3320.7010703165
 30
0.0
 40
2.826976875769539
100
AcDbArc
 50
222.3942379074
 51
274.5194381303
  0
LINE
  5
19A
330
1F
100
AcDbEntity
  8
0
  6
Continuous
 62
     7
370
    25
100
AcDbLine
 10
7669.530480952
 20
3293.4937808193
 30
0.0
 11
7669.4907017179
 21
3293.9975216128
 31
0.0
  0
LINE
  5
19B
330
1F
100
AcDbEntity
  8
0
  6
Continuous
 62
     7
370
    25
100
AcDbLine
 10
7658.5696714654
 20
3294.8414785322
 30
0.0
 11
7658.7299420231
 21
3295.3206223626
 31
0.0
  0
LINE
  5
19C
330
1F
100
AcDbEntity
  8
0
  6
Continuous
 62
     7
370
    25
100
AcDbLine
 10
7687.1023486157
 20
3300.6226311257
 30
0.0
 11
7686.7419090822
 21
3300.996208707
 31
0.0
  0
LINE
  5
19D
330
1F
100
AcDbEntity
  8
0
  6
Continuous
 62
     7
370
    25
100
AcDbLine
 10
7643.3838445757
 20
3305.7613374706
 30
0.0
 11
7643.8212156806
 21
3306.0411394492
 31
0.0
  0
LINE
  5
19E
330
1F
100
AcDbEntity
  8
0
  6
Continuous
 62
     7
370
    25
100
AcDbLine
 10
7691.2467923531
 20
3336.5440591392
 30
0.0
 11
7690.8107223303
 21
3336.2621135379
 31
0.0
  0
LINE
  5
19F
330
1F
100
AcDbEntity
  8
0
  6
Continuous
 62
     7
370
    25
100
AcDbLine
 10
7693.6029160145
 20
3309.0381718771
 30
0.0
 11
7693.1238859222
 21
3309.25815873
 31
0.0
  0
LINE
  5
1A0
330
1F
100
AcDbEntity
  8
0
  6
Continuous
 62
     7
370
    25
100
AcDbLine
 10
7641.0408394675
 20
3333.0470793452
 30
0.0
 11
7641.4836211875
 21
3332.8459163426
 31
0.0
  0
LINE
  5
1A1
330
1F
100
AcDbEntity
  8
0
  6
Continuous
 62
     7
370
    25
100
AcDbLine
 10
7695.6457159993
 20
3326.976016221
 30
0.0
 11
7695.1294111646
 21
3326.8686841794
 31
0.0
  0
LINE
  5
1A2
330
1F
100
AcDbEntity
  8
0
  6
Continuous
 62
     7
370
    25
100
AcDbLine
 10
7639.0436008481
 20
3315.257587671
 30
0.0
 11
7639.5601353552
 21
3315.3640860493
 31
0.0
  0
LINE
  5
1A3
330
1F
100
AcDbEntity
  8
0
  6
Continuous
 62
     7
370
    25
100
AcDbLine
 10
7657.0123649835
 20
3287.01850985
 30
0.0
 11
7657.1932296668
 21
3287.6003707292
 31
0.0
  0
LWPOLYLINE
  5
1A4
330
1F
100
AcDbEntity
  8
0
  6
Continuous
 62
     7
370
    25
100
AcDbPolyline
 90
       14
 70
   128
 43
0.0
 10
7657.1932296668
 20
3287.6003707292
 10
7657.2863926323
 20
3288.0803047755
 10
7657.4045803887
 20
3288.6808117504
 10
7657.5447219578
 20
3289.3790956922
 10
7657.6774882717
 20
3290.0352705353
 10
7657.7728378299
 20
3290.5064751426
 10
7657.8596011141
 20
3290.9374965535
 10
7657.9371955838
 20
3291.3274175697
 10
7658.0208963163
 20
3291.7538332362
 10
7658.1523808214
 20
3292.4270371676
 10
7658.2993167696
 20
3293.1751425634
 10
7658.4478663797
 20
3293.9219193064
 10
7658.5911920497
 20
3294.6352687671
 10
7658.7299420231
 20
3295.3206223626
  0
LINE
  5
1A5
330
1F
100
AcDbEntity
  8
0
  6
Continuous
 62
     7
370
    25
100
AcDbLine
 10
7677.0990184247
 20
3287.4788542496
 30
0.0
 11
7677.27318819
 21
3286.8949511408
 31
0.0
  0
LWPOLYLINE
  5
1A6
330
1F
100
AcDbEntity
  8
0
  6
Continuous
 62
     7
370
    25
100
AcDbPolyline
 90
       17
 70
   128
 43
0.0
 10
7675.7550280789
 20
3295.1373647843
 10
7675.8454501501
 20
3294.6446888224
 10
7675.9607499426
 20
3294.0113282056
 10
7676.0808521808
 20
3293.3433741496
 10
7676.2113879588
 20
3292.6028074497
 10
7676.3012681238
 20
3292.0826030681
 10
7676.3786899806
 20
3291.6313358621
 10
7676.4448917266
 20
3291.2479246429
 10
7676.5069378108
 20
3290.8956218902
 10
7676.5743899508
 20
3290.5158288392
 10
7676.6524718678
 20
3290.074853769
 10
7676.7401998262
 20
3289.5740355244
 10
7676.8210454592
 20
3289.1059233018
 10
7676.8907545226
 20
3288.699986179
 10
7676.960325899
 20
3288.2934065029
 10
7677.0297502889
 20
3287.8863172699
 10
7677.0990184213
 20
3287.4788542699
  0
LINE
  5
1A7
330
1F
100
AcDbEntity
  8
0
  6
Continuous
 62
     7
370
    25
100
AcDbLine
 10
7671.1646184804
 20
3285.6894569368
 30
0.0
 11
7671.103277362
 21
3286.2956827313
 31
0.0
  0
LWPOLYLINE
  5
1A8
330
1F
100
AcDbEntity
  8
0
  6
Continuous
 62
     7
370
    25
100
AcDbPolyline
 90
       15
 70
   128
 43
0.0
 10
7671.103277362
 20
3286.2956827313
 10
7670.9778140899
 20
3286.8953177751
 10
7670.853593104
 20
3287.4860899804
 10
7670.730734114
 20
3288.0673046006
 10
7670.5975081355
 20
3288.6951210614
 10
7670.4588664861
 20
3289.3539183632
 10
7670.3337625579
 20
3289.9521487393
 10
7670.2217453477
 20
3290.4875084769
 10
7670.1189983893
 20
3290.9767168398
 10
7670.0122610996
 20
3291.4859041928
 10
7669.9062206875
 20
3291.9930582061
 10
7669.8009630436
 20
3292.4979839639
 10
7669.6965711461
 20
3293.0004918558
 10
7669.5931250228
 20
3293.5003974915
 10
7669.4907017179
 20
3293.9975216128
  0
LINE
  5
1A9
330
1F
100
AcDbEntity
  8
0
  6
Continuous
 62
     7
370
    25
100
AcDbLine
 10
7663.1631104447
 20
3286.3454073017
 30
0.0
 11
7663.0945243456
 21
3285.7399560417
 31
0.0
  0
LWPOLYLINE
  5
1AA
330
1F
100
AcDbEntity
  8
0
  6
Continuous
 62
     7
370
    25
100
AcDbPolyline
 90
       14
 70
   128
 43
0.0
 10
7664.9318350884
 20
3293.9216768766
 10
7664.7833259048
 20
3293.2708562945
 10
7664.6101438449
 20
3292.5202949654
 10
7664.4347766719
 20
3291.7670242604
 10
7664.2668848619
 20
3291.0390450085
 10
7664.1151894701
 20
3290.3725462334
 10
7663.9007519426
 20
3289.4484425252
 10
7663.7765741704
 20
3288.9274793534
 10
7663.6754333788
 20
3288.5094134956
 10
7663.598111646
 20
3288.1918494292
 10
7663.4887043695
 20
3287.7393907292
 10
7663.3790711059
 20
3287.2778568806
 10
7663.2795609771
 20
3286.85001603
 10
7663.1631104495
 20
3286.3454073227
  0
LINE
  5
1AB
330
1F
100
AcDbEntity
  8
0
  6
Continuous
 62
     7
370
    25
100
AcDbLine
 10
7680.6815748049
 20
3292.8697281121
 30
0.0
 11
7680.5006289864
 21
3293.2528354589
 31
0.0
  0
LINE
  5
1AC
330
1F
100
AcDbEntity
  8
0
  6
Continuous
 62
     7
370
    25
100
AcDbLine
 10
7648.3373895682
 20
3296.3492709248
 30
0.0
 11
7648.60287921
 21
3296.6947851433
 31
0.0
  0
LINE
  5
1AD
330
1F
100
AcDbEntity
  8
0
  6
Continuous
 62
     7
370
    25
100
AcDbLine
 10
7696.19435254
 20
3301.2682529815
 30
0.0
 11
7696.6991657777
 21
3300.9270164868
 31
0.0
  0
LWPOLYLINE
  5
1AE
330
1F
100
AcDbEntity
  8
0
  6
Continuous
 62
     7
370
    25
100
AcDbPolyline
 90
       13
 70
   128
 43
0.0
 10
7690.8826645218
 20
3305.8307155204
 10
7691.8214347085
 20
3305.0294333056
 10
7692.8626626814
 20
3304.1356797968
 10
7693.8979478632
 20
3303.2440126666
 10
7694.1613427771
 20
3303.0181441818
 10
7694.3952600017
 20
3302.8183911597
 10
7694.6167585954
 20
3302.6297928236
 10
7694.9009804663
 20
3302.3873979373
 10
7695.2598921726
 20
3302.0798212336
 10
7695.5968241666
 20
3301.7889446853
 10
7695.8636937652
 20
3301.5570552936
 10
7696.0623923073
 20
3301.3836289127
 10
7696.1943525235
 20
3301.2682529957
  0
LINE
  5
1AF
330
1F
100
AcDbEntity
  8
0
  6
Continuous
 62
     7
370
    25
100
AcDbLine
 10
7692.725066538
 20
3296.1104151085
 30
0.0
 11
7692.2935863059
 21
3296.540643529
 31
0.0
  0
LWPOLYLINE
  5
1B0
330
1F
100
AcDbEntity
  8
0
  6
Continuous
 62
     7
370
    25
100
AcDbPolyline
 90
       18
 70
   128
 43
0.0
 10
7692.2935863059
 20
3296.540643529
 10
7691.9193349004
 20
3296.8439610759
 10
7691.5729258877
 20
3297.1238161836
 10
7691.2550254875
 20
3297.3792598289
 10
7690.9673749017
 20
3297.6085149316
 10
7690.7370371888
 20
3297.7905910231
 10
7690.5021726466
 20
3297.9760804265
 10
7690.2194593829
 20
3298.1999341637
 10
7689.888441157
 20
3298.463287417
 10
7689.518107504
 20
3298.7598127533
 10
7689.1820720967
 20
3299.0304388262
 10
7688.8001232018
 20
3299.3394390377
 10
7688.4711676804
 20
3299.6063071956
 10
7688.1957973482
 20
3299.8295993584
 10
7687.8565611737
 20
3300.1033387779
 10
7687.5001586246
 20
3300.389520862
 10
7687.1285880377
 20
3300.6869955547
 10
7686.7419090824
 20
3300.9962087069
  0
LINE
  5
1B1
330
1F
100
AcDbEntity
  8
0
  6
Continuous
 62
     7
370
    25
100
AcDbLine
 10
7642.1943722784
 20
3296.7599071788
 30
0.0
 11
7641.7595432258
 21
3296.3330581084
 31
0.0
  0
LWPOLYLINE
  5
1B2
330
1F
100
AcDbEntity
  8
0
  6
Continuous
 62
     7
370
    25
100
AcDbPolyline
 90
        9
 70
   128
 43
0.0
 10
7647.721441657
 20
3301.0651289564
 10
7647.0208801691
 20
3300.5178174105
 10
7646.2159620234
 20
3299.8883982365
 10
7645.3897383299
 20
3299.2425851254
 10
7644.5912467683
 20
3298.6214723766
 10
7644.0290282359
 20
3298.1845909423
 10
7643.4447855759
 20
3297.730303461
 10
7642.832753319
 20
3297.2548070194
 10
7642.1943722947
 20
3296.7599071914
  0
LINE
  5
1B3
330
1F
100
AcDbEntity
  8
0
  6
Continuous
 62
     7
370
    25
100
AcDbLine
 10
7637.8593862165
 20
3301.1372579241
 30
0.0
 11
7638.3663178884
 21
3301.4753320915
 31
0.0
  0
LWPOLYLINE
  5
1B4
330
1F
100
AcDbEntity
  8
0
  6
Continuous
 62
     7
370
    25
100
AcDbPolyline
 90
       12
 70
   128
 43
0.0
 10
7638.3663178884
 20
3301.4753320915
 10
7638.8860250952
 20
3301.9108286617
 10
7639.3659220081
 20
3302.3131984425
 10
7639.8129665347
 20
3302.689149563
 10
7640.2919093094
 20
3303.0924991534
 10
7640.8133117046
 20
3303.5306954039
 10
7641.380246297
 20
3304.0049292856
 10
7641.8814607073
 20
3304.4223246552
 10
7642.3310340363
 20
3304.7961004779
 10
7642.8032616513
 20
3305.1896347191
 10
7643.3026410599
 20
3305.6071688022
 10
7643.8212156806
 20
3306.0411394492
  0
LWPOLYLINE
  5
1B5
330
1F
100
AcDbEntity
  8
0
  6
Continuous
 62
     7
370
    25
100
AcDbPolyline
 90
        5
 70
   128
 43
0.0
 10
7643.7217986718
 20
3336.2443400283
 10
7643.2843376911
 20
3336.6099428173
 10
7642.7550609294
 20
3337.0523731834
 10
7642.2546928276
 20
3337.4700265257
 10
7641.9880257426
 20
3337.6924670594
  0
ARC
  5
1B6
330
1F
100
AcDbEntity
  8
0
  6
Continuous
 62
     7
370
    25
100
AcDbCircle
 10
7592.5926828523
 20
3453.1116542772
 30
0.0
 40
152.6453354999734
100
AcDbArc
 50
310.0487756769
 51
310.8867457252
  0
LINE
  5
1B7
330
1F
100
AcDbEntity
  8
0
  6
Continuous
 62
     7
370
    25
100
AcDbLine
 10
7701.4213784912
 20
3313.0810622377
 30
0.0
 11
7702.0155677556
 21
3312.9460917589
 31
0.0
  0
LWPOLYLINE
  5
1B8
330
1F
100
AcDbEntity
  8
0
  6
Continuous
 62
     7
370
    25
100
AcDbPolyline
 90
       12
 70
   128
 43
0.0
 10
7695.2536519164
 20
3315.2524728057
 10
7695.6954274667
 20
3315.098769973
 10
7696.3292691069
 20
3314.8767748817
 10
7696.9953693264
 20
3314.6417795329
 10
7697.6077301394
 20
3314.4251136675
 10
7698.1679666227
 20
3314.2275419316
 10
7698.6828873559
 20
3314.0475153579
 10
7699.2167716694
 20
3313.8613661388
 10
7699.8127656479
 20
3313.6529240967
 10
7700.4032175712
 20
3313.4447708559
 10
7700.9377490428
 20
3313.2544580521
 10
7701.4213784719
 20
3313.0810622446
  0
LINE
  5
1B9
330
1F
100
AcDbEntity
  8
0
  6
Continuous
 62
     7
370
    25
100
AcDbLine
 10
7700.0575068304
 20
3307.0118939666
 30
0.0
 11
7699.499411887
 21
3307.2564389225
 31
0.0
  0
LWPOLYLINE
  5
1BA
330
1F
100
AcDbEntity
  8
0
  6
Continuous
 62
     7
370
    25
100
AcDbPolyline
 90
       18
 70
   128
 43
0.0
 10
7699.499411887
 20
3307.2564389225
 10
7699.0685447123
 20
3307.3937700748
 10
7698.6695312941
 20
3307.5203997083
 10
7698.3032026187
 20
3307.6357638857
 10
7697.970946204
 20
3307.7391449836
 10
7697.6695499837
 20
3307.8317662804
 10
7697.3123899928
 20
3307.9412056101
 10
7696.8937162836
 20
3308.0699343035
 10
7696.4125003117
 20
3308.2190950984
 10
7695.8929990041
 20
3308.382088107
 10
7695.4938312805
 20
3308.5087393496
 10
7695.1577622259
 20
3308.6161159876
 10
7694.8856592568
 20
3308.703285765
 10
7694.5991796008
 20
3308.7946651803
 10
7694.2510444068
 20
3308.9048298172
 10
7693.8891723031
 20
3309.0186274063
 10
7693.5134794972
 20
3309.1363146399
 10
7693.1238859222
 20
3309.25815873
  0
LINE
  5
1BB
330
1F
100
AcDbEntity
  8
0
  6
Continuous
 62
     7
370
    25
100
AcDbLine
 10
7634.5785574329
 20
3335.0220799225
 30
0.0
 11
7635.1375803231
 21
3334.7796540474
 31
0.0
  0
LWPOLYLINE
  5
1BC
330
1F
100
AcDbEntity
  8
0
  6
Continuous
 62
     7
370
    25
100
AcDbPolyline
 90
       14
 70
   128
 43
0.0
 10
7635.1375803231
 20
3334.7796540474
 10
7635.5015420794
 20
3334.6706668614
 10
7635.9176589908
 20
3334.5453064216
 10
7636.4386035572
 20
3334.386884854
 10
7636.9592079193
 20
3334.2270860616
 10
7637.4261441454
 20
3334.0828383536
 10
7637.8380607945
 20
3333.9552774166
 10
7638.1938124465
 20
3333.8454005525
 10
7638.5904102702
 20
3333.7239397901
 10
7639.1396883116
 20
3333.5568923522
 10
7639.7315287575
 20
3333.3772825986
 10
7640.3665376515
 20
3333.1839266785
 10
7640.9599263832
 20
3333.0019978981
 10
7641.5209300338
 20
3332.8289663214
  0
LINE
  5
1BD
330
1F
100
AcDbEntity
  8
0
  6
Continuous
 62
     7
370
    25
100
AcDbLine
 10
7699.5112329413
 20
3334.9039853057
 30
0.0
 11
7700.0694854026
 21
3335.1481725772
 31
0.0
  0
LWPOLYLINE
  5
1BE
330
1F
100
AcDbEntity
  8
0
  6
Continuous
 62
     7
370
    25
100
AcDbPolyline
 90
        5
 70
   128
 43
0.0
 10
7693.2814427579
 20
3332.9565153479
 10
7694.7396916692
 20
3333.4140091661
 10
7696.3376934367
 20
3333.9123658785
 10
7697.9304513743
 20
3334.4087989759
 10
7699.5112329209
 20
3334.9039852992
  0
LINE
  5
1BF
330
1F
100
AcDbEntity
  8
0
  6
Continuous
 62
     7
370
    25
100
AcDbLine
 10
7635.1323643373
 20
3307.4205500704
 30
0.0
 11
7634.5731376984
 21
3307.1785996572
 31
0.0
  0
LWPOLYLINE
  5
1C0
330
1F
100
AcDbEntity
  8
0
  6
Continuous
 62
     7
370
    25
100
AcDbPolyline
 90
       12
 70
   128
 43
0.0
 10
7641.3928082397
 20
3309.3363057313
 10
7640.8803998153
 20
3309.1785570055
 10
7640.2632171442
 20
3308.9886448882
 10
7639.6771208884
 20
3308.8079022293
 10
7639.0972668679
 20
3308.6290018199
 10
7638.4704519592
 20
3308.4363582517
 10
7637.8181176988
 20
3308.2373426749
 10
7637.2511266141
 20
3308.0656185675
 10
7636.7369158534
 20
3307.9102431818
 10
7636.2473853846
 20
3307.7616198971
 10
7635.7129380915
 20
3307.5983058369
 10
7635.132364357
 20
3307.4205500764
  0
LINE
  5
1C1
330
1F
100
AcDbEntity
  8
0
  6
Continuous
 62
     7
370
    25
100
AcDbLine
 10
7702.0269119133
 20
3329.1934137032
 30
0.0
 11
7701.4325916535
 21
3329.0590296259
 31
0.0
  0
LWPOLYLINE
  5
1C2
330
1F
100
AcDbEntity
  8
0
  6
Continuous
 62
     7
370
    25
100
AcDbPolyline
 90
        9
 70
   128
 43
0.0
 10
7701.4325916535
 20
3329.0590296259
 10
7700.7102752675
 20
3328.8064890547
 10
7699.8785293645
 20
3328.5187113521
 10
7699.1597063627
 20
3328.2708120103
 10
7698.3690163943
 20
3327.9944184795
 10
7697.5242726169
 20
3327.699653752
 10
7696.7700099824
 20
3327.4388525679
 10
7695.9733867546
 20
3327.1626704021
 10
7695.1294111646
 20
3326.8686841794
  0
LINE
  5
1C3
330
1F
100
AcDbEntity
  8
0
  6
Continuous
 62
     7
370
    25
100
AcDbLine
 10
7632.6584617846
 20
3313.0656687683
 30
0.0
 11
7633.2530471605
 21
3313.1988735712
 31
0.0
  0
LWPOLYLINE
  5
1C4
330
1F
100
AcDbEntity
  8
0
  6
Continuous
 62
     7
370
    25
100
AcDbPolyline
 90
       11
 70
   128
 43
0.0
 10
7633.2530471605
 20
3313.1988735712
 10
7633.7977617281
 20
3313.3876675328
 10
7634.3230525553
 20
3313.5690266973
 10
7634.8279136227
 20
3313.7428799285
 10
7635.3114071529
 20
3313.909174886
 10
7635.7726609239
 20
3314.0678765575
 10
7636.210865635
 20
3314.2189658617
 10
7636.7301028247
 20
3314.3982209716
 10
7637.7143953379
 20
3314.7360407219
 10
7638.6587873455
 20
3315.0580704799
 10
7639.5601353549
 20
3315.3640860492
  0
LINE
  5
1C5
330
1F
100
AcDbEntity
  8
0
  6
Continuous
 62
     7
370
    25
100
AcDbLine
 10
7633.2562484233
 20
3329.0028597884
 30
0.0
 11
7632.6617868273
 21
3329.1366063777
 31
0.0
  0
ARC
  5
1C6
330
1F
100
AcDbEntity
  8
0
  6
Continuous
 62
     7
370
    25
100
AcDbCircle
 10
7703.8472377583
 20
3524.1107687997
 30
0.0
 40
207.4853824581797
100
AcDbArc
 50
250.109630011
 51
251.9118586571
  0
LINE
  5
1C7
330
1F
100
AcDbEntity
  8
0
  6
Continuous
 62
     7
370
    25
100
AcDbLine
 10
7699.5272807639
 20
3317.8912589379
 30
0.0
 11
7699.1436833773
 21
3317.9294406735
 31
0.0
  0
LINE
  5
1C8
330
1F
100
AcDbEntity
  8
0
  6
Continuous
 62
     7
370
    25
100
AcDbLine
 10
7635.1527042797
 20
3324.25715815
 30
0.0
 11
7635.5665392675
 21
3324.2165024678
 31
0.0
  0
LINE
  5
1C9
330
1F
100
AcDbEntity
  8
0
  6
Continuous
 62
     7
370
    25
100
AcDbLine
 10
7646.0545002917
 20
3292.554799684
 30
0.0
 11
7646.4220644972
 21
3293.0407719761
 31
0.0
  0
LWPOLYLINE
  5
1CA
330
1F
100
AcDbEntity
  8
0
  6
Continuous
 62
     7
370
    25
100
AcDbPolyline
 90
        7
 70
   128
 43
0.0
 10
7646.4220644972
 20
3293.0407719761
 10
7646.8120036492
 20
3293.6878421518
 10
7647.182075276
 20
3294.3026953768
 10
7647.5307154594
 20
3294.8836958276
 10
7647.9123448536
 20
3295.5201435139
 10
7648.2968645775
 20
3296.1592815454
 10
7648.650863961
 20
3296.7454182402
  0
LINE
  5
1CB
330
1F
100
AcDbEntity
  8
0
  6
Continuous
 62
     7
370
    25
100
AcDbLine
 10
7687.9940828325
 20
3292.8298229684
 30
0.0
 11
7688.3568805708
 21
3292.3402801543
 31
0.0
  0
LWPOLYLINE
  5
1CC
330
1F
100
AcDbEntity
  8
0
  6
Continuous
 62
     7
370
    25
100
AcDbPolyline
 90
       13
 70
   128
 43
0.0
 10
7685.9082006577
 20
3296.4651343962
 10
7685.9256700156
 20
3296.4350828459
 10
7686.0599473256
 20
3296.2036584009
 10
7686.2102229108
 20
3295.9437867926
 10
7686.376548634
 20
3295.6548189935
 10
7686.5685118224
 20
3295.3190957953
 10
7686.7633040342
 20
3294.9758506423
 10
7686.8961125631
 20
3294.740682926
 10
7687.0584821216
 20
3294.4535841338
 10
7687.2966016201
 20
3294.0349286572
 10
7687.5141439117
 20
3293.6563746281
 10
7687.7367422888
 20
3293.2724265034
 10
7687.9940828221
 20
3292.8298229862
  0
LINE
  5
1CD
330
1F
100
AcDbEntity
  8
0
  6
Continuous
 62
     7
370
    25
100
AcDbLine
 10
7651.5904858551
 20
3289.8432404638
 30
0.0
 11
7651.3203908512
 21
3289.2970464435
 31
0.0
  0
ARC
  5
1CE
330
1F
100
AcDbEntity
  8
0
  6
Continuous
 62
     7
370
    25
100
AcDbCircle
 10
7270.7915633801
 20
3541.3683045088
 30
0.0
 40
456.3690142865445
100
AcDbArc
 50
326.5544653907
 51
327.0852687139
  0
LWPOLYLINE
  5
1CF
330
1F
100
AcDbEntity
  8
0
  6
Continuous
 62
     7
370
    25
100
AcDbPolyline
 90
        3
 70
   128
 43
0.0
 10
7683.0164331463
 20
3289.115596031
 10
7682.8843316486
 20
3289.3901283748
 10
7682.7522294522
 20
3289.6646604711
  0
LWPOLYLINE
  5
1D0
330
1F
100
AcDbEntity
  8
0
  6
Continuous
 62
     7
370
    25
100
AcDbPolyline
 90
        4
 70
   128
 43
0.0
 10
7682.7522294522
 20
3289.6646604711
 10
7682.0031521817
 20
3290.8622472552
 10
7681.2370514954
 20
3292.1028823963
 10
7680.4713749066
 20
3293.3316623494
  0
LINE
  5
1D1
330
1F
100
AcDbEntity
  8
0
  6
Continuous
 62
     7
370
    25
100
AcDbLine
 10
7702.8203464161
 20
3317.9403248113
 30
0.0
 11
7702.2138074786
 21
3317.9985097396
 31
0.0
  0
LWPOLYLINE
  5
1D2
330
1F
100
AcDbEntity
  8
0
  6
Continuous
 62
     7
370
    25
100
AcDbPolyline
 90
        3
 70
   128
 43
0.0
 10
7702.2138074786
 20
3317.9985097396
 10
7700.5544403146
 20
3317.9718298267
 10
7699.0285242641
 20
3317.9508780113
  0
LINE
  5
1D3
330
1F
100
AcDbEntity
  8
0
  6
Continuous
 62
     7
370
    25
100
AcDbLine
 10
7702.2181629617
 20
3324.1399583
 30
0.0
 11
7702.8247787424
 21
3324.1973408786
 31
0.0
  0
LWPOLYLINE
  5
1D4
330
1F
100
AcDbEntity
  8
0
  6
Continuous
 62
     7
370
    25
100
AcDbPolyline
 90
        5
 70
   128
 43
0.0
 10
7699.1893492104
 20
3324.2033707778
 10
7699.8089100826
 20
3324.1895206567
 10
7700.6080602416
 20
3324.1719694188
 10
7701.3687108369
 20
3324.1567039002
 10
7702.2181629411
 20
3324.1399583004
  0
LINE
  5
1D5
330
1F
100
AcDbEntity
  8
0
  6
Continuous
 62
     7
370
    25
100
AcDbLine
 10
7632.4824336857
 20
3318.0631309612
 30
0.0
 11
7631.8757995155
 21
3318.0059374236
 31
0.0
  0
LWPOLYLINE
  5
1D6
330
1F
100
AcDbEntity
  8
0
  6
Continuous
 62
     7
370
    25
100
AcDbPolyline
 90
        3
 70
   128
 43
0.0
 10
7635.5007874859
 20
3318.0098589395
 10
7634.1354102134
 20
3318.0303284281
 10
7632.4824337063
 20
3318.0631309608
  0
LINE
  5
1D7
330
1F
100
AcDbEntity
  8
0
  6
Continuous
 62
     7
370
    25
100
AcDbLine
 10
7631.876921552
 20
3324.1948457475
 30
0.0
 11
7632.4835518512
 21
3324.1376259393
 31
0.0
  0
LWPOLYLINE
  5
1D8
330
1F
100
AcDbEntity
  8
0
  6
Continuous
 62
     7
370
    25
100
AcDbPolyline
 90
        6
 70
   128
 43
0.0
 10
7632.4835518512
 20
3324.1376259393
 10
7633.1724722868
 20
3324.1492847424
 10
7633.7984120408
 20
3324.1600284708
 10
7634.3946894146
 20
3324.1713518786
 10
7635.044210443
 20
3324.1848492445
 10
7635.6603790806
 20
3324.1977973024
  0
LWPOLYLINE
  5
1D9
330
1F
100
AcDbEntity
  8
0
  6
Continuous
 62
     7
370
    25
100
AcDbPolyline
 90
      241
 70
   128
 43
0.0
 10
7839.8509592446
 20
3251.3406293018
 10
7839.7918478029
 20
3254.0083997996
 10
7839.6145539898
 20
3256.6743419408
 10
7839.3191993136
 20
3259.3366286218
 10
7838.9059861957
 20
3261.9934352443
 10
7838.3751978316
 20
3264.6429409657
 10
7837.7271979973
 20
3267.2833299471
 10
7836.9624307994
 20
3269.9127925979
 10
7836.0814203712
 20
3272.5295268156
 10
7835.0847705132
 20
3275.1317392214
 10
7833.9731642795
 20
3277.7176463889
 10
7832.7473635094
 20
3280.2854760664
 10
7831.4082083055
 20
3282.8334683918
 10
7829.956616458
 20
3285.3598770983
 10
7828.3935828154
 20
3287.8629707117
 10
7826.7201786028
 20
3290.3410337367
 10
7824.937550688
 20
3292.7923678325
 10
7823.046920795
 20
3295.2152929773
 10
7821.0495846671
 20
3297.6081486193
 10
7818.9469111788
 20
3299.9692948146
 10
7816.7403413974
 20
3302.2971133516
 10
7814.4313875957
 20
3304.5900088598
 10
7812.0216322152
 20
3306.8464099031
 10
7809.5127267819
 20
3309.064770057
 10
7806.9063907743
 20
3311.2435689681
 10
7804.2044104449
 20
3313.3813133967
 10
7801.408637596
 20
3315.4765382393
 10
7798.5209883106
 20
3317.5278075336
 10
7795.5434416395
 20
3319.5337154421
 10
7792.4780382442
 20
3321.4928872157
 10
7789.3268789993
 20
3323.4039801359
 10
7786.0921235518
 20
3325.2656844351
 10
7782.7759888415
 20
3327.0767241941
 10
7779.3807475816
 20
3328.8358582168
 10
7775.9087267007
 20
3330.5418808805
 10
7772.3623057486
 20
3332.1936229626
 10
7768.7439152651
 20
3333.7899524416
 10
7765.0560351142
 20
3335.3297752729
 10
7761.3011927847
 20
3336.8120361389
 10
7757.4819616581
 20
3338.2357191721
 10
7753.6009592446
 20
3339.5998486512
 10
7749.6608453894
 20
3340.9034896699
 10
7745.6643204497
 20
3342.145748778
 10
7741.6141234441
 20
3343.325774593
 10
7737.5130301752
 20
3344.4427583841
 10
7733.3638513276
 20
3345.4959346265
 10
7729.1694305412
 20
3346.4845815259
 10
7724.9326424625
 20
3347.4080215129
 10
7720.6563907743
 20
3348.265621708
 10
7716.3436062061
 20
3349.0567943547
 10
7711.9972445248
 20
3349.780997223
 10
7707.6202845098
 20
3350.4377339804
 10
7703.2157259107
 20
3351.0265545321
 10
7698.786587392
 20
3351.5470553302
 10
7694.3359044641
 20
3351.9988796493
 10
7689.8667274026
 20
3352.3817178316
 10
7685.3821191583
 20
3352.6953074989
 10
7680.8851532577
 20
3352.9394337325
 10
7676.3789116965
 20
3353.1139292206
 10
7671.8664828277
 20
3353.2186743726
 10
7667.3509592446
 20
3353.2535974015
 10
7662.8354356615
 20
3353.2186743726
 10
7658.3230067927
 20
3353.1139292206
 10
7653.8167652316
 20
3352.9394337325
 10
7649.319799331
 20
3352.6953074989
 10
7644.8351910867
 20
3352.3817178316
 10
7640.3660140252
 20
3351.9988796493
 10
7635.9153310972
 20
3351.5470553302
 10
7631.4861925786
 20
3351.0265545321
 10
7627.0816339795
 20
3350.4377339804
 10
7622.7046739644
 20
3349.780997223
 10
7618.3583122832
 20
3349.0567943547
 10
7614.0455277149
 20
3348.265621708
 10
7609.7692760268
 20
3347.4080215129
 10
7605.5324879481
 20
3346.4845815259
 10
7601.3380671616
 20
3345.4959346265
 10
7597.1888883141
 20
3344.4427583841
 10
7593.0877950452
 20
3343.325774593
 10
7589.0375980396
 20
3342.145748778
 10
7585.0410730998
 20
3340.9034896699
 10
7581.1009592446
 20
3339.5998486512
 10
7577.2199568311
 20
3338.2357191721
 10
7573.4007257045
 20
3336.8120361389
 10
7569.6458833751
 20
3335.3297752729
 10
7565.9580032242
 20
3333.7899524416
 10
7562.3396127406
 20
3332.1936229626
 10
7558.7931917885
 20
3330.5418808805
 10
7555.3211709077
 20
3328.8358582168
 10
7551.9259296477
 20
3327.0767241941
 10
7548.6097949375
 20
3325.2656844351
 10
7545.3750394899
 20
3323.4039801359
 10
7542.223880245
 20
3321.4928872157
 10
7539.1584768498
 20
3319.5337154421
 10
7536.1809301786
 20
3317.5278075336
 10
7533.2932808933
 20
3315.4765382393
 10
7530.4975080444
 20
3313.3813133967
 10
7527.7955277149
 20
3311.2435689681
 10
7525.1891917073
 20
3309.0647700569
 10
7522.680286274
 20
3306.8464099031
 10
7520.2705308935
 20
3304.5900088598
 10
7517.9615770918
 20
3302.2971133516
 10
7515.7550073104
 20
3299.9692948146
 10
7513.6523338221
 20
3297.6081486193
 10
7511.6549976943
 20
3295.2152929773
 10
7509.7643678013
 20
3292.7923678325
 10
7507.9817398864
 20
3290.3410337367
 10
7506.3083356739
 20
3287.8629707117
 10
7504.7453020312
 20
3285.3598770983
 10
7503.2937101837
 20
3282.8334683918
 10
7501.9545549799
 20
3280.2854760664
 10
7500.7287542098
 20
3277.7176463889
 10
7499.617147976
 20
3275.1317392214
 10
7498.620498118
 20
3272.5295268156
 10
7497.7394876898
 20
3269.9127925979
 10
7496.974720492
 20
3267.2833299471
 10
7496.3267206576
 20
3264.6429409657
 10
7495.7959322936
 20
3261.9934352443
 10
7495.3827191757
 20
3259.3366286218
 10
7495.0873644995
 20
3256.6743419408
 10
7494.9100706863
 20
3254.0083997996
 10
7494.8509592446
 20
3251.3406293018
 10
7494.9100706863
 20
3248.6728588039
 10
7495.0873644995
 20
3246.0069166627
 10
7495.3827191757
 20
3243.3446299817
 10
7495.7959322936
 20
3240.6878233593
 10
7496.3267206576
 20
3238.0383176379
 10
7496.974720492
 20
3235.3979286564
 10
7497.7394876898
 20
3232.7684660056
 10
7498.620498118
 20
3230.1517317879
 10
7499.617147976
 20
3227.5495193821
 10
7500.7287542098
 20
3224.9636122146
 10
7501.9545549799
 20
3222.3957825371
 10
7503.2937101837
 20
3219.8477902118
 10
7504.7453020312
 20
3217.3213815052
 10
7506.3083356739
 20
3214.8182878918
 10
7507.9817398864
 20
3212.3402248669
 10
7509.7643678013
 20
3209.888890771
 10
7511.6549976943
 20
3207.4659656262
 10
7513.6523338221
 20
3205.0731099842
 10
7515.7550073104
 20
3202.7119637889
 10
7517.9615770918
 20
3200.3841452519
 10
7520.2705308935
 20
3198.0912497437
 10
7522.680286274
 20
3195.8348487004
 10
7525.1891917073
 20
3193.6164885466
 10
7527.795527715
 20
3191.4376896354
 10
7530.4975080444
 20
3189.2999452069
 10
7533.2932808933
 20
3187.2047203642
 10
7536.1809301786
 20
3185.1534510699
 10
7539.1584768498
 20
3183.1475431614
 10
7542.223880245
 20
3181.1883713878
 10
7545.3750394899
 20
3179.2772784676
 10
7548.6097949375
 20
3177.4155741684
 10
7551.9259296477
 20
3175.6045344094
 10
7555.3211709077
 20
3173.8454003867
 10
7558.7931917885
 20
3172.139377723
 10
7562.3396127406
 20
3170.4876356409
 10
7565.9580032242
 20
3168.8913061619
 10
7569.6458833751
 20
3167.3514833306
 10
7573.4007257045
 20
3165.8692224646
 10
7577.2199568311
 20
3164.4455394314
 10
7581.1009592446
 20
3163.0814099523
 10
7585.0410730998
 20
3161.7777689336
 10
7589.0375980396
 20
3160.5355098255
 10
7593.0877950452
 20
3159.3554840106
 10
7597.1888883141
 20
3158.2385002194
 10
7601.3380671617
 20
3157.185323977
 10
7605.5324879481
 20
3156.1966770776
 10
7609.7692760268
 20
3155.2732370906
 10
7614.045527715
 20
3154.4156368956
 10
7618.3583122832
 20
3153.6244642488
 10
7622.7046739644
 20
3152.9002613805
 10
7627.0816339795
 20
3152.2435246232
 10
7631.4861925786
 20
3151.6547040714
 10
7635.9153310972
 20
3151.1342032733
 10
7640.3660140252
 20
3150.6823789542
 10
7644.8351910867
 20
3150.299540772
 10
7649.319799331
 20
3149.9859511046
 10
7653.8167652316
 20
3149.741824871
 10
7658.3230067927
 20
3149.5673293829
 10
7662.8354356615
 20
3149.4625842309
 10
7667.3509592446
 20
3149.4276612021
 10
7671.8664828277
 20
3149.4625842309
 10
7676.3789116965
 20
3149.5673293829
 10
7680.8851532577
 20
3149.741824871
 10
7685.3821191583
 20
3149.9859511046
 10
7689.8667274026
 20
3150.299540772
 10
7694.3359044641
 20
3150.6823789542
 10
7698.786587392
 20
3151.1342032733
 10
7703.2157259107
 20
3151.6547040714
 10
7707.6202845098
 20
3152.2435246232
 10
7711.9972445248
 20
3152.9002613805
 10
7716.3436062061
 20
3153.6244642488
 10
7720.6563907743
 20
3154.4156368956
 10
7724.9326424625
 20
3155.2732370906
 10
7729.1694305412
 20
3156.1966770776
 10
7733.3638513276
 20
3157.185323977
 10
7737.5130301752
 20
3158.2385002194
 10
7741.6141234441
 20
3159.3554840106
 10
7745.6643204497
 20
3160.5355098255
 10
7749.6608453894
 20
3161.7777689336
 10
7753.6009592446
 20
3163.0814099523
 10
7757.4819616581
 20
3164.4455394314
 10
7761.3011927847
 20
3165.8692224646
 10
7765.0560351142
 20
3167.3514833306
 10
7768.7439152651
 20
3168.8913061619
 10
7772.3623057486
 20
3170.4876356409
 10
7775.9087267007
 20
3172.139377723
 10
7779.3807475816
 20
3173.8454003867
 10
7782.7759888415
 20
3175.6045344094
 10
7786.0921235518
 20
3177.4155741684
 10
7789.3268789993
 20
3179.2772784676
 10
7792.4780382442
 20
3181.1883713878
 10
7795.5434416395
 20
3183.1475431614
 10
7798.5209883106
 20
3185.1534510699
 10
7801.408637596
 20
3187.2047203642
 10
7804.2044104449
 20
3189.2999452069
 10
7806.9063907743
 20
3191.4376896354
 10
7809.5127267819
 20
3193.6164885466
 10
7812.0216322152
 20
3195.8348487004
 10
7814.4313875957
 20
3198.0912497437
 10
7816.7403413974
 20
3200.3841452519
 10
7818.9469111788
 20
3202.7119637889
 10
7821.0495846671
 20
3205.0731099842
 10
7823.046920795
 20
3207.4659656262
 10
7824.937550688
 20
3209.888890771
 10
7826.7201786028
 20
3212.3402248669
 10
7828.3935828154
 20
3214.8182878918
 10
7829.956616458
 20
3217.3213815052
 10
7831.4082083055
 20
3219.8477902118
 10
7832.7473635094
 20
3222.3957825371
 10
7833.9731642795
 20
3224.9636122146
 10
7835.0847705132
 20
3227.5495193821
 10
7836.0814203712
 20
3230.1517317879
 10
7836.9624307994
 20
3232.7684660056
 10
7837.7271979973
 20
3235.3979286564
 10
7838.3751978316
 20
3238.0383176379
 10
7838.9059861957
 20
3240.6878233593
 10
7839.3191993136
 20
3243.3446299817
 10
7839.6145539898
 20
3246.0069166627
 10
7839.7918478029
 20
3248.6728588039
 10
7839.8509592446
 20
3251.3406293018
  0
LWPOLYLINE
  5
1DA
330
1F
100
AcDbEntity
  8
0
  6
Continuous
 62
     7
370
    25
100
AcDbPolyline
 90
        3
 70
   128
 43
0.0
 10
7489.8536661232
 20
3254.7955752821
 10
7489.8509592446
 20
3255.3747202109
 10
7489.8537878086
 20
3255.9667394252
  0
LINE
  5
1DB
330
1F
100
AcDbEntity
  8
0
  6
Continuous
 62
     7
370
    25
100
AcDbLine
 10
7667.3509592446
 20
3461.0939601132
 30
0.0
 11
7844.8509592446
 21
3461.0939601132
 31
0.0
  0
LINE
  5
1DC
330
1F
100
AcDbEntity
  8
0
  6
Continuous
 62
     7
370
    25
100
AcDbLine
 10
7489.8509592446
 20
3461.0939601132
 30
0.0
 11
7667.3509592446
 21
3461.0939601132
 31
0.0
  0
LWPOLYLINE
  5
1DD
330
1F
100
AcDbEntity
  8
0
  6
Continuous
 62
     7
370
    25
100
AcDbPolyline
 90
      241
 70
   128
 43
0.0
 10
7817.3509592446
 20
3251.3406293018
 10
7817.299557991
 20
3249.0208288688
 10
7817.1453894578
 20
3246.7026183113
 10
7816.8885593046
 20
3244.3875864148
 10
7816.5292435499
 20
3242.0773197865
 10
7816.0676884507
 20
3239.7734017679
 10
7815.5042103339
 20
3237.4774113493
 10
7814.8391953792
 20
3235.1909220877
 10
7814.0730993547
 20
3232.9155010288
 10
7813.2064473043
 20
3230.6527076325
 10
7812.239833188
 20
3228.4040927043
 10
7811.1739194749
 20
3226.1711973325
 10
7810.0094366889
 20
3223.9555518322
 10
7808.7471829085
 20
3221.7586746961
 10
7807.3880232192
 20
3219.582071554
 10
7805.9328891213
 20
3217.427234141
 10
7804.382777891
 20
3215.295639275
 10
7802.7387518971
 20
3213.1887478447
 10
7801.0019378729
 20
3211.1080038083
 10
7799.1735261439
 20
3209.0548332036
 10
7797.2547698123
 20
3207.0306431715
 10
7795.2469838977
 20
3205.0368209904
 10
7793.1515444364
 20
3203.0747331267
 10
7790.9698875379
 20
3201.1457242972
 10
7788.7035084009
 20
3199.2511165484
 10
7786.3539602883
 20
3197.3922083497
 10
7783.9228534632
 20
3195.5702737039
 10
7781.4118540846
 20
3193.786561274
 10
7778.8226830662
 20
3192.0422935275
 10
7776.1571148965
 20
3190.3386658983
 10
7773.4169764226
 20
3188.6768459677
 10
7770.6041455987
 20
3187.0579726641
 10
7767.7205501985
 20
3185.4831554823
 10
7764.7681664942
 20
3183.9534737235
 10
7761.7490179021
 20
3182.469975755
 10
7758.6651735959
 20
3181.0336782923
 10
7755.5187470885
 20
3179.6455657019
 10
7752.3118947834
 20
3178.3065893268
 10
7749.0468144969
 20
3177.0176668346
 10
7745.725743952
 20
3175.7796815884
 10
7742.3509592446
 20
3174.5934820414
 10
7738.9247732836
 20
3173.4598811555
 10
7735.4495342056
 20
3172.3796558442
 10
7731.9276237659
 20
3171.3535464398
 10
7728.361455706
 20
3170.3822561867
 10
7724.7534740994
 20
3169.4664507585
 10
7721.1061516764
 20
3168.6067578025
 10
7717.4219881297
 20
3167.8037665095
 10
7713.7035084009
 20
3167.0580272094
 10
7709.9532609502
 20
3166.3700509948
 10
7706.17381601
 20
3165.7403093702
 10
7702.367763823
 20
3165.1692339291
 10
7698.5377128673
 20
3164.6572160579
 10
7694.6862880684
 20
3164.2046066683
 10
7690.8161290007
 20
3163.8117159561
 10
7686.9298880776
 20
3163.4788131889
 10
7683.0302287348
 20
3163.2061265217
 10
7679.1198236038
 20
3162.9938428402
 10
7675.2013526811
 20
3162.8421076332
 10
7671.2775014908
 20
3162.7510248923
 10
7667.3509592446
 20
3162.7206570411
 10
7663.4244169984
 20
3162.7510248923
 10
7659.5005658082
 20
3162.8421076332
 10
7655.5820948855
 20
3162.9938428402
 10
7651.6716897545
 20
3163.2061265217
 10
7647.7720304116
 20
3163.4788131889
 10
7643.8857894886
 20
3163.8117159561
 10
7640.0156304208
 20
3164.2046066683
 10
7636.164205622
 20
3164.6572160579
 10
7632.3341546662
 20
3165.1692339291
 10
7628.5281024792
 20
3165.7403093702
 10
7624.748657539
 20
3166.3700509948
 10
7620.9984100884
 20
3167.0580272094
 10
7617.2799303596
 20
3167.8037665095
 10
7613.5957668128
 20
3168.6067578025
 10
7609.9484443899
 20
3169.4664507585
 10
7606.3404627833
 20
3170.3822561867
 10
7602.7742947234
 20
3171.3535464398
 10
7599.2523842837
 20
3172.3796558442
 10
7595.7771452057
 20
3173.4598811555
 10
7592.3509592446
 20
3174.5934820414
 10
7588.9761745372
 20
3175.7796815884
 10
7585.6551039924
 20
3177.0176668346
 10
7582.3900237059
 20
3178.3065893268
 10
7579.1831714008
 20
3179.6455657019
 10
7576.0367448933
 20
3181.0336782923
 10
7572.9529005872
 20
3182.469975755
 10
7569.9337519951
 20
3183.9534737235
 10
7566.9813682908
 20
3185.4831554823
 10
7564.0977728906
 20
3187.0579726641
 10
7561.2849420666
 20
3188.6768459677
 10
7558.5448035928
 20
3190.3386658983
 10
7555.879235423
 20
3192.0422935275
 10
7553.2900644046
 20
3193.786561274
 10
7550.7790650261
 20
3195.5702737039
 10
7548.3479582009
 20
3197.3922083497
 10
7545.9984100884
 20
3199.2511165484
 10
7543.7320309513
 20
3201.1457242972
 10
7541.5503740528
 20
3203.0747331267
 10
7539.4549345915
 20
3205.0368209904
 10
7537.447148677
 20
3207.0306431715
 10
7535.5283923453
 20
3209.0548332036
 10
7533.6999806164
 20
3211.1080038083
 10
7531.9631665921
 20
3213.1887478447
 10
7530.3191405982
 20
3215.295639275
 10
7528.7690293679
 20
3217.427234141
 10
7527.31389527
 20
3219.582071554
 10
7525.9547355808
 20
3221.7586746961
 10
7524.6924818004
 20
3223.9555518322
 10
7523.5279990144
 20
3226.1711973325
 10
7522.4620853013
 20
3228.4040927043
 10
7521.495471185
 20
3230.6527076325
 10
7520.6288191346
 20
3232.9155010288
 10
7519.86272311
 20
3235.1909220877
 10
7519.1977081554
 20
3237.4774113493
 10
7518.6342300386
 20
3239.7734017679
 10
7518.1726749394
 20
3242.0773197865
 10
7517.8133591847
 20
3244.3875864148
 10
7517.5565290314
 20
3246.7026183113
 10
7517.4023604983
 20
3249.0208288688
 10
7517.3509592446
 20
3251.3406293018
 10
7517.4023604983
 20
3253.6604297347
 10
7517.5565290314
 20
3255.9786402922
 10
7517.8133591847
 20
3258.2936721888
 10
7518.1726749394
 20
3260.603938817
 10
7518.6342300386
 20
3262.9078568356
 10
7519.1977081554
 20
3265.2038472542
 10
7519.86272311
 20
3267.4903365158
 10
7520.6288191346
 20
3269.7657575747
 10
7521.495471185
 20
3272.028550971
 10
7522.4620853013
 20
3274.2771658993
 10
7523.5279990144
 20
3276.510061271
 10
7524.6924818004
 20
3278.7257067713
 10
7525.9547355808
 20
3280.9225839075
 10
7527.31389527
 20
3283.0991870496
 10
7528.7690293679
 20
3285.2540244625
 10
7530.3191405982
 20
3287.3856193285
 10
7531.9631665921
 20
3289.4925107588
 10
7533.6999806164
 20
3291.5732547953
 10
7535.5283923453
 20
3293.6264253999
 10
7537.447148677
 20
3295.6506154321
 10
7539.4549345915
 20
3297.6444376131
 10
7541.5503740528
 20
3299.6065254768
 10
7543.7320309513
 20
3301.5355343063
 10
7545.9984100884
 20
3303.4301420551
 10
7548.3479582009
 20
3305.2890502538
 10
7550.7790650261
 20
3307.1109848996
 10
7553.2900644046
 20
3308.8946973295
 10
7555.879235423
 20
3310.638965076
 10
7558.5448035928
 20
3312.3425927052
 10
7561.2849420666
 20
3314.0044126358
 10
7564.0977728906
 20
3315.6232859394
 10
7566.9813682908
 20
3317.1981031212
 10
7569.9337519951
 20
3318.72778488
 10
7572.9529005872
 20
3320.2112828485
 10
7576.0367448933
 20
3321.6475803112
 10
7579.1831714008
 20
3323.0356929016
 10
7582.3900237059
 20
3324.3746692767
 10
7585.6551039924
 20
3325.6635917689
 10
7588.9761745372
 20
3326.9015770151
 10
7592.3509592446
 20
3328.0877765621
 10
7595.7771452057
 20
3329.221377448
 10
7599.2523842837
 20
3330.3016027594
 10
7602.7742947234
 20
3331.3277121637
 10
7606.3404627833
 20
3332.2990024169
 10
7609.9484443899
 20
3333.2148078451
 10
7613.5957668128
 20
3334.074500801
 10
7617.2799303596
 20
3334.877492094
 10
7620.9984100884
 20
3335.6232313941
 10
7624.748657539
 20
3336.3112076087
 10
7628.5281024793
 20
3336.9409492333
 10
7632.3341546662
 20
3337.5120246745
 10
7636.164205622
 20
3338.0240425456
 10
7640.0156304208
 20
3338.4766519352
 10
7643.8857894886
 20
3338.8695426474
 10
7647.7720304116
 20
3339.2024454146
 10
7651.6716897545
 20
3339.4751320819
 10
7655.5820948855
 20
3339.6874157633
 10
7659.5005658082
 20
3339.8391509703
 10
7663.4244169984
 20
3339.9302337112
 10
7667.3509592446
 20
3339.9606015624
 10
7671.2775014908
 20
3339.9302337112
 10
7675.2013526811
 20
3339.8391509703
 10
7679.1198236038
 20
3339.6874157633
 10
7683.0302287348
 20
3339.4751320819
 10
7686.9298880776
 20
3339.2024454146
 10
7690.8161290007
 20
3338.8695426474
 10
7694.6862880685
 20
3338.4766519352
 10
7698.5377128673
 20
3338.0240425456
 10
7702.367763823
 20
3337.5120246745
 10
7706.17381601
 20
3336.9409492333
 10
7709.9532609502
 20
3336.3112076087
 10
7713.7035084009
 20
3335.6232313941
 10
7717.4219881297
 20
3334.877492094
 10
7721.1061516764
 20
3334.074500801
 10
7724.7534740994
 20
3333.2148078451
 10
7728.361455706
 20
3332.2990024169
 10
7731.9276237659
 20
3331.3277121637
 10
7735.4495342056
 20
3330.3016027594
 10
7738.9247732836
 20
3329.221377448
 10
7742.3509592446
 20
3328.0877765621
 10
7745.725743952
 20
3326.9015770151
 10
7749.0468144969
 20
3325.6635917689
 10
7752.3118947834
 20
3324.3746692767
 10
7755.5187470885
 20
3323.0356929016
 10
7758.6651735959
 20
3321.6475803112
 10
7761.7490179021
 20
3320.2112828485
 10
7764.7681664942
 20
3318.72778488
 10
7767.7205501985
 20
3317.1981031212
 10
7770.6041455987
 20
3315.6232859394
 10
7773.4169764226
 20
3314.0044126358
 10
7776.1571148965
 20
3312.3425927052
 10
7778.8226830662
 20
3310.638965076
 10
7781.4118540846
 20
3308.8946973295
 10
7783.9228534632
 20
3307.1109848996
 10
7786.3539602883
 20
3305.2890502538
 10
7788.7035084009
 20
3303.4301420551
 10
7790.9698875379
 20
3301.5355343063
 10
7793.1515444364
 20
3299.6065254768
 10
7795.2469838977
 20
3297.6444376131
 10
7797.2547698123
 20
3295.6506154321
 10
7799.1735261439
 20
3293.6264253999
 10
7801.0019378729
 20
3291.5732547953
 10
7802.7387518971
 20
3289.4925107588
 10
7804.382777891
 20
3287.3856193285
 10
7805.9328891213
 20
3285.2540244625
 10
7807.3880232192
 20
3283.0991870496
 10
7808.7471829085
 20
3280.9225839075
 10
7810.0094366889
 20
3278.7257067713
 10
7811.1739194749
 20
3276.510061271
 10
7812.239833188
 20
3274.2771658993
 10
7813.2064473043
 20
3272.028550971
 10
7814.0730993547
 20
3269.7657575747
 10
7814.8391953792
 20
3267.4903365158
 10
7815.5042103339
 20
3265.2038472542
 10
7816.0676884507
 20
3262.9078568356
 10
7816.5292435499
 20
3260.603938817
 10
7816.8885593046
 20
3258.2936721888
 10
7817.1453894578
 20
3255.9786402922
 10
7817.299557991
 20
3253.6604297347
 10
7817.3509592446
 20
3251.3406293018
  0
LWPOLYLINE
  5
1DE
330
1F
100
AcDbEntity
  8
0
  6
Continuous
 62
     7
370
    25
100
AcDbPolyline
 90
        3
 70
   128
 43
0.0
 10
7522.3530031684
 20
3255.8295722669
 10
7522.3509592446
 20
3255.3747202108
 10
7522.3533267852
 20
3254.8851823395
  0
LINE
  5
1DF
330
1F
100
AcDbEntity
  8
0
  6
Continuous
 62
     7
370
    25
100
AcDbLine
 10
7774.8509592446
 20
3461.1577253051
 30
0.0
 11
7559.8509592446
 21
3461.1577253051
 31
0.0
  0
LINE
  5
1E0
330
1F
100
AcDbEntity
  8
0
  6
Continuous
 62
     7
370
    25
100
AcDbLine
 10
7774.8509592446
 20
3461.1577253051
 30
0.0
 11
7774.8509592446
 21
3461.0939601132
 31
0.0
  0
LINE
  5
1E1
330
1F
100
AcDbEntity
  8
0
  6
Continuous
 62
     7
370
    25
100
AcDbLine
 10
7559.8509592446
 20
3461.1577253051
 30
0.0
 11
7559.8509592446
 21
3461.0939601132
 31
0.0
  0
ARC
  5
1E2
330
1F
100
AcDbEntity
  8
0
  6
Continuous
 62
     7
370
    25
100
AcDbCircle
 10
7659.8509592446
 20
3334.0843411699
 30
0.0
 40
4.000000000000631
100
AcDbArc
 50
270.0
 51
343.6565041274
  0
ARC
  5
1E3
330
1F
100
AcDbEntity
  8
0
  6
Continuous
 62
     7
370
    25
100
AcDbCircle
 10
7659.8509592446
 20
3334.0843411699
 30
0.0
 40
3.999999999999626
100
AcDbArc
 50
103.2889347485
 51
146.5385341734
  0
ARC
  5
1E4
330
1F
100
AcDbEntity
  8
0
  6
Continuous
 62
     7
370
    25
100
AcDbCircle
 10
7659.8509592446
 20
3334.0843411699
 30
0.0
 40
4.000000000000455
100
AcDbArc
 50
248.8180926558
 51
270.0
  0
ARC
  5
1E5
330
1F
100
AcDbEntity
  8
0
  6
Continuous
 62
     7
370
    25
100
AcDbCircle
 10
7659.8509592446
 20
3308.1035790564
 30
0.0
 40
4.000000000000971
100
AcDbArc
 50
16.4339697208
 51
111.2454280924
  0
ARC
  5
1E6
330
1F
100
AcDbEntity
  8
0
  6
Continuous
 62
     7
370
    25
100
AcDbCircle
 10
7659.8509592446
 20
3308.1035790564
 30
0.0
 40
4.000000000000117
100
AcDbArc
 50
213.5248677699
 51
256.3156894642
  0
ARC
  5
1E7
330
1F
100
AcDbEntity
  8
0
  6
Continuous
 62
     7
370
    25
100
AcDbCircle
 10
7652.3509592446
 20
3321.0939601132
 30
0.0
 40
3.999999999999873
100
AcDbArc
 50
309.4398670237
 51
50.60336662
  0
ARC
  5
1E8
330
1F
100
AcDbEntity
  8
0
  6
Continuous
 62
     7
370
    25
100
AcDbCircle
 10
7674.8509592446
 20
3308.1035790564
 30
0.0
 40
3.999999999999998
100
AcDbArc
 50
282.3665480183
 51
325.7544394993
  0
ARC
  5
1E9
330
1F
100
AcDbEntity
  8
0
  6
Continuous
 62
     7
370
    25
100
AcDbCircle
 10
7674.8509592446
 20
3308.1035790564
 30
0.0
 40
3.99999999999994
100
AcDbArc
 50
69.2824071522
 51
164.2481235559
  0
ARC
  5
1EA
330
1F
100
AcDbEntity
  8
0
  6
Continuous
 62
     7
370
    25
100
AcDbCircle
 10
7674.8509592446
 20
3334.0843411699
 30
0.0
 40
4.000000000000455
100
AcDbArc
 50
270.0
 51
290.897623192
  0
ARC
  5
1EB
330
1F
100
AcDbEntity
  8
0
  6
Continuous
 62
     7
370
    25
100
AcDbCircle
 10
7674.8509592446
 20
3334.0843411699
 30
0.0
 40
3.999999999999545
100
AcDbArc
 50
34.158141894
 51
77.3639857503
  0
ARC
  5
1EC
330
1F
100
AcDbEntity
  8
0
  6
Continuous
 62
     7
370
    25
100
AcDbCircle
 10
7674.8509592446
 20
3334.0843411699
 30
0.0
 40
4.000000000000669
100
AcDbArc
 50
195.9494364432
 51
270.0
  0
ARC
  5
1ED
330
1F
100
AcDbEntity
  8
0
  6
Continuous
 62
     7
370
    25
100
AcDbCircle
 10
7682.3509592446
 20
3321.0939601132
 30
0.0
 40
3.999999999999579
100
AcDbArc
 50
129.3431583387
 51
230.6841327144
  0
LWPOLYLINE
  5
1EE
330
1F
100
AcDbEntity
  8
0
  6
Continuous
 62
     8
370
    25
100
AcDbPolyline
 90
      121
 70
   128
 43
0.0
 10
7489.8537878086
 20
3255.9667394252
 10
7489.9117840615
 20
3258.1198173898
 10
7490.0942168257
 20
3260.8630332163
 10
7490.398132507
 20
3263.6024876271
 10
7490.8233228168
 20
3266.3363031372
 10
7491.3694963508
 20
3269.0626061259
 10
7492.036278789
 20
3271.7795281213
 10
7492.823213152
 20
3274.4852070808
 10
7493.7297601144
 20
3277.1777886671
 10
7494.755298374
 20
3279.8554275195
 10
7495.8991250783
 20
3282.5162885179
 10
7497.1604563055
 20
3285.1585480411
 10
7498.5384276022
 20
3287.7803952165
 10
7500.0320945758
 20
3290.3800331609
 10
7501.6404335414
 20
3292.9556802124
 10
7503.3623422239
 20
3295.5055711511
 10
7505.1966405131
 20
3298.0279584092
 10
7507.1420712725
 20
3300.5211132683
 10
7509.1973012012
 20
3302.9833270448
 10
7511.3609217471
 20
3305.4129122603
 10
7513.6314500729
 20
3307.8082037984
 10
7516.0073300718
 20
3310.1675600459
 10
7518.4869334343
 20
3312.489364018
 10
7521.0685607642
 20
3314.7720244662
 10
7523.7504427431
 20
3317.013976969
 10
7526.5307413429
 20
3319.2136850041
 10
7529.407551086
 20
3321.3696410017
 10
7532.3789003506
 20
3323.480367377
 10
7535.4427527224
 20
3325.5444175437
 10
7538.5970083899
 20
3327.5603769049
 10
7541.839505584
 20
3329.5268638228
 10
7545.168022059
 20
3331.4425305654
 10
7548.5802766159
 20
3333.3060642305
 10
7552.073930666
 20
3335.1161876451
 10
7555.6465898333
 20
3336.8716602412
 10
7559.2958055956
 20
3338.5712789054
 10
7563.0190769627
 20
3340.213878804
 10
7566.8138521905
 20
3341.7983341812
 10
7570.6775305295
 20
3343.3235591303
 10
7574.6074640075
 20
3344.7885083383
 10
7578.6009592446
 20
3346.1921778023
 10
7582.6552792985
 20
3347.5336055172
 10
7586.7676455409
 20
3348.8118721357
 10
7590.9352395612
 20
3350.0261015975
 10
7595.1552050987
 20
3351.1754617304
 10
7599.4246499998
 20
3352.2591648204
 10
7603.7406482003
 20
3353.2764681516
 10
7608.1002417306
 20
3354.2266745151
 10
7612.5004427431
 20
3355.1091326868
 10
7616.9382355597
 20
3355.9232378741
 10
7621.4105787389
 20
3356.6684321298
 10
7625.9144071602
 20
3357.3442047352
 10
7630.4466341245
 20
3357.9500925494
 10
7635.0041534698
 20
3358.4856803271
 10
7639.5838417
 20
3358.9506010032
 10
7644.1825601256
 20
3359.3445359444
 10
7648.7971570146
 20
3359.6672151673
 10
7653.4244697529
 20
3359.9184175237
 10
7658.0613270115
 20
3360.097970852
 10
7662.70455092
 20
3360.2057520954
 10
7667.3509592446
 20
3360.2416873859
 10
7671.9973675693
 20
3360.2057520954
 10
7676.6405914778
 20
3360.097970852
 10
7681.2774487363
 20
3359.9184175237
 10
7685.9047614746
 20
3359.6672151673
 10
7690.5193583637
 20
3359.3445359444
 10
7695.1180767893
 20
3358.9506010032
 10
7699.6977650195
 20
3358.4856803271
 10
7704.2552843648
 20
3357.9500925494
 10
7708.7875113291
 20
3357.3442047352
 10
7713.2913397503
 20
3356.6684321298
 10
7717.7636829296
 20
3355.9232378741
 10
7722.2014757462
 20
3355.1091326868
 10
7726.6016767586
 20
3354.2266745151
 10
7730.9612702889
 20
3353.2764681516
 10
7735.2772684894
 20
3352.2591648204
 10
7739.5467133906
 20
3351.1754617304
 10
7743.7666789281
 20
3350.0261015975
 10
7747.9342729484
 20
3348.8118721357
 10
7752.0466391907
 20
3347.5336055172
 10
7756.1009592446
 20
3346.1921778023
 10
7760.0944544817
 20
3344.7885083383
 10
7764.0243879598
 20
3343.3235591303
 10
7767.8880662988
 20
3341.7983341812
 10
7771.6828415265
 20
3340.213878804
 10
7775.4061128937
 20
3338.5712789054
 10
7779.055328656
 20
3336.8716602412
 10
7782.6279878232
 20
3335.1161876451
 10
7786.1216418733
 20
3333.3060642305
 10
7789.5338964303
 20
3331.4425305654
 10
7792.8624129052
 20
3329.5268638228
 10
7796.1049100993
 20
3327.5603769049
 10
7799.2591657669
 20
3325.5444175437
 10
7802.3230181386
 20
3323.480367377
 10
7805.2943674032
 20
3321.3696410017
 10
7808.1711771463
 20
3319.2136850041
 10
7810.9514757462
 20
3317.013976969
 10
7813.633357725
 20
3314.7720244662
 10
7816.2149850549
 20
3312.489364018
 10
7818.6945884175
 20
3310.1675600459
 10
7821.0704684164
 20
3307.8082037984
 10
7823.3409967421
 20
3305.4129122603
 10
7825.5046172881
 20
3302.9833270448
 10
7827.5598472167
 20
3300.5211132683
 10
7829.5052779762
 20
3298.0279584092
 10
7831.3395762654
 20
3295.5055711511
 10
7833.0614849479
 20
3292.9556802124
 10
7834.6698239135
 20
3290.3800331609
 10
7836.163490887
 20
3287.7803952165
 10
7837.5414621837
 20
3285.1585480411
 10
7838.8027934109
 20
3282.5162885179
 10
7839.9466201152
 20
3279.8554275195
 10
7840.9721583749
 20
3277.1777886671
 10
7841.8787053372
 20
3274.4852070808
 10
7842.6656397003
 20
3271.7795281213
 10
7843.3324221385
 20
3269.0626061259
 10
7843.8785956725
 20
3266.3363031372
 10
7844.3037859823
 20
3263.6024876271
 10
7844.6077016636
 20
3260.8630332163
 10
7844.7901344278
 20
3258.1198173898
 10
7844.8509592446
 20
3255.3747202108
  0
LWPOLYLINE
  5
1EF
330
1F
100
AcDbEntity
  8
0
  6
Continuous
 62
     8
370
    25
100
AcDbPolyline
 90
      121
 70
   128
 43
0.0
 10
7522.3533267852
 20
3254.8851823395
 10
7522.4006471232
 20
3253.132246459
 10
7522.5496767052
 20
3250.8913095867
 10
7522.7979458533
 20
3248.6534454201
 10
7523.1452844162
 20
3246.4201876795
 10
7523.5914543454
 20
3244.1930669282
 10
7524.1361498583
 20
3241.9736095235
 10
7524.7789976479
 20
3239.7633365706
 10
7525.5195571382
 20
3237.5637628804
 10
7526.357320787
 20
3235.3763959305
 10
7527.2917144327
 20
3233.2027348333
 10
7528.3220976887
 20
3231.0442693072
 10
7529.4477643818
 20
3228.9024786569
 10
7530.6679430363
 20
3226.7788307587
 10
7531.9817974025
 20
3224.6747810546
 10
7533.3884270305
 20
3222.5917715554
 10
7534.8868678865
 20
3220.5312298517
 10
7536.4760930139
 20
3218.4945681357
 10
7538.1550132373
 20
3216.4831822338
 10
7539.9224779086
 20
3214.4984506493
 10
7541.7772756959
 20
3212.5417336182
 10
7543.7181354133
 20
3210.6143721766
 10
7545.7437268925
 20
3208.7176872416
 10
7547.8526618944
 20
3206.8529787065
 10
7550.0434950603
 20
3205.0215245493
 10
7552.3147249024
 20
3203.2245799572
 10
7554.6647948334
 20
3201.4633764662
 10
7557.0920942326
 20
3199.7391211174
 10
7559.5949595504
 20
3198.0529956291
 10
7562.1716754478
 20
3196.4061555875
 10
7564.8204759726
 20
3194.7997296546
 10
7567.539545769
 20
3193.2348187944
 10
7570.3270213226
 20
3191.7124955187
 10
7573.1809922368
 20
3190.2338031518
 10
7576.0995025424
 20
3188.7997551156
 10
7579.0805520384
 20
3187.411334235
 10
7582.1220976622
 20
3186.0694920643
 10
7585.2220548905
 20
3184.7751482351
 10
7588.3782991674
 20
3183.529189826
 10
7591.5886673608
 20
3182.3324707546
 10
7594.8509592446
 20
3181.1858111925
 10
7598.162939007
 20
3180.0899970028
 10
7601.5223367824
 20
3179.0457792018
 10
7604.9268502074
 20
3178.0538734443
 10
7608.3741459986
 20
3177.1149595329
 10
7611.8618615517
 20
3176.2296809523
 10
7615.3876065606
 20
3175.3986444283
 10
7618.9489646557
 20
3174.6224195116
 10
7622.5434950603
 20
3173.9015381882
 10
7626.1687342626
 20
3173.2364945141
 10
7629.8221977048
 20
3172.627744277
 10
7633.5013814855
 20
3172.0757046839
 10
7637.2037640761
 20
3171.5807540752
 10
7640.9268080483
 20
3171.1432316652
 10
7644.6679618138
 20
3170.76343731
 10
7648.4246613727
 20
3170.4416313017
 10
7652.1943320708
 20
3170.1780341901
 10
7655.9743903641
 20
3169.9728266314
 10
7659.7622455894
 20
3169.8261492646
 10
7663.55530174
 20
3169.738102615
 10
7667.3509592446
 20
3169.7087470256
 10
7671.1466167493
 20
3169.738102615
 10
7674.9396728999
 20
3169.8261492646
 10
7678.7275281252
 20
3169.9728266314
 10
7682.5075864184
 20
3170.1780341901
 10
7686.2772571165
 20
3170.4416313017
 10
7690.0339566755
 20
3170.76343731
 10
7693.775110441
 20
3171.1432316652
 10
7697.4981544132
 20
3171.5807540752
 10
7701.2005370037
 20
3172.0757046839
 10
7704.8797207845
 20
3172.627744277
 10
7708.5331842267
 20
3173.2364945141
 10
7712.158423429
 20
3173.9015381882
 10
7715.7529538335
 20
3174.6224195116
 10
7719.3143119287
 20
3175.3986444283
 10
7722.8400569376
 20
3176.2296809523
 10
7726.3277724906
 20
3177.1149595329
 10
7729.7750682818
 20
3178.0538734443
 10
7733.1795817069
 20
3179.0457792018
 10
7736.5389794823
 20
3180.0899970028
 10
7739.8509592446
 20
3181.1858111925
 10
7743.1132511284
 20
3182.3324707546
 10
7746.3236193218
 20
3183.529189826
 10
7749.4798635987
 20
3184.7751482351
 10
7752.579820827
 20
3186.0694920643
 10
7755.6213664509
 20
3187.411334235
 10
7758.6024159469
 20
3188.7997551156
 10
7761.5209262525
 20
3190.2338031519
 10
7764.3748971667
 20
3191.7124955187
 10
7767.1623727202
 20
3193.2348187944
 10
7769.8814425167
 20
3194.7997296546
 10
7772.5302430414
 20
3196.4061555875
 10
7775.1069589389
 20
3198.0529956291
 10
7777.6098242566
 20
3199.7391211174
 10
7780.0371236559
 20
3201.4633764662
 10
7782.3871935869
 20
3203.2245799572
 10
7784.658423429
 20
3205.0215245493
 10
7786.8492565948
 20
3206.8529787065
 10
7788.9581915967
 20
3208.7176872416
 10
7790.983783076
 20
3210.6143721766
 10
7792.9246427934
 20
3212.5417336182
 10
7794.7794405806
 20
3214.4984506493
 10
7796.5469052519
 20
3216.4831822338
 10
7798.2258254754
 20
3218.4945681357
 10
7799.8150506028
 20
3220.5312298517
 10
7801.3134914588
 20
3222.5917715554
 10
7802.7201210867
 20
3224.6747810546
 10
7804.033975453
 20
3226.7788307587
 10
7805.2541541074
 20
3228.9024786569
 10
7806.3798208005
 20
3231.0442693072
 10
7807.4102040565
 20
3233.2027348333
 10
7808.3445977023
 20
3235.3763959305
 10
7809.182361351
 20
3237.5637628804
 10
7809.9229208414
 20
3239.7633365706
 10
7810.5657686309
 20
3241.9736095235
 10
7811.1104641438
 20
3244.1930669282
 10
7811.556634073
 20
3246.4201876795
 10
7811.9039726359
 20
3248.6534454201
 10
7812.152241784
 20
3250.8913095867
 10
7812.3012713661
 20
3253.132246459
 10
7812.3509592446
 20
3255.3747202108
  0
ELLIPSE
  5
1F0
330
1F
100
AcDbEntity
  8
0
  6
Continuous
 62
     8
370
    25
100
AcDbEllipse
 10
7667.3509592446
 20
3414.7533348322
 30
0.0
 11
0.0
 21
179.3207489013412
 31
0.0
210
0.0
220
0.0
230
1.0
 40
0.8086069286
 41
2.223061155157713
 42
4.060110328075272
  0
ELLIPSE
  5
1F1
330
1F
100
AcDbEntity
  8
0
  6
Continuous
 62
     8
370
    25
100
AcDbEllipse
 10
7667.3509592446
 20
3414.7533348322
 30
0.0
 11
0.0
 21
-143.8727599970971
 31
0.0
210
0.0
220
0.0
230
1.0
 40
0.5907998151
 41
5.350507968441733
 42
7.21580840052375
  0
ENDSEC
  0
SECTION
  2
OBJECTS
  0
DICTIONARY
  5
C
330
0
100
AcDbDictionary
281
     1
  3
ACAD_DETAILVIEWSTYLE
350
1F9
  3
ACAD_GROUP
350
D
  3
ACAD_LAYOUT
350
1A
  3
ACAD_MATERIAL
350
43
  3
ACAD_MLEADERSTYLE
350
6B
  3
ACAD_MLINESTYLE
350
17
  3
ACAD_PLOTSETTINGS
350
19
  3
ACAD_PLOTSTYLENAME
350
E
  3
ACAD_SCALELIST
350
47
  3
ACAD_SECTIONVIEWSTYLE
350
1FA
  3
ACAD_TABLESTYLE
350
69
  3
ACAD_VISUALSTYLE
350
2A
  3
ACDB_RECOMPOSE_DATA
350
1F6
  3
AcDbVariableDictionary
350
1F2
  0
SUN
  5
6D
330
29
100
AcDbSun
 90
        1
290
     0
 63
     7
421
 16777215
 40
1.0
291
     1
 91
  2455826
 92
 54000000
292
     0
 70
     2
 71
   256
280
     1
  0
DICTIONARY
  5
1F9
102
{ACAD_REACTORS
330
C
102
}
330
C
100
AcDbDictionary
281
     1
  0
DICTIONARY
  5
D
102
{ACAD_REACTORS
330
C
102
}
330
C
100
AcDbDictionary
281
     1
  0
DICTIONARY
  5
1A
102
{ACAD_REACTORS
330
C
102
}
330
C
100
AcDbDictionary
281
     1
  3
Layout1
350
1E
  3
Layout2
350
26
  3
Model
350
22
  0
DICTIONARY
  5
43
102
{ACAD_REACTORS
330
C
102
}
330
C
100
AcDbDictionary
281
     1
  3
ByBlock
350
45
  3
ByLayer
350
44
  3
Global
350
46
  0
DICTIONARY
  5
6B
102
{ACAD_REACTORS
330
C
102
}
330
C
100
AcDbDictionary
281
     1
  3
Standard
350
6C
  0
DICTIONARY
  5
17
102
{ACAD_REACTORS
330
C
102
}
330
C
100
AcDbDictionary
281
     1
  3
Standard
350
18
  0
DICTIONARY
  5
19
102
{ACAD_REACTORS
330
C
102
}
330
C
100
AcDbDictionary
281
     1
  0
ACDBDICTIONARYWDFLT
  5
E
102
{ACAD_REACTORS
330
C
102
}
330
C
100
AcDbDictionary
281
     1
  3
Normal
350
F
100
AcDbDictionaryWithDefault
340
F
  0
DICTIONARY
  5
47
102
{ACAD_REACTORS
330
C
102
}
330
C
100
AcDbDictionary
281
     1
  3
A0
350
48
  3
A1
350
49
  3
A2
350
4A
  3
A3
350
4B
  3
A4
350
4C
  3
A5
350
4D
  3
A6
350
4E
  3
A7
350
4F
  3
A8
350
50
  3
A9
350
51
  3
B0
350
52
  3
B1
350
53
  3
B2
350
54
  3
B3
350
55
  3
B4
350
56
  3
B5
350
57
  3
B6
350
58
  3
B7
350
59
  3
B8
350
5A
  3
B9
350
5B
  3
C0
350
5C
  3
C1
350
5D
  3
C2
350
5E
  3
C3
350
5F
  3
C4
350
60
  3
C5
350
61
  3
C6
350
62
  3
C7
350
63
  3
C8
350
64
  3
C9
350
65
  3
D0
350
66
  3
D1
350
67
  3
D2
350
68
  0
DICTIONARY
  5
1FA
102
{ACAD_REACTORS
330
C
102
}
330
C
100
AcDbDictionary
281
     1
  0
DICTIONARY
  5
69
102
{ACAD_REACTORS
330
C
102
}
330
C
100
AcDbDictionary
281
     1
  3
Standard
350
6A
  0
DICTIONARY
  5
2A
102
{ACAD_REACTORS
330
C
102
}
330
C
100
AcDbDictionary
281
     1
  3
2dWireframe
350
2F
  3
Basic
350
32
  3
Brighten
350
36
  3
ColorChange
350
3A
  3
Conceptual
350
34
  3
Dim
350
35
  3
EdgeColorOff
350
3D
  3
Facepattern
350
39
  3
Flat
350
2B
  3
FlatWithEdges
350
2C
  3
Gouraud
350
2D
  3
GouraudWithEdges
350
2E
  3
Hidden
350
31
  3
JitterOff
350
3B
  3
Linepattern
350
38
  3
OverhangOff
350
3C
  3
Realistic
350
33
  3
Shaded
350
42
  3
Shaded with edges
350
41
  3
Shades of Gray
350
3E
  3
Sketchy
350
3F
  3
Thicken
350
37
  3
Wireframe
350
30
  3
X-Ray
350
40
  0
XRECORD
  5
1F6
102
{ACAD_REACTORS
330
C
102
}
330
C
100
AcDbXrecord
280
     1
 90
        1
330
6A
  0
DICTIONARY
  5
1F2
102
{ACAD_REACTORS
330
C
102
}
330
C
100
AcDbDictionary
281
     1
  3
CANNOSCALE
350
1F3
  3
CENTEREXE
350
1FB
  3
CENTERLTYPEFILE
350
1FC
  3
CMLEADERSTYLE
350
1F8
  3
CTABLESTYLE
350
1F7
  0
LAYOUT
  5
1E
102
{ACAD_REACTORS
330
1A
102
}
330
1A
100
AcDbPlotSettings
  1

  2
none_device
  4

  6

 40
0.0
 41
0.0
 42
0.0
 43
0.0
 44
0.0
 45
0.0
 46
0.0
 47
0.0
 48
0.0
 49
0.0
140
0.0
141
0.0
142
1.0
143
1.0
 70
   688
 72
     1
 73
     0
 74
     5
  7

 75
    16
 76
     0
 77
     2
 78
   300
147
1.0
148
0.0
149
0.0
100
AcDbLayout
  1
Layout1
 70
     1
 71
     1
 10
0.0
 20
0.0
 11
420.0
 21
297.0
 12
0.0
 22
0.0
 32
0.0
 14
1.0000000000E+20
 24
1.0000000000E+20
 34
1.0000000000E+20
 15
-1.0000000000E+20
 25
-1.0000000000E+20
 35
-1.0000000000E+20
146
0.0
 13
0.0
 23
0.0
 33
0.0
 16
1.0
 26
0.0
 36
0.0
 17
0.0
 27
1.0
 37
0.0
 76
     0
330
1B
  0
LAYOUT
  5
26
102
{ACAD_REACTORS
330
1A
102
}
330
1A
100
AcDbPlotSettings
  1

  2
none_device
  4

  6

 40
0.0
 41
0.0
 42
0.0
 43
0.0
 44
0.0
 45
0.0
 46
0.0
 47
0.0
 48
0.0
 49
0.0
140
0.0
141
0.0
142
1.0
143
1.0
 70
   688
 72
     1
 73
     0
 74
     5
  7

 75
    16
 76
     0
 77
     2
 78
   300
147
1.0
148
0.0
149
0.0
100
AcDbLayout
  1
Layout2
 70
     1
 71
     2
 10
0.0
 20
0.0
 11
0.0
 21
0.0
 12
0.0
 22
0.0
 32
0.0
 14
0.0
 24
0.0
 34
0.0
 15
0.0
 25
0.0
 35
0.0
146
0.0
 13
0.0
 23
0.0
 33
0.0
 16
1.0
 26
0.0
 36
0.0
 17
0.0
 27
1.0
 37
0.0
 76
     0
330
23
  0
LAYOUT
  5
22
102
{ACAD_REACTORS
330
1A
102
}
330
1A
100
AcDbPlotSettings
  1

  2
none_device
  4
Letter_(8.50_x_11.00_Inches)
  6

 40
6.35
 41
6.35
 42
6.35000508
 43
6.35000508
 44
215.9
 45
279.4
 46
0.0
 47
0.0
 48
0.0
 49
0.0
140
0.0
141
0.0
142
1.0
143
1.0
 70
  1712
 72
     1
 73
     0
 74
     0
  7

 75
     0
 76
     0
 77
     2
 78
   300
147
1.0
148
0.0
149
0.0
100
AcDbLayout
  1
Model
 70
     1
 71
     0
 10
0.0
 20
0.0
 11
20000.0
 21
10000.0
 12
0.0
 22
0.0
 32
0.0
 14
0.0
 24
0.0
 34
0.0
 15
20000.0
 25
10000.0
 35
0.0
146
0.0
 13
0.0
 23
0.0
 33
0.0
 16
1.0
 26
0.0
 36
0.0
 17
0.0
 27
1.0
 37
0.0
 76
     0
330
1F
331
29
  0
MATERIAL
  5
45
102
{ACAD_REACTORS
330
43
102
}
330
43
100
AcDbMaterial
  1
ByBlock
 72
     1
 94
      127
  0
MATERIAL
  5
44
102
{ACAD_REACTORS
330
43
102
}
330
43
100
AcDbMaterial
  1
ByLayer
 72
     1
 94
      127
  0
MATERIAL
  5
46
102
{ACAD_REACTORS
330
43
102
}
330
43
100
AcDbMaterial
  1
Global
 72
     1
 94
      127
  0
MLEADERSTYLE
  5
6C
102
{ACAD_REACTORS
330
6B
102
}
330
6B
100
AcDbMLeaderStyle
179
     2
170
     2
171
     1
172
     0
 90
        2
 40
0.0
 41
0.0
173
     1
 91
-1056964608
340
14
 92
       -2
290
     1
 42
2.0
291
     1
 43
8.0
  3
Standard
341
0
 44
4.0
300

342
11
174
     1
178
     6
175
     1
176
     0
 93
-1056964608
 45
4.0
292
     0
297
     0
 46
4.0
343
0
 94
-1056964608
 47
1.0
 49
1.0
140
1.0
293
     1
141
0.0
294
     1
177
     0
142
1.0
295
     0
296
     0
143
3.75
271
     0
272
     9
273
     9
298
     0
  0
MLINESTYLE
  5
18
102
{ACAD_REACTORS
330
17
102
}
330
17
100
AcDbMlineStyle
  2
Standard
 70
     0
  3

 62
   256
 51
90.0
 52
90.0
 71
     2
 49
0.5
 62
   256
  6
BYLAYER
 49
-0.5
 62
   256
  6
BYLAYER
  0
ACDBPLACEHOLDER
  5
F
102
{ACAD_REACTORS
330
E
102
}
330
E
  0
SCALE
  5
48
102
{ACAD_REACTORS
330
47
102
}
330
47
100
AcDbScale
 70
     0
300
1:1
140
1.0
141
1.0
290
     1
  0
SCALE
  5
49
102
{ACAD_REACTORS
330
47
102
}
330
47
100
AcDbScale
 70
     0
300
1:2
140
1.0
141
2.0
290
     0
  0
SCALE
  5
4A
102
{ACAD_REACTORS
330
47
102
}
330
47
100
AcDbScale
 70
     0
300
1:4
140
1.0
141
4.0
290
     0
  0
SCALE
  5
4B
102
{ACAD_REACTORS
330
47
102
}
330
47
100
AcDbScale
 70
     0
300
1:5
140
1.0
141
5.0
290
     0
  0
SCALE
  5
4C
102
{ACAD_REACTORS
330
47
102
}
330
47
100
AcDbScale
 70
     0
300
1:8
140
1.0
141
8.0
290
     0
  0
SCALE
  5
4D
102
{ACAD_REACTORS
330
47
102
}
330
47
100
AcDbScale
 70
     0
300
1:10
140
1.0
141
10.0
290
     0
  0
SCALE
  5
4E
102
{ACAD_REACTORS
330
47
102
}
330
47
100
AcDbScale
 70
     0
300
1:16
140
1.0
141
16.0
290
     0
  0
SCALE
  5
4F
102
{ACAD_REACTORS
330
47
102
}
330
47
100
AcDbScale
 70
     0
300
1:20
140
1.0
141
20.0
290
     0
  0
SCALE
  5
50
102
{ACAD_REACTORS
330
47
102
}
330
47
100
AcDbScale
 70
     0
300
1:30
140
1.0
141
30.0
290
     0
  0
SCALE
  5
51
102
{ACAD_REACTORS
330
47
102
}
330
47
100
AcDbScale
 70
     0
300
1:40
140
1.0
141
40.0
290
     0
  0
SCALE
  5
52
102
{ACAD_REACTORS
330
47
102
}
330
47
100
AcDbScale
 70
     0
300
1:50
140
1.0
141
50.0
290
     0
  0
SCALE
  5
53
102
{ACAD_REACTORS
330
47
102
}
330
47
100
AcDbScale
 70
     0
300
1:100
140
1.0
141
100.0
290
     0
  0
SCALE
  5
54
102
{ACAD_REACTORS
330
47
102
}
330
47
100
AcDbScale
 70
     0
300
2:1
140
2.0
141
1.0
290
     0
  0
SCALE
  5
55
102
{ACAD_REACTORS
330
47
102
}
330
47
100
AcDbScale
 70
     0
300
4:1
140
4.0
141
1.0
290
     0
  0
SCALE
  5
56
102
{ACAD_REACTORS
330
47
102
}
330
47
100
AcDbScale
 70
     0
300
8:1
140
8.0
141
1.0
290
     0
  0
SCALE
  5
57
102
{ACAD_REACTORS
330
47
102
}
330
47
100
AcDbScale
 70
     0
300
10:1
140
10.0
141
1.0
290
     0
  0
SCALE
  5
58
102
{ACAD_REACTORS
330
47
102
}
330
47
100
AcDbScale
 70
     0
300
100:1
140
100.0
141
1.0
290
     0
  0
SCALE
  5
59
102
{ACAD_REACTORS
330
47
102
}
330
47
100
AcDbScale
 70
     0
300
1/128" = 1'-0"
140
0.0078125
141
12.0
290
     0
  0
SCALE
  5
5A
102
{ACAD_REACTORS
330
47
102
}
330
47
100
AcDbScale
 70
     0
300
1/64" = 1'-0"
140
0.015625
141
12.0
290
     0
  0
SCALE
  5
5B
102
{ACAD_REACTORS
330
47
102
}
330
47
100
AcDbScale
 70
     0
300
1/32" = 1'-0"
140
0.03125
141
12.0
290
     0
  0
SCALE
  5
5C
102
{ACAD_REACTORS
330
47
102
}
330
47
100
AcDbScale
 70
     0
300
1/16" = 1'-0"
140
0.0625
141
12.0
290
     0
  0
SCALE
  5
5D
102
{ACAD_REACTORS
330
47
102
}
330
47
100
AcDbScale
 70
     0
300
3/32" = 1'-0"
140
0.09375
141
12.0
290
     0
  0
SCALE
  5
5E
102
{ACAD_REACTORS
330
47
102
}
330
47
100
AcDbScale
 70
     0
300
1/8" = 1'-0"
140
0.125
141
12.0
290
     0
  0
SCALE
  5
5F
102
{ACAD_REACTORS
330
47
102
}
330
47
100
AcDbScale
 70
     0
300
3/16" = 1'-0"
140
0.1875
141
12.0
290
     0
  0
SCALE
  5
60
102
{ACAD_REACTORS
330
47
102
}
330
47
100
AcDbScale
 70
     0
300
1/4" = 1'-0"
140
0.25
141
12.0
290
     0
  0
SCALE
  5
61
102
{ACAD_REACTORS
330
47
102
}
330
47
100
AcDbScale
 70
     0
300
3/8" = 1'-0"
140
0.375
141
12.0
290
     0
  0
SCALE
  5
62
102
{ACAD_REACTORS
330
47
102
}
330
47
100
AcDbScale
 70
     0
300
1/2" = 1'-0"
140
0.5
141
12.0
290
     0
  0
SCALE
  5
63
102
{ACAD_REACTORS
330
47
102
}
330
47
100
AcDbScale
 70
     0
300
3/4" = 1'-0"
140
0.75
141
12.0
290
     0
  0
SCALE
  5
64
102
{ACAD_REACTORS
330
47
102
}
330
47
100
AcDbScale
 70
     0
300
1" = 1'-0"
140
1.0
141
12.0
290
     0
  0
SCALE
  5
65
102
{ACAD_REACTORS
330
47
102
}
330
47
100
AcDbScale
 70
     0
300
1-1/2" = 1'-0"
140
1.5
141
12.0
290
     0
  0
SCALE
  5
66
102
{ACAD_REACTORS
330
47
102
}
330
47
100
AcDbScale
 70
     0
300
3" = 1'-0"
140
3.0
141
12.0
290
     0
  0
SCALE
  5
67
102
{ACAD_REACTORS
330
47
102
}
330
47
100
AcDbScale
 70
     0
300
6" = 1'-0"
140
6.0
141
12.0
290
     0
  0
SCALE
  5
68
102
{ACAD_REACTORS
330
47
102
}
330
47
100
AcDbScale
 70
     0
300
1'-0" = 1'-0"
140
12.0
141
12.0
290
     0
  0
TABLESTYLE
  5
6A
102
{ACAD_REACTORS
330
69
102
}
102
{ACAD_XDICTIONARY
360
1F4
102
}
330
69
100
AcDbTableStyle
  3
Standard
 70
     0
 71
     0
 40
0.06
 41
0.06
280
     0
281
     0
  7
Standard
140
4.5
170
     2
 62
     0
 63
   257
283
     0
 90
        4
 91
        0
  1

274
    -2
284
     1
 64
     0
275
    -2
285
     1
 65
     0
276
    -2
286
     1
 66
     0
277
    -2
287
     1
 67
     0
278
    -2
288
     1
 68
     0
279
    -2
289
     1
 69
     0
  7
Standard
140
6.0
170
     5
 62
     0
 63
   257
283
     0
 90
        4
 91
        0
  1

274
    -2
284
     1
 64
     0
275
    -2
285
     1
 65
     0
276
    -2
286
     1
 66
     0
277
    -2
287
     1
 67
     0
278
    -2
288
     1
 68
     0
279
    -2
289
     1
 69
     0
  7
Standard
140
4.5
170
     5
 62
     0
 63
   257
283
     0
 90
        4
 91
        0
  1

274
    -2
284
     1
 64
     0
275
    -2
285
     1
 65
     0
276
    -2
286
     1
 66
     0
277
    -2
287
     1
 67
     0
278
    -2
288
     1
 68
     0
279
    -2
289
     1
 69
     0
  0
VISUALSTYLE
  5
2F
102
{ACAD_REACTORS
330
2A
102
}
330
2A
100
AcDbVisualStyle
  2
2dWireframe
 70
     4
177
     3
291
     0
 70
    58
 90
        0
176
     1
 90
        2
176
     1
 90
        0
176
     1
 90
        0
176
     1
 40
0.6
176
     1
 40
30.0
176
     1
 62
     7
420
 16777215
176
     1
 90
        1
176
     1
 90
        4
176
     1
 62
     7
176
     1
 62
   257
176
     1
 90
        1
176
     1
 90
        1
176
     1
 40
1.0
176
     1
 90
        0
176
     1
 62
   257
176
     1
 40
1.0
176
     1
 90
        1
176
     1
 90
        6
176
     1
 90
        2
176
     1
 62
     7
176
     1
 90
        5
176
     1
 90
        0
176
     1
 90
        0
176
     1
290
     0
176
     1
 90
        1
176
     1
 40
0.0
176
     1
 90
        0
176
     1
290
     1
176
     1
290
     1
176
     1
290
     0
176
     1
290
     0
176
     1
290
     0
176
     1
290
     0
176
     1
290
     0
176
     1
290
     0
176
     1
290
     0
176
     1
 90
       50
176
     1
 40
0.0
176
     1
 40
1.0
176
     1
 90
        0
176
     1
 62
    18
420
        0
176
     1
 90
       50
176
     1
 90
        3
176
     1
 62
     5
420
      255
176
     1
290
     0
176
     1
 90
       50
176
     1
 90
       50
176
     1
 90
       50
176
     1
290
     0
176
     1
 90
       50
176
     1
 62
   256
176
     0
 40
1.0
176
     0
 90
        2
176
     1
  1
strokes_ogs.tif
176
     1
290
     0
176
     1
 40
1.0
176
     1
 40
1.0
176
     1
  0
VISUALSTYLE
  5
32
102
{ACAD_REACTORS
330
2A
102
}
330
2A
100
AcDbVisualStyle
  2
Basic
 70
     7
177
     3
291
     1
 70
    58
 90
        1
176
     1
 90
        0
176
     1
 90
        1
176
     1
 90
        0
176
     1
 40
0.6
176
     1
 40
30.0
176
     1
 62
     7
420
 16777215
176
     1
 90
        0
176
     1
 90
        4
176
     1
 62
     7
176
     1
 62
   257
176
     1
 90
        1
176
     1
 90
        1
176
     1
 40
1.0
176
     1
 90
        8
176
     1
 62
     7
176
     1
 40
1.0
176
     1
 90
        1
176
     1
 90
        6
176
     1
 90
        2
176
     1
 62
     7
176
     1
 90
        5
176
     1
 90
        0
176
     1
 90
        0
176
     1
290
     0
176
     1
 90
        1
176
     1
 40
0.0
176
     1
 90
        0
176
     1
290
     0
176
     1
290
     1
176
     1
290
     1
176
     1
290
     0
176
     1
290
     0
176
     1
290
     0
176
     1
290
     0
176
     1
290
     0
176
     1
290
     0
176
     1
 90
       50
176
     1
 40
0.0
176
     1
 40
1.0
176
     1
 90
        0
176
     1
 62
    18
420
        0
176
     1
 90
       50
176
     1
 90
        3
176
     1
 62
     5
420
      255
176
     1
290
     0
176
     1
 90
       50
176
     1
 90
       50
176
     1
 90
       50
176
     1
290
     0
176
     1
 90
       50
176
     1
 62
   256
176
     0
 40
1.0
176
     0
 90
        2
176
     1
  1
strokes_ogs.tif
176
     1
290
     0
176
     1
 40
1.0
176
     1
 40
1.0
176
     1
  0
VISUALSTYLE
  5
36
102
{ACAD_REACTORS
330
2A
102
}
330
2A
100
AcDbVisualStyle
  2
Brighten
 70
    12
177
     3
291
     1
 70
    58
 90
        2
176
     1
 90
        2
176
     1
 90
        0
176
     1
 90
        0
176
     1
 40
0.6
176
     1
 40
30.0
176
     1
 62
     7
420
 16777215
176
     1
 90
        1
176
     1
 90
        4
176
     1
 62
     7
176
     1
 62
   257
176
     1
 90
        1
176
     1
 90
        1
176
     1
 40
1.0
176
     1
 90
        8
176
     1
 62
     7
176
     1
 40
1.0
176
     1
 90
        1
176
     1
 90
        6
176
     1
 90
        2
176
     1
 62
     7
176
     1
 90
        5
176
     1
 90
        0
176
     1
 90
        0
176
     1
290
     0
176
     1
 90
        1
176
     1
 40
50.0
176
     1
 90
        0
176
     1
290
     0
176
     1
290
     1
176
     1
290
     1
176
     1
290
     0
176
     1
290
     0
176
     1
290
     0
176
     1
290
     0
176
     1
290
     0
176
     1
290
     0
176
     1
 90
       50
176
     1
 40
0.0
176
     1
 40
1.0
176
     1
 90
        0
176
     1
 62
    18
420
        0
176
     1
 90
       50
176
     1
 90
        3
176
     1
 62
     5
420
      255
176
     1
290
     0
176
     1
 90
       50
176
     1
 90
       50
176
     1
 90
       50
176
     1
290
     0
176
     1
 90
       50
176
     1
 62
   256
176
     0
 40
1.0
176
     0
 90
        2
176
     1
  1
strokes_ogs.tif
176
     1
290
     0
176
     1
 40
1.0
176
     1
 40
1.0
176
     1
  0
VISUALSTYLE
  5
3A
102
{ACAD_REACTORS
330
2A
102
}
330
2A
100
AcDbVisualStyle
  2
ColorChange
 70
    16
177
     3
291
     1
 70
    58
 90
        2
176
     1
 90
        2
176
     1
 90
        3
176
     1
 90
        0
176
     1
 40
0.6
176
     1
 40
30.0
176
     1
 62
     8
420
  8421504
176
     1
 90
        1
176
     1
 90
        4
176
     1
 62
     7
176
     1
 62
   257
176
     1
 90
        1
176
     1
 90
        1
176
     1
 40
1.0
176
     1
 90
        8
176
     1
 62
     8
420
  8421504
176
     1
 40
1.0
176
     1
 90
        1
176
     1
 90
        6
176
     1
 90
        2
176
     1
 62
     7
176
     1
 90
        5
176
     1
 90
        0
176
     1
 90
        0
176
     1
290
     0
176
     1
 90
        1
176
     1
 40
0.0
176
     1
 90
        0
176
     1
290
     0
176
     1
290
     1
176
     1
290
     1
176
     1
290
     0
176
     1
290
     0
176
     1
290
     0
176
     1
290
     0
176
     1
290
     0
176
     1
290
     0
176
     1
 90
       50
176
     1
 40
0.0
176
     1
 40
1.0
176
     1
 90
        0
176
     1
 62
    18
420
        0
176
     1
 90
       50
176
     1
 90
        3
176
     1
 62
     5
420
      255
176
     1
290
     0
176
     1
 90
       50
176
     1
 90
       50
176
     1
 90
       50
176
     1
290
     0
176
     1
 90
       50
176
     1
 62
   256
176
     0
 40
1.0
176
     0
 90
        2
176
     1
  1
strokes_ogs.tif
176
     1
290
     0
176
     1
 40
1.0
176
     1
 40
1.0
176
     1
  0
VISUALSTYLE
  5
34
102
{ACAD_REACTORS
330
2A
102
}
330
2A
100
AcDbVisualStyle
  2
Conceptual
 70
     9
177
     3
291
     0
 70
    58
 90
        3
176
     1
 90
        2
176
     1
 90
        0
176
     1
 90
        0
176
     1
 40
0.6
176
     1
 40
30.0
176
     1
 62
     7
420
 16777215
176
     1
 90
        2
176
     1
 90
        2
176
     1
 62
     7
176
     1
 62
   257
176
     1
 90
        1
176
     1
 90
        1
176
     1
 40
179.0
176
     1
 90
        8
176
     1
 62
     7
176
     1
 40
1.0
176
     1
 90
        1
176
     1
 90
        6
176
     1
 90
        2
176
     1
 62
     7
176
     1
 90
        3
176
     1
 90
        0
176
     1
 90
        0
176
     1
290
     0
176
     1
 90
        1
176
     1
 40
0.0
176
     1
 90
        0
176
     1
290
     0
176
     1
290
     1
176
     1
290
     1
176
     1
290
     0
176
     1
290
     0
176
     1
290
     0
176
     1
290
     0
176
     1
290
     0
176
     1
290
     0
176
     1
 90
       50
176
     1
 40
0.0
176
     1
 40
1.0
176
     1
 90
        0
176
     1
 62
    18
420
        0
176
     1
 90
       50
176
     1
 90
        3
176
     1
 62
     5
420
      255
176
     1
290
     0
176
     1
 90
       50
176
     1
 90
       50
176
     1
 90
       50
176
     1
290
     0
176
     1
 90
       50
176
     1
 62
   256
176
     0
 40
1.0
176
     0
 90
        2
176
     1
  1
strokes_ogs.tif
176
     1
290
     0
176
     1
 40
1.0
176
     1
 40
1.0
176
     1
  0
VISUALSTYLE
  5
35
102
{ACAD_REACTORS
330
2A
102
}
330
2A
100
AcDbVisualStyle
  2
Dim
 70
    11
177
     3
291
     1
 70
    58
 90
        2
176
     1
 90
        2
176
     1
 90
        0
176
     1
 90
        0
176
     1
 40
0.6
176
     1
 40
30.0
176
     1
 62
     7
420
 16777215
176
     1
 90
        1
176
     1
 90
        4
176
     1
 62
     7
176
     1
 62
   257
176
     1
 90
        1
176
     1
 90
        1
176
     1
 40
1.0
176
     1
 90
        8
176
     1
 62
     7
176
     1
 40
1.0
176
     1
 90
        1
176
     1
 90
        6
176
     1
 90
        2
176
     1
 62
     7
176
     1
 90
        5
176
     1
 90
        0
176
     1
 90
        0
176
     1
290
     0
176
     1
 90
        1
176
     1
 40
-50.0
176
     1
 90
        0
176
     1
290
     0
176
     1
290
     1
176
     1
290
     1
176
     1
290
     0
176
     1
290
     0
176
     1
290
     0
176
     1
290
     0
176
     1
290
     0
176
     1
290
     0
176
     1
 90
       50
176
     1
 40
0.0
176
     1
 40
1.0
176
     1
 90
        0
176
     1
 62
    18
420
        0
176
     1
 90
       50
176
     1
 90
        3
176
     1
 62
     5
420
      255
176
     1
290
     0
176
     1
 90
       50
176
     1
 90
       50
176
     1
 90
       50
176
     1
290
     0
176
     1
 90
       50
176
     1
 62
   256
176
     0
 40
1.0
176
     0
 90
        2
176
     1
  1
strokes_ogs.tif
176
     1
290
     0
176
     1
 40
1.0
176
     1
 40
1.0
176
     1
  0
VISUALSTYLE
  5
3D
102
{ACAD_REACTORS
330
2A
102
}
330
2A
100
AcDbVisualStyle
  2
EdgeColorOff
 70
    22
177
     3
291
     1
 70
    58
 90
        2
176
     0
 90
        2
176
     0
 90
        0
176
     0
 90
        0
176
     0
 40
0.6
176
     0
 40
30.0
176
     0
 62
     7
420
 16777215
176
     0
 90
        1
176
     0
 90
        4
176
     0
 62
     7
176
     0
 62
   257
176
     0
 90
        1
176
     0
 90
        1
176
     0
 40
1.0
176
     0
 90
        8
176
     2
 62
     7
176
     0
 40
1.0
176
     0
 90
        1
176
     0
 90
        6
176
     0
 90
        2
176
     0
 62
     7
176
     0
 90
        5
176
     0
 90
        0
176
     0
 90
        0
176
     0
290
     0
176
     0
 90
        1
176
     0
 40
0.0
176
     0
 90
        0
176
     0
290
     0
176
     0
290
     1
176
     0
290
     1
176
     0
290
     0
176
     0
290
     0
176
     0
290
     0
176
     0
290
     0
176
     0
290
     0
176
     0
290
     0
176
     0
 90
       50
176
     0
 40
0.0
176
     0
 40
1.0
176
     0
 90
        0
176
     0
 62
    18
420
        0
176
     0
 90
       50
176
     0
 90
        3
176
     0
 62
     5
420
      255
176
     0
290
     0
176
     0
 90
       50
176
     0
 90
       50
176
     0
 90
       50
176
     0
290
     0
176
     0
 90
       50
176
     0
 62
   256
176
     0
 40
1.0
176
     0
 90
        2
176
     0
  1
strokes_ogs.tif
176
     0
290
     0
176
     0
 40
1.0
176
     0
 40
1.0
176
     0
  0
VISUALSTYLE
  5
39
102
{ACAD_REACTORS
330
2A
102
}
330
2A
100
AcDbVisualStyle
  2
Facepattern
 70
    15
177
     3
291
     1
 70
    58
 90
        2
176
     1
 90
        2
176
     1
 90
        0
176
     1
 90
        0
176
     1
 40
0.6
176
     1
 40
30.0
176
     1
 62
     7
420
 16777215
176
     1
 90
        1
176
     1
 90
        4
176
     1
 62
     7
176
     1
 62
   257
176
     1
 90
        1
176
     1
 90
        1
176
     1
 40
1.0
176
     1
 90
        8
176
     1
 62
     7
176
     1
 40
1.0
176
     1
 90
        1
176
     1
 90
        6
176
     1
 90
        2
176
     1
 62
     7
176
     1
 90
        5
176
     1
 90
        0
176
     1
 90
        0
176
     1
290
     0
176
     1
 90
        1
176
     1
 40
0.0
176
     1
 90
        0
176
     1
290
     0
176
     1
290
     1
176
     1
290
     1
176
     1
290
     0
176
     1
290
     0
176
     1
290
     0
176
     1
290
     0
176
     1
290
     0
176
     1
290
     0
176
     1
 90
       50
176
     1
 40
0.0
176
     1
 40
1.0
176
     1
 90
        0
176
     1
 62
    18
420
        0
176
     1
 90
       50
176
     1
 90
        3
176
     1
 62
     5
420
      255
176
     1
290
     0
176
     1
 90
       50
176
     1
 90
       50
176
     1
 90
       50
176
     1
290
     0
176
     1
 90
       50
176
     1
 62
   256
176
     0
 40
1.0
176
     0
 90
        2
176
     1
  1
strokes_ogs.tif
176
     1
290
     0
176
     1
 40
1.0
176
     1
 40
1.0
176
     1
  0
VISUALSTYLE
  5
2B
102
{ACAD_REACTORS
330
2A
102
}
330
2A
100
AcDbVisualStyle
  2
Flat
 70
     0
177
     3
291
     1
 70
    58
 90
        2
176
     1
 90
        1
176
     1
 90
        1
176
     1
 90
        2
176
     1
 40
0.6
176
     1
 40
30.0
176
     1
 62
     7
420
 16777215
176
     1
 90
        0
176
     1
 90
        0
176
     1
 62
     7
176
     1
 62
   257
176
     1
 90
        1
176
     1
 90
        1
176
     1
 40
1.0
176
     1
 90
        8
176
     1
 62
     7
176
     1
 40
1.0
176
     1
 90
        1
176
     1
 90
        6
176
     1
 90
        2
176
     1
 62
     7
176
     1
 90
        5
176
     1
 90
        0
176
     1
 90
        0
176
     1
290
     0
176
     1
 90
       13
176
     1
 40
0.0
176
     1
 90
        0
176
     1
290
     0
176
     1
290
     1
176
     1
290
     1
176
     1
290
     0
176
     1
290
     0
176
     1
290
     0
176
     1
290
     0
176
     1
290
     0
176
     1
290
     0
176
     1
 90
       50
176
     1
 40
0.0
176
     1
 40
1.0
176
     1
 90
        0
176
     1
 62
    18
420
        0
176
     1
 90
       50
176
     1
 90
        3
176
     1
 62
     5
420
      255
176
     1
290
     0
176
     1
 90
       50
176
     1
 90
       50
176
     1
 90
       50
176
     1
290
     0
176
     1
 90
       50
176
     1
 62
   256
176
     0
 40
1.0
176
     0
 90
        2
176
     1
  1
strokes_ogs.tif
176
     1
290
     0
176
     1
 40
1.0
176
     1
 40
1.0
176
     1
  0
VISUALSTYLE
  5
2C
102
{ACAD_REACTORS
330
2A
102
}
330
2A
100
AcDbVisualStyle
  2
FlatWithEdges
 70
     1
177
     3
291
     1
 70
    58
 90
        2
176
     1
 90
        1
176
     1
 90
        1
176
     1
 90
        2
176
     1
 40
0.6
176
     1
 40
30.0
176
     1
 62
     7
420
 16777215
176
     1
 90
        1
176
     1
 90
        0
176
     1
 62
     7
176
     1
 62
   257
176
     1
 90
        1
176
     1
 90
        1
176
     1
 40
1.0
176
     1
 90
        0
176
     1
 62
   257
176
     1
 40
1.0
176
     1
 90
        1
176
     1
 90
        6
176
     1
 90
        2
176
     1
 62
     7
176
     1
 90
        5
176
     1
 90
        0
176
     1
 90
        0
176
     1
290
     0
176
     1
 90
       13
176
     1
 40
0.0
176
     1
 90
        0
176
     1
290
     0
176
     1
290
     1
176
     1
290
     1
176
     1
290
     0
176
     1
290
     0
176
     1
290
     0
176
     1
290
     0
176
     1
290
     0
176
     1
290
     0
176
     1
 90
       50
176
     1
 40
0.0
176
     1
 40
1.0
176
     1
 90
        0
176
     1
 62
    18
420
        0
176
     1
 90
       50
176
     1
 90
        3
176
     1
 62
     5
420
      255
176
     1
290
     0
176
     1
 90
       50
176
     1
 90
       50
176
     1
 90
       50
176
     1
290
     0
176
     1
 90
       50
176
     1
 62
   256
176
     0
 40
1.0
176
     0
 90
        2
176
     1
  1
strokes_ogs.tif
176
     1
290
     0
176
     1
 40
1.0
176
     1
 40
1.0
176
     1
  0
VISUALSTYLE
  5
2D
102
{ACAD_REACTORS
330
2A
102
}
330
2A
100
AcDbVisualStyle
  2
Gouraud
 70
     2
177
     3
291
     1
 70
    58
 90
        2
176
     1
 90
        2
176
     1
 90
        1
176
     1
 90
        2
176
     1
 40
0.6
176
     1
 40
30.0
176
     1
 62
     7
420
 16777215
176
     1
 90
        0
176
     1
 90
        0
176
     1
 62
     7
176
     1
 62
   257
176
     1
 90
        1
176
     1
 90
        1
176
     1
 40
1.0
176
     1
 90
        0
176
     1
 62
     7
176
     1
 40
1.0
176
     1
 90
        1
176
     1
 90
        6
176
     1
 90
        2
176
     1
 62
     7
176
     1
 90
        5
176
     1
 90
        0
176
     1
 90
        0
176
     1
290
     0
176
     1
 90
       13
176
     1
 40
0.0
176
     1
 90
        0
176
     1
290
     0
176
     1
290
     1
176
     1
290
     1
176
     1
290
     0
176
     1
290
     0
176
     1
290
     0
176
     1
290
     0
176
     1
290
     0
176
     1
290
     0
176
     1
 90
       50
176
     1
 40
0.0
176
     1
 40
1.0
176
     1
 90
        0
176
     1
 62
    18
420
        0
176
     1
 90
       50
176
     1
 90
        3
176
     1
 62
     5
420
      255
176
     1
290
     0
176
     1
 90
       50
176
     1
 90
       50
176
     1
 90
       50
176
     1
290
     0
176
     1
 90
       50
176
     1
 62
   256
176
     0
 40
1.0
176
     0
 90
        2
176
     1
  1
strokes_ogs.tif
176
     1
290
     0
176
     1
 40
1.0
176
     1
 40
1.0
176
     1
  0
VISUALSTYLE
  5
2E
102
{ACAD_REACTORS
330
2A
102
}
330
2A
100
AcDbVisualStyle
  2
GouraudWithEdges
 70
     3
177
     3
291
     1
 70
    58
 90
        2
176
     1
 90
        2
176
     1
 90
        1
176
     1
 90
        2
176
     1
 40
0.6
176
     1
 40
30.0
176
     1
 62
     7
420
 16777215
176
     1
 90
        1
176
     1
 90
        0
176
     1
 62
     7
176
     1
 62
   257
176
     1
 90
        1
176
     1
 90
        1
176
     1
 40
1.0
176
     1
 90
        0
176
     1
 62
   257
176
     1
 40
1.0
176
     1
 90
        1
176
     1
 90
        6
176
     1
 90
        2
176
     1
 62
     7
176
     1
 90
        5
176
     1
 90
        0
176
     1
 90
        0
176
     1
290
     0
176
     1
 90
       13
176
     1
 40
0.0
176
     1
 90
        0
176
     1
290
     0
176
     1
290
     1
176
     1
290
     1
176
     1
290
     0
176
     1
290
     0
176
     1
290
     0
176
     1
290
     0
176
     1
290
     0
176
     1
290
     0
176
     1
 90
       50
176
     1
 40
0.0
176
     1
 40
1.0
176
     1
 90
        0
176
     1
 62
    18
420
        0
176
     1
 90
       50
176
     1
 90
        3
176
     1
 62
     5
420
      255
176
     1
290
     0
176
     1
 90
       50
176
     1
 90
       50
176
     1
 90
       50
176
     1
290
     0
176
     1
 90
       50
176
     1
 62
   256
176
     0
 40
1.0
176
     0
 90
        2
176
     1
  1
strokes_ogs.tif
176
     1
290
     0
176
     1
 40
1.0
176
     1
 40
1.0
176
     1
  0
VISUALSTYLE
  5
31
102
{ACAD_REACTORS
330
2A
102
}
330
2A
100
AcDbVisualStyle
  2
Hidden
 70
     6
177
     3
291
     0
 70
    58
 90
        1
176
     1
 90
        2
176
     1
 90
        2
176
     1
 90
        0
176
     1
 40
0.6
176
     1
 40
30.0
176
     1
 62
     7
420
 16777215
176
     1
 90
        2
176
     1
 90
        2
176
     1
 62
     7
176
     1
 62
   257
176
     1
 90
        2
176
     1
 90
        1
176
     1
 40
40.0
176
     1
 90
        0
176
     1
 62
   257
176
     1
 40
1.0
176
     1
 90
        1
176
     1
 90
        6
176
     1
 90
        2
176
     1
 62
     7
176
     1
 90
        3
176
     1
 90
        0
176
     1
 90
        0
176
     1
290
     0
176
     1
 90
        1
176
     1
 40
0.0
176
     1
 90
        0
176
     1
290
     0
176
     1
290
     1
176
     1
290
     1
176
     1
290
     0
176
     1
290
     0
176
     1
290
     0
176
     1
290
     0
176
     1
290
     0
176
     1
290
     0
176
     1
 90
       50
176
     1
 40
0.0
176
     1
 40
1.0
176
     1
 90
        0
176
     1
 62
    18
420
        0
176
     1
 90
       50
176
     1
 90
        3
176
     1
 62
     5
420
      255
176
     1
290
     0
176
     1
 90
       50
176
     1
 90
       50
176
     1
 90
       50
176
     1
290
     0
176
     1
 90
       50
176
     1
 62
   256
176
     0
 40
1.0
176
     0
 90
        2
176
     1
  1
strokes_ogs.tif
176
     1
290
     0
176
     1
 40
1.0
176
     1
 40
1.0
176
     1
  0
VISUALSTYLE
  5
3B
102
{ACAD_REACTORS
330
2A
102
}
330
2A
100
AcDbVisualStyle
  2
JitterOff
 70
    20
177
     3
291
     1
 70
    58
 90
        2
176
     0
 90
        2
176
     0
 90
        0
176
     0
 90
        0
176
     0
 40
0.6
176
     0
 40
30.0
176
     0
 62
     7
420
 16777215
176
     0
 90
        1
176
     0
 90
        4
176
     0
 62
     7
176
     0
 62
   257
176
     0
 90
        1
176
     0
 90
        1
176
     0
 40
1.0
176
     0
 90
       10
176
     2
 62
     7
176
     0
 40
1.0
176
     0
 90
        1
176
     0
 90
        6
176
     0
 90
        2
176
     0
 62
     7
176
     0
 90
        5
176
     0
 90
        0
176
     0
 90
        0
176
     0
290
     0
176
     0
 90
        1
176
     0
 40
0.0
176
     0
 90
        0
176
     0
290
     0
176
     0
290
     1
176
     0
290
     1
176
     0
290
     0
176
     0
290
     0
176
     0
290
     0
176
     0
290
     0
176
     0
290
     0
176
     0
290
     0
176
     0
 90
       50
176
     0
 40
0.0
176
     0
 40
1.0
176
     0
 90
        0
176
     0
 62
    18
420
        0
176
     0
 90
       50
176
     0
 90
        3
176
     0
 62
     5
420
      255
176
     0
290
     0
176
     0
 90
       50
176
     0
 90
       50
176
     0
 90
       50
176
     0
290
     0
176
     0
 90
       50
176
     0
 62
   256
176
     0
 40
1.0
176
     0
 90
        2
176
     0
  1
strokes_ogs.tif
176
     0
290
     0
176
     0
 40
1.0
176
     0
 40
1.0
176
     0
  0
VISUALSTYLE
  5
38
102
{ACAD_REACTORS
330
2A
102
}
330
2A
100
AcDbVisualStyle
  2
Linepattern
 70
    14
177
     3
291
     1
 70
    58
 90
        2
176
     1
 90
        2
176
     1
 90
        0
176
     1
 90
        0
176
     1
 40
0.6
176
     1
 40
30.0
176
     1
 62
     7
420
 16777215
176
     1
 90
        1
176
     1
 90
        4
176
     1
 62
     7
176
     1
 62
   257
176
     1
 90
        7
176
     1
 90
        7
176
     1
 40
1.0
176
     1
 90
        8
176
     1
 62
     7
176
     1
 40
1.0
176
     1
 90
        1
176
     1
 90
        6
176
     1
 90
        2
176
     1
 62
     7
176
     1
 90
        5
176
     1
 90
        0
176
     1
 90
        0
176
     1
290
     0
176
     1
 90
        1
176
     1
 40
0.0
176
     1
 90
        0
176
     1
290
     0
176
     1
290
     1
176
     1
290
     1
176
     1
290
     0
176
     1
290
     0
176
     1
290
     0
176
     1
290
     0
176
     1
290
     0
176
     1
290
     0
176
     1
 90
       50
176
     1
 40
0.0
176
     1
 40
1.0
176
     1
 90
        0
176
     1
 62
    18
420
        0
176
     1
 90
       50
176
     1
 90
        3
176
     1
 62
     5
420
      255
176
     1
290
     0
176
     1
 90
       50
176
     1
 90
       50
176
     1
 90
       50
176
     1
290
     0
176
     1
 90
       50
176
     1
 62
   256
176
     0
 40
1.0
176
     0
 90
        2
176
     1
  1
strokes_ogs.tif
176
     1
290
     0
176
     1
 40
1.0
176
     1
 40
1.0
176
     1
  0
VISUALSTYLE
  5
3C
102
{ACAD_REACTORS
330
2A
102
}
330
2A
100
AcDbVisualStyle
  2
OverhangOff
 70
    21
177
     3
291
     1
 70
    58
 90
        2
176
     0
 90
        2
176
     0
 90
        0
176
     0
 90
        0
176
     0
 40
0.6
176
     0
 40
30.0
176
     0
 62
     7
420
 16777215
176
     0
 90
        1
176
     0
 90
        4
176
     0
 62
     7
176
     0
 62
   257
176
     0
 90
        1
176
     0
 90
        1
176
     0
 40
1.0
176
     0
 90
        9
176
     2
 62
     7
176
     0
 40
1.0
176
     0
 90
        1
176
     0
 90
        6
176
     0
 90
        2
176
     0
 62
     7
176
     0
 90
        5
176
     0
 90
        0
176
     0
 90
        0
176
     0
290
     0
176
     0
 90
        1
176
     0
 40
0.0
176
     0
 90
        0
176
     0
290
     0
176
     0
290
     1
176
     0
290
     1
176
     0
290
     0
176
     0
290
     0
176
     0
290
     0
176
     0
290
     0
176
     0
290
     0
176
     0
290
     0
176
     0
 90
       50
176
     0
 40
0.0
176
     0
 40
1.0
176
     0
 90
        0
176
     0
 62
    18
420
        0
176
     0
 90
       50
176
     0
 90
        3
176
     0
 62
     5
420
      255
176
     0
290
     0
176
     0
 90
       50
176
     0
 90
       50
176
     0
 90
       50
176
     0
290
     0
176
     0
 90
       50
176
     0
 62
   256
176
     0
 40
1.0
176
     0
 90
        2
176
     0
  1
strokes_ogs.tif
176
     0
290
     0
176
     0
 40
1.0
176
     0
 40
1.0
176
     0
  0
VISUALSTYLE
  5
33
102
{ACAD_REACTORS
330
2A
102
}
330
2A
100
AcDbVisualStyle
  2
Realistic
 70
     8
177
     3
291
     0
 70
    58
 90
        2
176
     1
 90
        3
176
     1
 90
        0
176
     1
 90
        2
176
     1
 40
0.6
176
     1
 40
30.0
176
     1
 62
     7
420
 16777215
176
     1
 90
        0
176
     1
 90
        0
176
     1
 62
     7
176
     1
 62
   257
176
     1
 90
        1
176
     1
 90
        1
176
     1
 40
1.0
176
     1
 90
        8
176
     1
 62
   257
176
     1
 40
1.0
176
     1
 90
        1
176
     1
 90
        6
176
     1
 90
        2
176
     1
 62
     7
176
     1
 90
        3
176
     1
 90
        0
176
     1
 90
        0
176
     1
290
     0
176
     1
 90
       13
176
     1
 40
0.0
176
     1
 90
        0
176
     1
290
     0
176
     1
290
     1
176
     1
290
     1
176
     1
290
     0
176
     1
290
     0
176
     1
290
     0
176
     1
290
     0
176
     1
290
     0
176
     1
290
     0
176
     1
 90
       50
176
     1
 40
0.0
176
     1
 40
1.0
176
     1
 90
        0
176
     1
 62
    18
420
        0
176
     1
 90
       50
176
     1
 90
        3
176
     1
 62
     5
420
      255
176
     1
290
     0
176
     1
 90
       50
176
     1
 90
       50
176
     1
 90
       50
176
     1
290
     0
176
     1
 90
       50
176
     1
 62
   256
176
     0
 40
1.0
176
     0
 90
        2
176
     1
  1
strokes_ogs.tif
176
     1
290
     0
176
     1
 40
1.0
176
     1
 40
1.0
176
     1
  0
VISUALSTYLE
  5
42
102
{ACAD_REACTORS
330
2A
102
}
330
2A
100
AcDbVisualStyle
  2
Shaded
 70
    27
177
     3
291
     0
 70
    58
 90
        2
176
     1
 90
        2
176
     1
 90
        1
176
     1
 90
        2
176
     1
 40
0.6
176
     1
 40
30.0
176
     1
 62
     7
420
 16777215
176
     1
 90
        0
176
     1
 90
        4
176
     1
 62
     7
176
     1
 62
   257
176
     1
 90
        1
176
     1
 90
        1
176
     1
 40
1.0
176
     1
 90
        8
176
     1
 62
   257
176
     1
 40
1.0
176
     1
 90
        1
176
     1
 90
        6
176
     1
 90
        2
176
     1
 62
     8
420
  7895160
176
     1
 90
        3
176
     1
 90
        0
176
     1
 90
        0
176
     1
290
     0
176
     1
 90
        5
176
     1
 40
0.0
176
     1
 90
        0
176
     1
290
     0
176
     1
290
     1
176
     1
290
     1
176
     1
290
     0
176
     1
290
     0
176
     1
290
     0
176
     1
290
     0
176
     1
290
     0
176
     1
290
     0
176
     1
 90
       50
176
     1
 40
0.0
176
     1
 40
1.0
176
     1
 90
        0
176
     1
 62
    18
420
        0
176
     1
 90
       50
176
     1
 90
        3
176
     1
 62
     5
420
      255
176
     1
290
     0
176
     1
 90
       50
176
     1
 90
       50
176
     1
 90
       50
176
     1
290
     0
176
     1
 90
       50
176
     1
 62
   256
176
     0
 40
1.0
176
     0
 90
        2
176
     1
  1
strokes_ogs.tif
176
     1
290
     0
176
     1
 40
1.0
176
     1
 40
1.0
176
     1
  0
VISUALSTYLE
  5
41
102
{ACAD_REACTORS
330
2A
102
}
330
2A
100
AcDbVisualStyle
  2
Shaded with edges
 70
    26
177
     3
291
     0
 70
    58
 90
        2
176
     1
 90
        2
176
     1
 90
        1
176
     1
 90
        2
176
     1
 40
0.6
176
     1
 40
30.0
176
     1
 62
     7
420
 16777215
176
     1
 90
        1
176
     1
 90
       10
176
     1
 62
     7
176
     1
 62
   257
176
     1
 90
        2
176
     1
 90
        1
176
     1
 40
1.0
176
     1
 90
        8
176
     1
 62
   257
176
     1
 40
1.0
176
     1
 90
        1
176
     1
 90
        6
176
     1
 90
        2
176
     1
 62
     7
176
     1
 90
        3
176
     1
 90
        0
176
     1
 90
        0
176
     1
290
     0
176
     1
 90
        5
176
     1
 40
0.0
176
     1
 90
        0
176
     1
290
     0
176
     1
290
     1
176
     1
290
     1
176
     1
290
     0
176
     1
290
     0
176
     1
290
     0
176
     1
290
     0
176
     1
290
     0
176
     1
290
     0
176
     1
 90
       50
176
     1
 40
0.0
176
     1
 40
1.0
176
     1
 90
        0
176
     1
 62
    18
420
        0
176
     1
 90
       50
176
     1
 90
        3
176
     1
 62
     5
420
      255
176
     1
290
     0
176
     1
 90
       50
176
     1
 90
       50
176
     1
 90
       50
176
     1
290
     0
176
     1
 90
       50
176
     1
 62
   256
176
     0
 40
1.0
176
     0
 90
        2
176
     1
  1
strokes_ogs.tif
176
     1
290
     0
176
     1
 40
1.0
176
     1
 40
1.0
176
     1
  0
VISUALSTYLE
  5
3E
102
{ACAD_REACTORS
330
2A
102
}
330
2A
100
AcDbVisualStyle
  2
Shades of Gray
 70
    23
177
     3
291
     0
 70
    58
 90
        2
176
     1
 90
        2
176
     1
 90
        3
176
     1
 90
        0
176
     1
 40
0.6
176
     1
 40
30.0
176
     1
 62
     7
420
 16777215
176
     1
 90
        2
176
     1
 90
        2
176
     1
 62
     7
176
     1
 62
     7
176
     1
 90
        1
176
     1
 90
        1
176
     1
 40
40.0
176
     1
 90
        8
176
     1
 62
     7
176
     1
 40
1.0
176
     1
 90
        1
176
     1
 90
        6
176
     1
 90
        2
176
     1
 62
     7
176
     1
 90
        3
176
     1
 90
        0
176
     1
 90
        0
176
     1
290
     0
176
     1
 90
        1
176
     1
 40
0.0
176
     1
 90
        0
176
     1
290
     0
176
     1
290
     1
176
     1
290
     1
176
     1
290
     0
176
     1
290
     0
176
     1
290
     0
176
     1
290
     0
176
     1
290
     0
176
     1
290
     0
176
     1
 90
       50
176
     1
 40
0.0
176
     1
 40
1.0
176
     1
 90
        0
176
     1
 62
    18
420
        0
176
     1
 90
       50
176
     1
 90
        3
176
     1
 62
     5
420
      255
176
     1
290
     0
176
     1
 90
       50
176
     1
 90
       50
176
     1
 90
       50
176
     1
290
     0
176
     1
 90
       50
176
     1
 62
   256
176
     0
 40
1.0
176
     0
 90
        2
176
     1
  1
strokes_ogs.tif
176
     1
290
     0
176
     1
 40
1.0
176
     1
 40
1.0
176
     1
  0
VISUALSTYLE
  5
3F
102
{ACAD_REACTORS
330
2A
102
}
330
2A
100
AcDbVisualStyle
  2
Sketchy
 70
    24
177
     3
291
     0
 70
    58
 90
        1
176
     1
 90
        2
176
     1
 90
        2
176
     1
 90
        0
176
     1
 40
0.6
176
     1
 40
30.0
176
     1
 62
     7
420
 16777215
176
     1
 90
        2
176
     1
 90
        2
176
     1
 62
     7
176
     1
 62
     7
176
     1
 90
        1
176
     1
 90
        1
176
     1
 40
40.0
176
     1
 90
       11
176
     1
 62
     7
176
     1
 40
1.0
176
     1
 90
        1
176
     1
 90
        6
176
     1
 90
        2
176
     1
 62
     7
176
     1
 90
        6
176
     1
 90
        0
176
     1
 90
        0
176
     1
290
     0
176
     1
 90
        1
176
     1
 40
0.0
176
     1
 90
        0
176
     1
290
     0
176
     1
290
     1
176
     1
290
     1
176
     1
290
     0
176
     1
290
     0
176
     1
290
     0
176
     1
290
     0
176
     1
290
     0
176
     1
290
     0
176
     1
 90
       50
176
     1
 40
0.0
176
     1
 40
1.0
176
     1
 90
        0
176
     1
 62
    18
420
        0
176
     1
 90
       50
176
     1
 90
        3
176
     1
 62
     5
420
      255
176
     1
290
     0
176
     1
 90
       50
176
     1
 90
       50
176
     1
 90
       50
176
     1
290
     0
176
     1
 90
       50
176
     1
 62
   256
176
     0
 40
1.0
176
     0
 90
        2
176
     1
  1
strokes_ogs.tif
176
     1
290
     0
176
     1
 40
1.0
176
     1
 40
1.0
176
     1
  0
VISUALSTYLE
  5
37
102
{ACAD_REACTORS
330
2A
102
}
330
2A
100
AcDbVisualStyle
  2
Thicken
 70
    13
177
     3
291
     1
 70
    58
 90
        2
176
     1
 90
        2
176
     1
 90
        0
176
     1
 90
        0
176
     1
 40
0.6
176
     1
 40
30.0
176
     1
 62
     7
420
 16777215
176
     1
 90
        1
176
     1
 90
        4
176
     1
 62
     7
176
     1
 62
   257
176
     1
 90
        1
176
     1
 90
        1
176
     1
 40
1.0
176
     1
 90
       12
176
     1
 62
     7
176
     1
 40
1.0
176
     1
 90
        1
176
     1
 90
        6
176
     1
 90
        2
176
     1
 62
     7
176
     1
 90
        5
176
     1
 90
        0
176
     1
 90
        0
176
     1
290
     0
176
     1
 90
        1
176
     1
 40
0.0
176
     1
 90
        0
176
     1
290
     0
176
     1
290
     1
176
     1
290
     1
176
     1
290
     0
176
     1
290
     0
176
     1
290
     0
176
     1
290
     0
176
     1
290
     0
176
     1
290
     0
176
     1
 90
       50
176
     1
 40
0.0
176
     1
 40
1.0
176
     1
 90
        0
176
     1
 62
    18
420
        0
176
     1
 90
       50
176
     1
 90
        3
176
     1
 62
     5
420
      255
176
     1
290
     0
176
     1
 90
       50
176
     1
 90
       50
176
     1
 90
       50
176
     1
290
     0
176
     1
 90
       50
176
     1
 62
   256
176
     0
 40
1.0
176
     0
 90
        2
176
     1
  1
strokes_ogs.tif
176
     1
290
     0
176
     1
 40
1.0
176
     1
 40
1.0
176
     1
  0
VISUALSTYLE
  5
30
102
{ACAD_REACTORS
330
2A
102
}
330
2A
100
AcDbVisualStyle
  2
Wireframe
 70
     5
177
     3
291
     0
 70
    58
 90
        0
176
     1
 90
        2
176
     1
 90
        0
176
     1
 90
        0
176
     1
 40
0.6
176
     1
 40
30.0
176
     1
 62
     7
420
 16777215
176
     1
 90
        1
176
     1
 90
        4
176
     1
 62
     7
176
     1
 62
   257
176
     1
 90
        1
176
     1
 90
        1
176
     1
 40
1.0
176
     1
 90
        0
176
     1
 62
   257
176
     1
 40
1.0
176
     1
 90
        1
176
     1
 90
        6
176
     1
 90
        2
176
     1
 62
     7
176
     1
 90
        3
176
     1
 90
        0
176
     1
 90
        0
176
     1
290
     0
176
     1
 90
        1
176
     1
 40
0.0
176
     1
 90
        0
176
     1
290
     0
176
     1
290
     1
176
     1
290
     1
176
     1
290
     0
176
     1
290
     0
176
     1
290
     0
176
     1
290
     0
176
     1
290
     0
176
     1
290
     0
176
     1
 90
       50
176
     1
 40
0.0
176
     1
 40
1.0
176
     1
 90
        0
176
     1
 62
    18
420
        0
176
     1
 90
       50
176
     1
 90
        3
176
     1
 62
     5
420
      255
176
     1
290
     0
176
     1
 90
       50
176
     1
 90
       50
176
     1
 90
       50
176
     1
290
     0
176
     1
 90
       50
176
     1
 62
   256
176
     0
 40
1.0
176
     0
 90
        2
176
     1
  1
strokes_ogs.tif
176
     1
290
     0
176
     1
 40
1.0
176
     1
 40
1.0
176
     1
  0
VISUALSTYLE
  5
40
102
{ACAD_REACTORS
330
2A
102
}
330
2A
100
AcDbVisualStyle
  2
X-Ray
 70
    25
177
     3
291
     0
 70
    58
 90
        2
176
     1
 90
        2
176
     1
 90
        1
176
     1
 90
        1
176
     1
 40
0.5
176
     1
 40
30.0
176
     1
 62
     7
420
 16777215
176
     1
 90
        1
176
     1
 90
        0
176
     1
 62
     7
176
     1
 62
   257
176
     1
 90
        1
176
     1
 90
        1
176
     1
 40
1.0
176
     1
 90
        8
176
     1
 62
     7
176
     1
 40
1.0
176
     1
 90
        1
176
     1
 90
        6
176
     1
 90
        2
176
     1
 62
     7
176
     1
 90
        3
176
     1
 90
        0
176
     1
 90
        0
176
     1
290
     0
176
     1
 90
       13
176
     1
 40
0.0
176
     1
 90
        0
176
     1
290
     0
176
     1
290
     1
176
     1
290
     1
176
     1
290
     0
176
     1
290
     0
176
     1
290
     0
176
     1
290
     0
176
     1
290
     0
176
     1
290
     0
176
     1
 90
       50
176
     1
 40
0.0
176
     1
 40
1.0
176
     1
 90
        0
176
     1
 62
    18
420
        0
176
     1
 90
       50
176
     1
 90
        3
176
     1
 62
     5
420
      255
176
     1
290
     0
176
     1
 90
       50
176
     1
 90
       50
176
     1
 90
       50
176
     1
290
     0
176
     1
 90
       50
176
     1
 62
   256
176
     0
 40
1.0
176
     0
 90
        2
176
     1
  1
strokes_ogs.tif
176
     1
290
     0
176
     1
 40
1.0
176
     1
 40
1.0
176
     1
  0
DICTIONARYVAR
  5
1F3
102
{ACAD_REACTORS
330
1F2
102
}
330
1F2
100
DictionaryVariables
280
     0
  1
1:1
  0
DICTIONARYVAR
  5
1FB
102
{ACAD_REACTORS
330
1F2
102
}
330
1F2
100
DictionaryVariables
280
     0
  1
3.500000
  0
DICTIONARYVAR
  5
1FC
102
{ACAD_REACTORS
330
1F2
102
}
330
1F2
100
DictionaryVariables
280
     0
  1
acadiso.lin
  0
DICTIONARYVAR
  5
1F8
102
{ACAD_REACTORS
330
1F2
102
}
330
1F2
100
DictionaryVariables
280
     0
  1
Standard
  0
DICTIONARYVAR
  5
1F7
102
{ACAD_REACTORS
330
1F2
102
}
330
1F2
100
DictionaryVariables
280
     0
  1
Standard
  0
DICTIONARY
  5
1F4
330
6A
100
AcDbDictionary
280
     1
281
     1
  3
ACAD_ROUNDTRIP_2008_TABLESTYLE_CELLSTYLEMAP
360
1F5
  0
CELLSTYLEMAP
  5
1F5
102
{ACAD_REACTORS
330
1F4
102
}
330
1F4
100
AcDbCellStyleMap
 90
        3
300
CELLSTYLE
  1
TABLEFORMAT_BEGIN
 90
        5
170
     1
 91
        0
 92
    32768
 62
   257
 93
        1
300
CONTENTFORMAT
  1
CONTENTFORMAT_BEGIN
 90
        0
 91
        0
 92
        4
 93
        0
300

 40
0.0
140
1.0
 94
        5
 62
     0
340
11
144
6.0
309
CONTENTFORMAT_END
171
     1
301
MARGIN
  1
CELLMARGIN_BEGIN
 40
1.5
 40
1.5
 40
1.5
 40
1.5
 40
1.5
 40
1.5
309
CELLMARGIN_END
 94
        6
 95
        1
302
GRIDFORMAT
  1
GRIDFORMAT_BEGIN
 90
        0
 91
        1
 62
     0
 92
       -2
340
14
 93
        0
 40
0.045
309
GRIDFORMAT_END
 95
        2
302
GRIDFORMAT
  1
GRIDFORMAT_BEGIN
 90
        0
 91
        1
 62
     0
 92
       -2
340
14
 93
        0
 40
0.045
309
GRIDFORMAT_END
 95
        4
302
GRIDFORMAT
  1
GRIDFORMAT_BEGIN
 90
        0
 91
        1
 62
     0
 92
       -2
340
14
 93
        0
 40
0.045
309
GRIDFORMAT_END
 95
        8
302
GRIDFORMAT
  1
GRIDFORMAT_BEGIN
 90
        0
 91
        1
 62
     0
 92
       -2
340
14
 93
        0
 40
0.045
309
GRIDFORMAT_END
 95
       16
302
GRIDFORMAT
  1
GRIDFORMAT_BEGIN
 90
        0
 91
        1
 62
     0
 92
       -2
340
14
 93
        0
 40
0.045
309
GRIDFORMAT_END
 95
       32
302
GRIDFORMAT
  1
GRIDFORMAT_BEGIN
 90
        0
 91
        1
 62
     0
 92
       -2
340
14
 93
        0
 40
0.045
309
GRIDFORMAT_END
309
TABLEFORMAT_END
  1
CELLSTYLE_BEGIN
 90
        1
 91
        1
300
_TITLE
309
CELLSTYLE_END
300
CELLSTYLE
  1
TABLEFORMAT_BEGIN
 90
        5
170
     1
 91
        0
 92
        0
 62
   257
 93
        1
300
CONTENTFORMAT
  1
CONTENTFORMAT_BEGIN
 90
        0
 91
        0
 92
        4
 93
        0
300

 40
0.0
140
1.0
 94
        5
 62
     0
340
11
144
4.5
309
CONTENTFORMAT_END
171
     1
301
MARGIN
  1
CELLMARGIN_BEGIN
 40
1.5
 40
1.5
 40
1.5
 40
1.5
 40
1.5
 40
1.5
309
CELLMARGIN_END
 94
        6
 95
        1
302
GRIDFORMAT
  1
GRIDFORMAT_BEGIN
 90
        0
 91
        1
 62
     0
 92
       -2
340
14
 93
        0
 40
0.045
309
GRIDFORMAT_END
 95
        2
302
GRIDFORMAT
  1
GRIDFORMAT_BEGIN
 90
        0
 91
        1
 62
     0
 92
       -2
340
14
 93
        0
 40
0.045
309
GRIDFORMAT_END
 95
        4
302
GRIDFORMAT
  1
GRIDFORMAT_BEGIN
 90
        0
 91
        1
 62
     0
 92
       -2
340
14
 93
        0
 40
0.045
309
GRIDFORMAT_END
 95
        8
302
GRIDFORMAT
  1
GRIDFORMAT_BEGIN
 90
        0
 91
        1
 62
     0
 92
       -2
340
14
 93
        0
 40
0.045
309
GRIDFORMAT_END
 95
       16
302
GRIDFORMAT
  1
GRIDFORMAT_BEGIN
 90
        0
 91
        1
 62
     0
 92
       -2
340
14
 93
        0
 40
0.045
309
GRIDFORMAT_END
 95
       32
302
GRIDFORMAT
  1
GRIDFORMAT_BEGIN
 90
        0
 91
        1
 62
     0
 92
       -2
340
14
 93
        0
 40
0.045
309
GRIDFORMAT_END
309
TABLEFORMAT_END
  1
CELLSTYLE_BEGIN
 90
        2
 91
        1
300
_HEADER
309
CELLSTYLE_END
300
CELLSTYLE
  1
TABLEFORMAT_BEGIN
 90
        5
170
     1
 91
        0
 92
        0
 62
   257
 93
        1
300
CONTENTFORMAT
  1
CONTENTFORMAT_BEGIN
 90
        0
 91
        0
 92
        4
 93
        0
300

 40
0.0
140
1.0
 94
        2
 62
     0
340
11
144
4.5
309
CONTENTFORMAT_END
171
     1
301
MARGIN
  1
CELLMARGIN_BEGIN
 40
1.5
 40
1.5
 40
1.5
 40
1.5
 40
1.5
 40
1.5
309
CELLMARGIN_END
 94
        6
 95
        1
302
GRIDFORMAT
  1
GRIDFORMAT_BEGIN
 90
        0
 91
        1
 62
     0
 92
       -2
340
14
 93
        0
 40
0.045
309
GRIDFORMAT_END
 95
        2
302
GRIDFORMAT
  1
GRIDFORMAT_BEGIN
 90
        0
 91
        1
 62
     0
 92
       -2
340
14
 93
        0
 40
0.045
309
GRIDFORMAT_END
 95
        4
302
GRIDFORMAT
  1
GRIDFORMAT_BEGIN
 90
        0
 91
        1
 62
     0
 92
       -2
340
14
 93
        0
 40
0.045
309
GRIDFORMAT_END
 95
        8
302
GRIDFORMAT
  1
GRIDFORMAT_BEGIN
 90
        0
 91
        1
 62
     0
 92
       -2
340
14
 93
        0
 40
0.045
309
GRIDFORMAT_END
 95
       16
302
GRIDFORMAT
  1
GRIDFORMAT_BEGIN
 90
        0
 91
        1
 62
     0
 92
       -2
340
14
 93
        0
 40
0.045
309
GRIDFORMAT_END
 95
       32
302
GRIDFORMAT
  1
GRIDFORMAT_BEGIN
 90
        0
 91
        1
 62
     0
 92
       -2
340
14
 93
        0
 40
0.045
309
GRIDFORMAT_END
309
TABLEFORMAT_END
  1
CELLSTYLE_BEGIN
 90
        3
 91
        2
300
_DATA
309
CELLSTYLE_END
  0
ENDSEC
  0
EOF
