  0
SECTION
  2
HEADER
  9
$ACADVER
  1
AC1015
  9
$ACADMAINTVER
 70
     6
  9
$DWGCODEPAGE
  3
ANSI_1250
  9
$INSBASE
 10
0.0
 20
0.0
 30
0.0
  9
$EXTMIN
 10
6024.0187553361
 20
4046.6133319253
 30
0.0
  9
$EXTMAX
 10
7425.6032005325
 20
5478.6994545927
 30
0.0
  9
$LIMMIN
 10
0.0
 20
0.0
  9
$LIMMAX
 10
420.0
 20
297.0
  9
$ORTHOMODE
 70
     0
  9
$REGENMODE
 70
     1
  9
$FILLMODE
 70
     1
  9
$QTEXTMODE
 70
     0
  9
$MIRRTEXT
 70
     1
  9
$LTSCALE
 40
1.0
  9
$ATTMODE
 70
     1
  9
$TEXTSIZE
 40
3.5
  9
$TRACEWID
 40
1.0
  9
$TEXTSTYLE
  7
Standard
  9
$CLAYER
  8
0
  9
$CELTYPE
  6
ByLayer
  9
$CECOLOR
 62
   256
  9
$CELTSCALE
 40
1.0
  9
$DISPSILH
 70
     0
  9
$DIMSCALE
 40
1.0
  9
$DIMASZ
 40
3.302
  9
$DIMEXO
 40
0.0
  9
$DIMDLI
 40
3.75
  9
$DIMRND
 40
0.0
  9
$DIMDLE
 40
0.0
  9
$DIMEXE
 40
1.0
  9
$DIMTP
 40
0.0
  9
$DIMTM
 40
0.0
  9
$DIMTXT
 40
3.5
  9
$DIMCEN
 40
2.5
  9
$DIMTSZ
 40
0.0
  9
$DIMTOL
 70
     0
  9
$DIMLIM
 70
     0
  9
$DIMTIH
 70
     1
  9
$DIMTOH
 70
     1
  9
$DIMSE1
 70
     0
  9
$DIMSE2
 70
     0
  9
$DIMTAD
 70
     1
  9
$DIMZIN
 70
     0
  9
$DIMBLK
  1

  9
$DIMASO
 70
     1
  9
$DIMSHO
 70
     1
  9
$DIMPOST
  1

  9
$DIMAPOST
  1

  9
$DIMALT
 70
     0
  9
$DIMALTD
 70
     3
  9
$DIMALTF
 40
0.0393700787
  9
$DIMLFAC
 40
1.0
  9
$DIMTOFL
 70
     1
  9
$DIMTVP
 40
0.0
  9
$DIMTIX
 70
     0
  9
$DIMSOXD
 70
     0
  9
$DIMSAH
 70
     0
  9
$DIMBLK1
  1

  9
$DIMBLK2
  1

  9
$DIMSTYLE
  2
ISO-25
  9
$DIMCLRD
 70
     0
  9
$DIMCLRE
 70
     0
  9
$DIMCLRT
 70
     0
  9
$DIMTFAC
 40
1.0
  9
$DIMGAP
 40
1.524
  9
$DIMJUST
 70
     0
  9
$DIMSD1
 70
     0
  9
$DIMSD2
 70
     0
  9
$DIMTOLJ
 70
     0
  9
$DIMTZIN
 70
     0
  9
$DIMALTZ
 70
     0
  9
$DIMALTTZ
 70
     0
  9
$DIMUPT
 70
     0
  9
$DIMDEC
 70
     2
  9
$DIMTDEC
 70
     2
  9
$DIMALTU
 70
     2
  9
$DIMALTTD
 70
     3
  9
$DIMTXSTY
  7
Standard
  9
$DIMAUNIT
 70
     0
  9
$DIMADEC
 70
     2
  9
$DIMALTRND
 40
0.0
  9
$DIMAZIN
 70
     0
  9
$DIMDSEP
 70
    44
  9
$DIMATFIT
 70
     3
  9
$DIMFRAC
 70
     0
  9
$DIMLDRBLK
  1

  9
$DIMLUNIT
 70
     2
  9
$DIMLWD
 70
    -2
  9
$DIMLWE
 70
    -2
  9
$DIMTMOVE
 70
     0
  9
$LUNITS
 70
     2
  9
$LUPREC
 70
     2
  9
$SKETCHINC
 40
1.0
  9
$FILLETRAD
 40
10.0
  9
$AUNITS
 70
     0
  9
$AUPREC
 70
     2
  9
$MENU
  1
.
  9
$ELEVATION
 40
0.0
  9
$PELEVATION
 40
0.0
  9
$THICKNESS
 40
0.0
  9
$LIMCHECK
 70
     0
  9
$CHAMFERA
 40
0.0
  9
$CHAMFERB
 40
0.0
  9
$CHAMFERC
 40
0.0
  9
$CHAMFERD
 40
0.0
  9
$SKPOLY
 70
     0
  9
$TDCREATE
 40
2459096.536460058
  9
$TDUCREATE
 40
2459096.453126724
  9
$TDUPDATE
 40
2459096.536492361
  9
$TDUUPDATE
 40
2459096.453159028
  9
$TDINDWG
 40
0.0000000116
  9
$TDUSRTIMER
 40
0.0000000116
  9
$USRTIMER
 70
     1
  9
$ANGBASE
 50
0.0
  9
$ANGDIR
 70
     0
  9
$PDMODE
 70
     0
  9
$PDSIZE
 40
-1.0
  9
$PLINEWID
 40
0.0
  9
$SPLFRAME
 70
     0
  9
$SPLINETYPE
 70
     6
  9
$SPLINESEGS
 70
     8
  9
$HANDSEED
  5
3B8
  9
$SURFTAB1
 70
     6
  9
$SURFTAB2
 70
     6
  9
$SURFTYPE
 70
     6
  9
$SURFU
 70
     6
  9
$SURFV
 70
     6
  9
$UCSBASE
  2

  9
$UCSNAME
  2

  9
$UCSORG
 10
0.0
 20
0.0
 30
0.0
  9
$UCSXDIR
 10
1.0
 20
0.0
 30
0.0
  9
$UCSYDIR
 10
0.0
 20
1.0
 30
0.0
  9
$UCSORTHOREF
  2

  9
$UCSORTHOVIEW
 70
     0
  9
$UCSORGTOP
 10
0.0
 20
0.0
 30
0.0
  9
$UCSORGBOTTOM
 10
0.0
 20
0.0
 30
0.0
  9
$UCSORGLEFT
 10
0.0
 20
0.0
 30
0.0
  9
$UCSORGRIGHT
 10
0.0
 20
0.0
 30
0.0
  9
$UCSORGFRONT
 10
0.0
 20
0.0
 30
0.0
  9
$UCSORGBACK
 10
0.0
 20
0.0
 30
0.0
  9
$PUCSBASE
  2

  9
$PUCSNAME
  2

  9
$PUCSORG
 10
0.0
 20
0.0
 30
0.0
  9
$PUCSXDIR
 10
1.0
 20
0.0
 30
0.0
  9
$PUCSYDIR
 10
0.0
 20
1.0
 30
0.0
  9
$PUCSORTHOREF
  2

  9
$PUCSORTHOVIEW
 70
     0
  9
$PUCSORGTOP
 10
0.0
 20
0.0
 30
0.0
  9
$PUCSORGBOTTOM
 10
0.0
 20
0.0
 30
0.0
  9
$PUCSORGLEFT
 10
0.0
 20
0.0
 30
0.0
  9
$PUCSORGRIGHT
 10
0.0
 20
0.0
 30
0.0
  9
$PUCSORGFRONT
 10
0.0
 20
0.0
 30
0.0
  9
$PUCSORGBACK
 10
0.0
 20
0.0
 30
0.0
  9
$USERI1
 70
     0
  9
$USERI2
 70
     0
  9
$USERI3
 70
     0
  9
$USERI4
 70
     0
  9
$USERI5
 70
     0
  9
$USERR1
 40
0.0
  9
$USERR2
 40
0.0
  9
$USERR3
 40
0.0
  9
$USERR4
 40
0.0
  9
$USERR5
 40
0.0
  9
$WORLDVIEW
 70
     1
  9
$SHADEDGE
 70
     3
  9
$SHADEDIF
 70
    70
  9
$TILEMODE
 70
     1
  9
$MAXACTVP
 70
    64
  9
$PINSBASE
 10
0.0
 20
0.0
 30
0.0
  9
$PLIMCHECK
 70
     0
  9
$PEXTMIN
 10
1.0000000000E+20
 20
1.0000000000E+20
 30
1.0000000000E+20
  9
$PEXTMAX
 10
-1.0000000000E+20
 20
-1.0000000000E+20
 30
-1.0000000000E+20
  9
$PLIMMIN
 10
0.0
 20
0.0
  9
$PLIMMAX
 10
420.0
 20
297.0
  9
$UNITMODE
 70
     0
  9
$VISRETAIN
 70
     1
  9
$PLINEGEN
 70
     0
  9
$PSLTSCALE
 70
     1
  9
$TREEDEPTH
 70
  3020
  9
$CMLSTYLE
  2
Standard
  9
$CMLJUST
 70
     0
  9
$CMLSCALE
 40
20.0
  9
$PROXYGRAPHICS
 70
     1
  9
$MEASUREMENT
 70
     1
  9
$CELWEIGHT
370
    -1
  9
$ENDCAPS
280
     0
  9
$JOINSTYLE
280
     0
  9
$LWDISPLAY
290
     1
  9
$INSUNITS
 70
     4
  9
$HYPERLINKBASE
  1

  9
$STYLESHEET
  1

  9
$XEDIT
290
     1
  9
$CEPSNTYPE
380
     0
  9
$PSTYLEMODE
290
     1
  9
$FINGERPRINTGUID
  2
{b8aadd71-681e-44f7-9bae-88bbf3b54aca}
  9
$VERSIONGUID
  2
{FAEB1C32-E019-11D5-929B-00C0DF256EC4}
  9
$EXTNAMES
290
     1
  9
$PSVPSCALE
 40
0.0
  9
$OLESTARTUP
290
     0
  0
ENDSEC
  0
SECTION
  2
CLASSES
  0
CLASS
  1
ACDBDICTIONARYWDFLT
  2
AcDbDictionaryWithDefault
  3
ObjectDBX Classes
 90
        0
280
     0
281
     0
  0
CLASS
  1
VISUALSTYLE
  2
AcDbVisualStyle
  3
ObjectDBX Classes
 90
     4095
280
     0
281
     0
  0
CLASS
  1
MATERIAL
  2
AcDbMaterial
  3
ObjectDBX Classes
 90
     1153
280
     0
281
     0
  0
CLASS
  1
SCALE
  2
AcDbScale
  3
ObjectDBX Classes
 90
     1153
280
     0
281
     0
  0
CLASS
  1
TABLESTYLE
  2
AcDbTableStyle
  3
ObjectDBX Classes
 90
     4095
280
     0
281
     0
  0
CLASS
  1
MLEADERSTYLE
  2
AcDbMLeaderStyle
  3
ACDB_MLEADERSTYLE_CLASS
 90
     4095
280
     0
281
     0
  0
CLASS
  1
SUN
  2
AcDbSun
  3
SCENEOE
 90
     1153
280
     0
281
     0
  0
CLASS
  1
ACDBPLACEHOLDER
  2
AcDbPlaceHolder
  3
ObjectDBX Classes
 90
        0
280
     0
281
     0
  0
CLASS
  1
LAYOUT
  2
AcDbLayout
  3
ObjectDBX Classes
 90
        0
280
     0
281
     0
  0
ENDSEC
  0
SECTION
  2
TABLES
  0
TABLE
  2
VPORT
  5
8
330
0
100
AcDbSymbolTable
 70
     1
  0
VPORT
  5
29
330
8
100
AcDbSymbolTableRecord
100
AcDbViewportTableRecord
  2
*Active
 70
     0
 10
0.0
 20
0.0
 11
1.0
 21
1.0
 12
6724.8109779343
 22
4762.656393259
 13
0.0
 23
0.0
 14
10.0
 24
10.0
 15
10.0
 25
10.0
 16
0.0
 26
0.0
 36
1.0
 17
0.0
 27
0.0
 37
0.0
 40
1460.7278451208
 41
0.9787012268
 42
50.0
 43
0.0
 44
0.0
 50
0.0
 51
0.0
 71
     0
 72
   100
 73
     1
 74
     3
 75
     0
 76
     0
 77
     0
 78
     0
281
     0
 65
     1
110
0.0
120
0.0
130
0.0
111
1.0
121
0.0
131
0.0
112
0.0
122
1.0
132
0.0
 79
     0
146
0.0
  0
ENDTAB
  0
TABLE
  2
LTYPE
  5
5
330
0
100
AcDbSymbolTable
 70
     6
  0
LTYPE
  5
14
330
5
100
AcDbSymbolTableRecord
100
AcDbLinetypeTableRecord
  2
ByBlock
 70
     0
  3

 72
    65
 73
     0
 40
0.0
  0
LTYPE
  5
15
330
5
100
AcDbSymbolTableRecord
100
AcDbLinetypeTableRecord
  2
ByLayer
 70
     0
  3

 72
    65
 73
     0
 40
0.0
  0
LTYPE
  5
16
330
5
100
AcDbSymbolTableRecord
100
AcDbLinetypeTableRecord
  2
Continuous
 70
     0
  3
Solid line
 72
    65
 73
     0
 40
0.0
  0
LTYPE
  5
6E
330
5
100
AcDbSymbolTableRecord
100
AcDbLinetypeTableRecord
  2
HIDDEN
 70
     0
  3
Hidden __ __ __ __ __ __ __ __ __ __ __ __ __ __
 72
    65
 73
     2
 40
1.905
 49
1.27
 74
     0
 49
-0.635
 74
     0
  0
LTYPE
  5
6F
330
5
100
AcDbSymbolTableRecord
100
AcDbLinetypeTableRecord
  2
PHANTOM
 70
     0
  3
Phantom ______  __  __  ______  __  __  ______
 72
    65
 73
     6
 40
12.7
 49
6.35
 74
     0
 49
-1.27
 74
     0
 49
1.27
 74
     0
 49
-1.27
 74
     0
 49
1.27
 74
     0
 49
-1.27
 74
     0
  0
LTYPE
  5
70
330
5
100
AcDbSymbolTableRecord
100
AcDbLinetypeTableRecord
  2
CENTER
 70
     0
  3
Center ____ _ ____ _ ____ _ ____ _ ____ _ ____
 72
    65
 73
     4
 40
10.16
 49
6.35
 74
     0
 49
-1.27
 74
     0
 49
1.27
 74
     0
 49
-1.27
 74
     0
  0
LTYPE
  5
71
330
5
100
AcDbSymbolTableRecord
100
AcDbLinetypeTableRecord
  2
CENTERX2
 70
     0
  3
Center (2x) ________  __  ________  __  _____
 72
    65
 73
     4
 40
20.32
 49
12.7
 74
     0
 49
-2.54
 74
     0
 49
2.54
 74
     0
 49
-2.54
 74
     0
  0
LTYPE
  5
72
330
5
100
AcDbSymbolTableRecord
100
AcDbLinetypeTableRecord
  2
DOT2
 70
     0
  3
Dot (.5x) ........................................
 72
    65
 73
     2
 40
0.635
 49
0.0
 74
     0
 49
-0.635
 74
     0
  0
ENDTAB
  0
TABLE
  2
LAYER
  5
2
330
0
100
AcDbSymbolTable
 70
     1
  0
LAYER
  5
10
330
2
100
AcDbSymbolTableRecord
100
AcDbLayerTableRecord
  2
0
 70
     0
 62
     7
  6
Continuous
370
    -3
390
F
  0
ENDTAB
  0
TABLE
  2
STYLE
  5
3
330
0
100
AcDbSymbolTable
 70
     1
  0
STYLE
  5
11
330
3
100
AcDbSymbolTableRecord
100
AcDbTextStyleTableRecord
  2
Standard
 70
     0
 40
0.0
 41
1.0
 50
0.0
 71
     0
 42
3.5
  3
txt
  4

  0
ENDTAB
  0
TABLE
  2
VIEW
  5
6
330
0
100
AcDbSymbolTable
 70
     0
  0
ENDTAB
  0
TABLE
  2
UCS
  5
7
330
0
100
AcDbSymbolTable
 70
     0
  0
ENDTAB
  0
TABLE
  2
APPID
  5
9
330
0
100
AcDbSymbolTable
 70
     1
  0
APPID
  5
12
330
9
100
AcDbSymbolTableRecord
100
AcDbRegAppTableRecord
  2
ACAD
 70
     0
  0
ENDTAB
  0
TABLE
  2
DIMSTYLE
  5
A
330
0
100
AcDbSymbolTable
 70
     1
100
AcDbDimStyleTable
  0
DIMSTYLE
105
27
330
A
100
AcDbSymbolTableRecord
100
AcDbDimStyleTableRecord
  2
ISO-25
 70
     0
 41
2.5
 42
0.625
 43
3.75
 44
1.25
 73
     0
 74
     0
 77
     1
 78
     8
140
2.5
141
2.5
143
0.0393700787
147
0.625
171
     3
172
     1
178
     0
271
     2
272
     2
274
     3
278
    44
283
     0
284
     8
340
11
  0
ENDTAB
  0
TABLE
  2
BLOCK_RECORD
  5
1
330
0
100
AcDbSymbolTable
 70
     1
  0
BLOCK_RECORD
  5
1F
330
1
100
AcDbSymbolTableRecord
100
AcDbBlockTableRecord
  2
*Model_Space
340
22
  0
BLOCK_RECORD
  5
1B
330
1
100
AcDbSymbolTableRecord
100
AcDbBlockTableRecord
  2
*Paper_Space
340
1E
  0
BLOCK_RECORD
  5
23
330
1
100
AcDbSymbolTableRecord
100
AcDbBlockTableRecord
  2
*Paper_Space0
340
26
  0
ENDTAB
  0
ENDSEC
  0
SECTION
  2
BLOCKS
  0
BLOCK
  5
20
330
1F
100
AcDbEntity
  8
0
100
AcDbBlockBegin
  2
*Model_Space
 70
     0
 10
0.0
 20
0.0
 30
0.0
  3
*Model_Space
  1

  0
ENDBLK
  5
21
330
1F
100
AcDbEntity
  8
0
100
AcDbBlockEnd
  0
BLOCK
  5
1C
330
1B
100
AcDbEntity
 67
     1
  8
0
100
AcDbBlockBegin
  2
*Paper_Space
 70
     0
 10
0.0
 20
0.0
 30
0.0
  3
*Paper_Space
  1

  0
ENDBLK
  5
1D
330
1B
100
AcDbEntity
 67
     1
  8
0
100
AcDbBlockEnd
  0
BLOCK
  5
24
330
23
100
AcDbEntity
  8
0
100
AcDbBlockBegin
  2
*Paper_Space0
 70
     0
 10
0.0
 20
0.0
 30
0.0
  3
*Paper_Space0
  1

  0
ENDBLK
  5
25
330
23
100
AcDbEntity
  8
0
100
AcDbBlockEnd
  0
ENDSEC
  0
SECTION
  2
ENTITIES
  0
ARC
  5
73
330
1F
100
AcDbEntity
  8
0
  6
Continuous
 62
     7
100
AcDbCircle
 10
6274.0187553361
 20
5365.0486705444
 30
0.0
 40
18.3928977307806
100
AcDbArc
 50
85.3221496521
 51
94.6778503479
  0
ARC
  5
74
330
1F
100
AcDbEntity
  8
0
  6
Continuous
 62
     7
100
AcDbCircle
 10
6271.5984433405
 20
5373.9758932639
 30
0.0
 40
9.097588322269921
100
AcDbArc
 50
109.075338145
 51
124.0547642092
  0
ARC
  5
75
330
1F
100
AcDbEntity
  8
0
  6
Continuous
 62
     7
100
AcDbCircle
 10
6267.1348319806
 20
5378.8165172552
 30
0.0
 40
2.365680004175998
100
AcDbArc
 50
161.5163771221
 51
198.4836228779
  0
ARC
  5
76
330
1F
100
AcDbEntity
  8
0
  6
Continuous
 62
     7
100
AcDbCircle
 10
6269.2311367253
 20
5381.0477178734
 30
0.0
 40
4.89253663725064
100
AcDbArc
 50
217.541535179
 51
236.1223108265
  0
ARC
  5
77
330
1F
100
AcDbEntity
  8
0
  6
Continuous
 62
     7
100
AcDbCircle
 10
6271.5984433405
 20
5383.6571412466
 30
0.0
 40
9.097588322309738
100
AcDbArc
 50
235.9452357909
 51
250.924661855
  0
ARC
  5
78
330
1F
100
AcDbEntity
  8
0
  6
Continuous
 62
     7
100
AcDbCircle
 10
6273.6952006004
 20
5390.6757221079
 30
0.0
 40
15.60138254319535
100
AcDbArc
 50
252.423156226
 51
265.6754222501
  0
ARC
  5
79
330
1F
100
AcDbEntity
  8
0
  6
Continuous
 62
     7
100
AcDbCircle
 10
6274.0187553361
 20
5392.5843639661
 30
0.0
 40
18.39289773085855
100
AcDbArc
 50
265.3221496521
 51
274.6778503479
  0
ARC
  5
7A
330
1F
100
AcDbEntity
  8
0
  6
Continuous
 62
     7
100
AcDbCircle
 10
6274.3423100718
 20
5390.6757221078
 30
0.0
 40
15.60138254308954
100
AcDbArc
 50
274.3245777499
 51
287.576843774
  0
ARC
  5
7B
330
1F
100
AcDbEntity
  8
0
  6
Continuous
 62
     7
100
AcDbCircle
 10
6276.4390673317
 20
5383.6571412465
 30
0.0
 40
9.097588322247985
100
AcDbArc
 50
289.075338145
 51
304.0547642092
  0
ARC
  5
7C
330
1F
100
AcDbEntity
  8
0
  6
Continuous
 62
     7
100
AcDbCircle
 10
6278.8063739467
 20
5381.0477178734
 30
0.0
 40
4.89253663731988
100
AcDbArc
 50
303.8776891763
 51
322.4584648234
  0
ARC
  5
7D
330
1F
100
AcDbEntity
  8
0
  6
Continuous
 62
     7
100
AcDbCircle
 10
6280.9026786916
 20
5378.8165172552
 30
0.0
 40
2.365680004162197
100
AcDbArc
 50
341.516377122
 51
18.483622878
  0
ARC
  5
7E
330
1F
100
AcDbEntity
  8
0
  6
Continuous
 62
     7
100
AcDbCircle
 10
6276.4390673317
 20
5373.9758932639
 30
0.0
 40
9.097588322283526
100
AcDbArc
 50
55.9452357908
 51
70.924661855
  0
ARC
  5
7F
330
1F
100
AcDbEntity
  8
0
  6
Continuous
 62
     7
100
AcDbCircle
 10
6274.0187553361
 20
5365.8048862309
 30
0.0
 40
17.38669144864284
100
AcDbArc
 50
85.0507753893
 51
94.9492246107
  0
ARC
  5
80
330
1F
100
AcDbEntity
  8
0
  6
Continuous
 62
     7
100
AcDbCircle
 10
6279.5343585043
 20
5379.515689566
 30
0.0
 40
2.739482795808887
100
AcDbArc
 50
3.4918629909
 51
45.5810301107
  0
ARC
  5
81
330
1F
100
AcDbEntity
  8
0
  6
Continuous
 62
     7
100
AcDbCircle
 10
6276.3046025874
 20
5384.2542371616
 30
0.0
 40
8.600991267348814
100
AcDbArc
 50
288.6402016892
 51
304.4899006649
  0
ARC
  5
82
330
1F
100
AcDbEntity
  8
0
  6
Continuous
 62
     7
100
AcDbCircle
 10
6274.0187553361
 20
5392.6941736836
 30
0.0
 40
17.38669144888568
100
AcDbArc
 50
265.0507753894
 51
274.9492246106
  0
ARC
  5
83
330
1F
100
AcDbEntity
  8
0
  6
Continuous
 62
     7
100
AcDbCircle
 10
6271.7329080849
 20
5384.2542371617
 30
0.0
 40
8.600991267425357
100
AcDbArc
 50
235.5100993352
 51
251.3597983107
  0
ARC
  5
84
330
1F
100
AcDbEntity
  8
0
  6
Continuous
 62
     7
100
AcDbCircle
 10
6279.2200871615
 20
5380.8997476962
 30
0.0
 40
3.103786952203632
100
AcDbArc
 50
306.6802554222
 51
345.3652265829
  0
ARC
  5
85
330
1F
100
AcDbEntity
  8
0
  6
Continuous
 62
     7
100
AcDbCircle
 10
6268.8174235107
 20
5380.8997476962
 30
0.0
 40
3.103786952195005
100
AcDbArc
 50
194.6347734171
 51
233.3197445779
  0
ARC
  5
86
330
1F
100
AcDbEntity
  8
0
  6
Continuous
 62
     7
100
AcDbCircle
 10
6276.3046025873
 20
5374.2448227526
 30
0.0
 40
8.600991267427885
100
AcDbArc
 50
55.5100993352
 51
71.3597983107
  0
ARC
  5
87
330
1F
100
AcDbEntity
  8
0
  6
Continuous
 62
     7
100
AcDbCircle
 10
6271.7329080849
 20
5374.2448227526
 30
0.0
 40
8.600991267439456
100
AcDbArc
 50
108.6402016893
 51
124.4899006648
  0
ARC
  5
88
330
1F
100
AcDbEntity
  8
0
  6
Continuous
 62
     7
100
AcDbCircle
 10
6273.5217594495
 20
5371.9653859267
 30
0.0
 40
11.43546300154469
100
AcDbArc
 50
95.0318769412
 51
113.380165433
  0
ARC
  5
89
330
1F
100
AcDbEntity
  8
0
  6
Continuous
 62
     7
100
AcDbCircle
 10
6274.522875196
 20
5371.9935271589
 30
0.0
 40
11.40680631960591
100
AcDbArc
 50
66.5965871074
 51
84.9913705184
  0
ARC
  5
8A
330
1F
100
AcDbEntity
  8
0
  6
Continuous
 62
     7
100
AcDbCircle
 10
6278.2794045131
 20
5379.1871043432
 30
0.0
 40
3.277018901241584
100
AcDbArc
 50
8.6956444254
 51
66.0248030407
  0
ARC
  5
8B
330
1F
100
AcDbEntity
  8
0
  6
Continuous
 62
     7
100
AcDbCircle
 10
6280.5245708484
 20
5378.8165172552
 30
0.0
 40
2.243716305933469
100
AcDbArc
 50
340.4720378625
 51
19.5279621375
  0
ARC
  5
8C
330
1F
100
AcDbEntity
  8
0
  6
Continuous
 62
     7
100
AcDbCircle
 10
6267.5129398238
 20
5378.8165172552
 30
0.0
 40
2.243716305941184
100
AcDbArc
 50
160.4720378626
 51
199.5279621374
  0
ARC
  5
8D
330
1F
100
AcDbEntity
  8
0
  6
Continuous
 62
     7
100
AcDbCircle
 10
6276.3046025873
 20
5383.3882117579
 30
0.0
 40
8.600991267425357
100
AcDbArc
 50
288.6402016893
 51
304.4899006648
  0
ARC
  5
8E
330
1F
100
AcDbEntity
  8
0
  6
Continuous
 62
     7
100
AcDbCircle
 10
6271.7329080848
 20
5383.3882117579
 30
0.0
 40
8.600991267412756
100
AcDbArc
 50
235.5100993352
 51
251.3597983107
  0
ARC
  5
8F
330
1F
100
AcDbEntity
  8
0
  6
Continuous
 62
     7
100
AcDbCircle
 10
6274.0187553361
 20
5391.8281482796
 30
0.0
 40
17.38669144873527
100
AcDbArc
 50
265.0507753894
 51
274.9492246106
  0
ARC
  5
90
330
1F
100
AcDbEntity
  8
0
  6
Continuous
 62
     7
100
AcDbCircle
 10
6085.5258132599
 20
4953.1829847037
 30
0.0
 40
4.533937879363173
100
AcDbArc
 50
173.4591256807
 51
261.4483134336
  0
ARC
  5
91
330
1F
100
AcDbEntity
  8
0
  6
Continuous
 62
     7
100
AcDbCircle
 10
6462.5116974123
 20
5244.2159244817
 30
0.0
 40
4.533937879363173
100
AcDbArc
 50
353.4591256807
 51
81.4483134336
  0
ARC
  5
92
330
1F
100
AcDbEntity
  8
0
  6
Continuous
 62
     7
100
AcDbCircle
 10
6462.5116974123
 20
4953.1829847037
 30
0.0
 40
4.533937879361866
100
AcDbArc
 50
278.5516865664
 51
6.5408743193
  0
ARC
  5
93
330
1F
100
AcDbEntity
  8
0
  6
Continuous
 62
     7
100
AcDbCircle
 10
6085.5258132599
 20
5244.2159244817
 30
0.0
 40
4.533937879364877
100
AcDbArc
 50
98.5516865664
 51
186.5408743193
  0
ARC
  5
94
330
1F
100
AcDbEntity
  8
0
  6
Continuous
 62
     7
100
AcDbCircle
 10
6047.23962566
 20
5244.2159244817
 30
0.0
 40
4.533937879365676
100
AcDbArc
 50
98.5516865665
 51
186.5408743193
  0
ARC
  5
95
330
1F
100
AcDbEntity
  8
0
  6
Continuous
 62
     7
100
AcDbCircle
 10
6047.23962566
 20
4953.1829847037
 30
0.0
 40
4.533937879362373
100
AcDbArc
 50
173.4591256807
 51
261.4483134336
  0
ARC
  5
96
330
1F
100
AcDbEntity
  8
0
  6
Continuous
 62
     7
100
AcDbCircle
 10
6500.7978850122
 20
4953.1829847037
 30
0.0
 40
4.533937879363276
100
AcDbArc
 50
278.5516865664
 51
6.5408743193
  0
ARC
  5
97
330
1F
100
AcDbEntity
  8
0
  6
Continuous
 62
     7
100
AcDbCircle
 10
6500.7978850122
 20
5244.2159244817
 30
0.0
 40
4.533937879364077
100
AcDbArc
 50
353.4591256807
 51
81.4483134336
  0
ARC
  5
98
330
1F
100
AcDbEntity
  8
0
  6
Continuous
 62
     7
100
AcDbCircle
 10
6029.0187553361
 20
4953.6994545927
 30
0.0
 40
5.0
100
AcDbArc
 50
180.0
 51
270.0
  0
ARC
  5
99
330
1F
100
AcDbEntity
  8
0
  6
Continuous
 62
     7
100
AcDbCircle
 10
6029.0187553361
 20
5243.6994545927
 30
0.0
 40
5.0
100
AcDbArc
 50
90.0
 51
180.0
  0
ARC
  5
9A
330
1F
100
AcDbEntity
  8
0
  6
Continuous
 62
     7
100
AcDbCircle
 10
6519.0187553361
 20
4953.6994545927
 30
0.0
 40
5.0
100
AcDbArc
 50
270.0
 51
0.0
  0
ARC
  5
9B
330
1F
100
AcDbEntity
  8
0
  6
Continuous
 62
     7
100
AcDbCircle
 10
6519.0187553361
 20
5243.6994545927
 30
0.0
 40
5.0
100
AcDbArc
 50
0.0
 51
90.0
  0
ARC
  5
9C
330
1F
100
AcDbEntity
  8
0
  6
Continuous
 62
     7
100
AcDbCircle
 10
6519.0187553361
 20
5473.6994545927
 30
0.0
 40
5.0
100
AcDbArc
 50
0.0
 51
90.0
  0
ARC
  5
9D
330
1F
100
AcDbEntity
  8
0
  6
Continuous
 62
     7
100
AcDbCircle
 10
6029.0187553361
 20
5473.6994545927
 30
0.0
 40
5.0
100
AcDbArc
 50
90.0
 51
180.0
  0
ARC
  5
9E
330
1F
100
AcDbEntity
  8
0
  6
Continuous
 62
     7
100
AcDbCircle
 10
6274.0187553361
 20
5318.6994545927
 30
0.0
 40
20.00000000000085
100
AcDbArc
 50
24.7216586433
 51
155.2783413567
  0
ARC
  5
9F
330
1F
100
AcDbEntity
  8
0
  6
Continuous
 62
     7
100
AcDbCircle
 10
6274.0187553361
 20
5318.6994545927
 30
0.0
 40
19.99999999999932
100
AcDbArc
 50
204.7216586433
 51
335.2783413567
  0
ARC
  5
A0
330
1F
100
AcDbEntity
  8
0
  6
Continuous
 62
     7
100
AcDbCircle
 10
7028.0072825903
 20
5318.6994545928
 30
0.0
 40
28.00000000000053
100
AcDbArc
 50
314.4153085969
 51
344.5339138874
  0
ARC
  5
A1
330
1F
100
AcDbEntity
  8
0
  6
Continuous
 62
     7
100
AcDbCircle
 10
7028.0072825903
 20
5318.6994545928
 30
0.0
 40
27.9999999999534
100
AcDbArc
 50
15.4629507903
 51
45.5846914028
  0
ARC
  5
A2
330
1F
100
AcDbEntity
  8
0
  6
Continuous
 62
     7
100
AcDbCircle
 10
7050.6032005325
 20
5253.6994545927
 30
0.0
 40
10.00000000000091
100
AcDbArc
 50
180.0
 51
270.0
  0
ARC
  5
A3
330
1F
100
AcDbEntity
  8
0
  6
Continuous
 62
     7
100
AcDbCircle
 10
6970.6032005325
 20
5473.6994545927
 30
0.0
 40
5.000000000001819
100
AcDbArc
 50
90.0
 51
180.0
  0
ARC
  5
A4
330
1F
100
AcDbEntity
  8
0
  6
Continuous
 62
     7
100
AcDbCircle
 10
6970.6032005325
 20
4953.6994545927
 30
0.0
 40
5.000000000001819
100
AcDbArc
 50
180.0
 51
270.0
  0
ARC
  5
A5
330
1F
100
AcDbEntity
  8
0
  6
Continuous
 62
     7
100
AcDbCircle
 10
7050.6032005325
 20
5253.6994545927
 30
0.0
 40
5.000000000000909
100
AcDbArc
 50
180.0
 51
270.0
  0
ARC
  5
A6
330
1F
100
AcDbEntity
  8
0
  6
Continuous
 62
     7
100
AcDbCircle
 10
7040.6032005325
 20
5473.6994545927
 30
0.0
 40
5.0
100
AcDbArc
 50
0.0
 51
90.0
  0
ARC
  5
A7
330
1F
100
AcDbEntity
  8
0
  6
Continuous
 62
     7
100
AcDbCircle
 10
7420.6032005325
 20
4953.6994545927
 30
0.0
 40
5.000000000001819
100
AcDbArc
 50
270.0
 51
360.0
  0
ARC
  5
A8
330
1F
100
AcDbEntity
  8
0
  6
Continuous
 62
     7
100
AcDbCircle
 10
7420.6032005325
 20
5243.6994545927
 30
0.0
 40
5.000000000000909
100
AcDbArc
 50
0.0
 51
90.0
  0
ARC
  5
A9
330
1F
100
AcDbEntity
  8
0
  6
Continuous
 62
     7
100
AcDbCircle
 10
6519.0187553361
 20
4501.6133319253
 30
0.0
 40
5.0
100
AcDbArc
 50
0.0
 51
90.0
  0
ARC
  5
AA
330
1F
100
AcDbEntity
  8
0
  6
Continuous
 62
     7
100
AcDbCircle
 10
6029.0187553361
 20
4501.6133319253
 30
0.0
 40
5.000000000001819
100
AcDbArc
 50
90.0
 51
180.0
  0
ARC
  5
AB
330
1F
100
AcDbEntity
  8
0
  6
Continuous
 62
     7
100
AcDbCircle
 10
6519.0187553361
 20
4431.6133319253
 30
0.0
 40
5.0
100
AcDbArc
 50
270.0
 51
0.0
  0
ARC
  5
AC
330
1F
100
AcDbEntity
  8
0
  6
Continuous
 62
     7
100
AcDbCircle
 10
6029.0187553361
 20
4431.6133319253
 30
0.0
 40
5.0
100
AcDbArc
 50
180.0
 51
270.0
  0
ARC
  5
AD
330
1F
100
AcDbEntity
  8
0
  6
Continuous
 62
     7
100
AcDbCircle
 10
6444.0187553361
 20
4147.2361662223
 30
0.0
 40
75.00000000000091
100
AcDbArc
 50
320.0
 51
360.0
  0
ARC
  5
AE
330
1F
100
AcDbEntity
  8
0
  6
Continuous
 62
     7
100
AcDbCircle
 10
6459.3556787545
 20
4056.6133319253
 30
0.0
 40
5.0
100
AcDbArc
 50
270.0000000014
 51
320.0000000005
  0
ARC
  5
AF
330
1F
100
AcDbEntity
  8
0
  6
Continuous
 62
     7
100
AcDbCircle
 10
6088.6818319177
 20
4056.6133319253
 30
0.0
 40
5.000000000000455
100
AcDbArc
 50
219.9999999995
 51
269.9999999998
  0
ARC
  5
B0
330
1F
100
AcDbEntity
  8
0
  6
Continuous
 62
     7
100
AcDbCircle
 10
6104.0187553361
 20
4147.2361662223
 30
0.0
 40
75.0
100
AcDbArc
 50
180.0
 51
220.0
  0
ARC
  5
B1
330
1F
100
AcDbEntity
  8
0
  6
Continuous
 62
     7
100
AcDbCircle
 10
6421.2589243203
 20
4406.6133319253
 30
0.0
 40
12.07106781186576
100
AcDbArc
 50
90.0000000003
 51
180.0000000002
  0
ARC
  5
B2
330
1F
100
AcDbEntity
  8
0
  6
Continuous
 62
     7
100
AcDbCircle
 10
6396.2589243202
 20
4406.6133319253
 30
0.0
 40
12.0710678119558
100
AcDbArc
 50
359.9999999998
 51
90.0000000002
  0
ARC
  5
B3
330
1F
100
AcDbEntity
  8
0
  6
Continuous
 62
     7
100
AcDbCircle
 10
6044.0187553361
 20
4406.6133319253
 30
0.0
 40
12.07106781186667
100
AcDbArc
 50
89.9999999998
 51
180.0000000002
  0
ARC
  5
B4
330
1F
100
AcDbEntity
  8
0
  6
Continuous
 62
     7
100
AcDbCircle
 10
6104.0187553361
 20
4147.2361662223
 30
0.0
 40
72.07106781190032
100
AcDbArc
 50
180.0
 51
220.0000000001
  0
ARC
  5
B5
330
1F
100
AcDbEntity
  8
0
  6
Continuous
 62
     7
100
AcDbCircle
 10
6093.3449084993
 20
4066.6133319253
 30
0.0
 40
12.07106781186712
100
AcDbArc
 50
219.9999999995
 51
269.9999999997
  0
ARC
  5
B6
330
1F
100
AcDbEntity
  8
0
  6
Continuous
 62
     7
100
AcDbCircle
 10
6454.6926021729
 20
4066.6133319253
 30
0.0
 40
12.07106781186621
100
AcDbArc
 50
270.0000000003
 51
320.0000000005
  0
ARC
  5
B7
330
1F
100
AcDbEntity
  8
0
  6
Continuous
 62
     7
100
AcDbCircle
 10
6444.0187553361
 20
4147.2361662223
 30
0.0
 40
72.07106781190032
100
AcDbArc
 50
319.9999999999
 51
360.0
  0
ARC
  5
B8
330
1F
100
AcDbEntity
  8
0
  6
Continuous
 62
     7
100
AcDbCircle
 10
6504.0187553361
 20
4323.176162765
 30
0.0
 40
12.07106781186485
100
AcDbArc
 50
359.9999999998
 51
90.0000000002
  0
ARC
  5
B9
330
1F
100
AcDbEntity
  8
0
  6
Continuous
 62
     7
100
AcDbCircle
 10
6504.0187553361
 20
4348.1761627651
 30
0.0
 40
12.07106781186576
100
AcDbArc
 50
269.9999999998
 51
359.9999999997
  0
ARC
  5
BA
330
1F
100
AcDbEntity
  8
0
  6
Continuous
 62
     7
100
AcDbCircle
 10
6504.0187553361
 20
4406.6133319253
 30
0.0
 40
12.07106781186576
100
AcDbArc
 50
359.9999999998
 51
90.0000000002
  0
ARC
  5
BB
330
1F
100
AcDbEntity
  8
0
  6
Continuous
 62
     7
100
AcDbCircle
 10
6504.0187553361
 20
4406.6133319253
 30
0.0
 40
8.535533905866032
100
AcDbArc
 50
359.9999999998
 51
90.0000000002
  0
ARC
  5
BC
330
1F
100
AcDbEntity
  8
0
  6
Continuous
 62
     7
100
AcDbCircle
 10
6044.0187553361
 20
4406.6133319253
 30
0.0
 40
8.535533905866941
100
AcDbArc
 50
89.9999999998
 51
180.0000000002
  0
ARC
  5
BD
330
1F
100
AcDbEntity
  8
0
  6
Continuous
 62
     7
100
AcDbCircle
 10
6396.2589243202
 20
4406.6133319253
 30
0.0
 40
8.535533906022465
100
AcDbArc
 50
359.9999999998
 51
90.0000000002
  0
ARC
  5
BE
330
1F
100
AcDbEntity
  8
0
  6
Continuous
 62
     7
100
AcDbCircle
 10
6421.2589243203
 20
4406.6133319253
 30
0.0
 40
8.535533905965167
100
AcDbArc
 50
90.0000000004
 51
180.0000000002
  0
ARC
  5
BF
330
1F
100
AcDbEntity
  8
0
  6
Continuous
 62
     7
100
AcDbCircle
 10
6504.0187553361
 20
4348.1761627651
 30
0.0
 40
8.535533905966076
100
AcDbArc
 50
269.9999999998
 51
359.9999999996
  0
ARC
  5
C0
330
1F
100
AcDbEntity
  8
0
  6
Continuous
 62
     7
100
AcDbCircle
 10
6504.0187553361
 20
4323.176162765
 30
0.0
 40
8.535533905965167
100
AcDbArc
 50
359.9999999998
 51
90.0000000002
  0
ARC
  5
C1
330
1F
100
AcDbEntity
  8
0
  6
Continuous
 62
     7
100
AcDbCircle
 10
6104.0187553361
 20
4147.2361662223
 30
0.0
 40
80.00000000004613
100
AcDbArc
 50
180.0
 51
220.0000000001
  0
ARC
  5
C2
330
1F
100
AcDbEntity
  8
0
  6
Continuous
 62
     7
100
AcDbCircle
 10
6444.0187553361
 20
4147.2361662223
 30
0.0
 40
80.000000000048
100
AcDbArc
 50
319.9999999999
 51
360.0
  0
ARC
  5
C3
330
1F
100
AcDbEntity
  8
0
  6
Continuous
 62
     7
100
AcDbCircle
 10
6104.0187553361
 20
4147.2361662223
 30
0.0
 40
68.53553390592867
100
AcDbArc
 50
180.0
 51
220.0
  0
ARC
  5
C4
330
1F
100
AcDbEntity
  8
0
  6
Continuous
 62
     7
100
AcDbCircle
 10
6444.0187553361
 20
4147.2361662223
 30
0.0
 40
68.53553390592985
100
AcDbArc
 50
320.0
 51
360.0
  0
ARC
  5
C5
330
1F
100
AcDbEntity
  8
0
  6
Continuous
 62
     7
100
AcDbCircle
 10
6093.3449084993
 20
4066.6133319253
 30
0.0
 40
8.535533905997
100
AcDbArc
 50
219.9999999996
 51
269.9999999996
  0
ARC
  5
C6
330
1F
100
AcDbEntity
  8
0
  6
Continuous
 62
     7
100
AcDbCircle
 10
6454.6926021729
 20
4066.6133319253
 30
0.0
 40
8.53553390599609
100
AcDbArc
 50
270.0000000004
 51
320.0000000004
  0
ARC
  5
C7
330
1F
100
AcDbEntity
  8
0
  6
Continuous
 62
     7
100
AcDbCircle
 10
6459.3556787545
 20
4056.6133319253
 30
0.0
 40
10.0000000000469
100
AcDbArc
 50
270.0000000007
 51
320.0
  0
ARC
  5
C8
330
1F
100
AcDbEntity
  8
0
  6
Continuous
 62
     7
100
AcDbCircle
 10
6088.6818319177
 20
4056.6133319253
 30
0.0
 40
10.00000000004719
100
AcDbArc
 50
220.0
 51
269.9999999999
  0
ARC
  5
C9
330
1F
100
AcDbEntity
  8
0
  6
Continuous
 62
     7
100
AcDbCircle
 10
6411.2589243203
 20
4363.176162765
 30
0.0
 40
3.535533905933335
100
AcDbArc
 50
269.9999999989
 51
359.9999999995
  0
ARC
  5
CA
330
1F
100
AcDbEntity
  8
0
  6
Continuous
 62
     7
100
AcDbCircle
 10
6436.2589243202
 20
4333.176162765
 30
0.0
 40
3.535533905932425
100
AcDbArc
 50
180.0000000005
 51
269.9999999995
  0
ARC
  5
CB
330
1F
100
AcDbEntity
  8
0
  6
Continuous
 62
     7
100
AcDbCircle
 10
6406.2589243202
 20
4363.176162765
 30
0.0
 40
3.535533905933335
100
AcDbArc
 50
180.0000000005
 51
269.9999999995
  0
ARC
  5
CC
330
1F
100
AcDbEntity
  8
0
  6
Continuous
 62
     7
100
AcDbCircle
 10
6436.2589243202
 20
4338.1761627651
 30
0.0
 40
3.535533905933335
100
AcDbArc
 50
90.0000000005
 51
180.0000000011
  0
ARC
  5
CD
330
1F
100
AcDbEntity
  8
0
  6
Continuous
 62
     7
100
AcDbCircle
 10
6504.0187553361
 20
4406.6133319253
 30
0.0
 40
6.464466094066665
100
AcDbArc
 50
359.9999999997
 51
90.0000000003
  0
ARC
  5
CE
330
1F
100
AcDbEntity
  8
0
  6
Continuous
 62
     7
100
AcDbCircle
 10
6044.0187553361
 20
4406.6133319253
 30
0.0
 40
6.464466094067575
100
AcDbArc
 50
89.9999999997
 51
180.0000000003
  0
ARC
  5
CF
330
1F
100
AcDbEntity
  8
0
  6
Continuous
 62
     7
100
AcDbCircle
 10
6421.2589243203
 20
4406.6133319253
 30
0.0
 40
6.464466094066665
100
AcDbArc
 50
90.0000000006
 51
180.0000000003
  0
ARC
  5
D0
330
1F
100
AcDbEntity
  8
0
  6
Continuous
 62
     7
100
AcDbCircle
 10
6396.2589243202
 20
4406.6133319253
 30
0.0
 40
6.464466094155796
100
AcDbArc
 50
359.9999999997
 51
90.0000000003
  0
ARC
  5
D1
330
1F
100
AcDbEntity
  8
0
  6
Continuous
 62
     7
100
AcDbCircle
 10
6504.0187553361
 20
4348.1761627651
 30
0.0
 40
6.464466094065756
100
AcDbArc
 50
269.9999999997
 51
359.9999999994
  0
ARC
  5
D2
330
1F
100
AcDbEntity
  8
0
  6
Continuous
 62
     7
100
AcDbCircle
 10
6504.0187553361
 20
4323.176162765
 30
0.0
 40
6.464466094064846
100
AcDbArc
 50
359.9999999997
 51
90.0000000003
  0
ARC
  5
D3
330
1F
100
AcDbEntity
  8
0
  6
Continuous
 62
     7
100
AcDbCircle
 10
6444.0187553361
 20
4147.2361662223
 30
0.0
 40
66.46446609410032
100
AcDbArc
 50
320.0
 51
360.0
  0
ARC
  5
D4
330
1F
100
AcDbEntity
  8
0
  6
Continuous
 62
     7
100
AcDbCircle
 10
6104.0187553361
 20
4147.2361662223
 30
0.0
 40
66.46446609410032
100
AcDbArc
 50
180.0
 51
220.0
  0
ARC
  5
D5
330
1F
100
AcDbEntity
  8
0
  6
Continuous
 62
     7
100
AcDbCircle
 10
6093.3449084993
 20
4066.6133319253
 30
0.0
 40
6.46446609414761
100
AcDbArc
 50
219.9999999993
 51
269.9999999994
  0
ARC
  5
D6
330
1F
100
AcDbEntity
  8
0
  6
Continuous
 62
     7
100
AcDbCircle
 10
6454.6926021729
 20
4066.6133319253
 30
0.0
 40
6.46446609414761
100
AcDbArc
 50
270.0000000006
 51
320.0000000007
  0
ARC
  5
D7
330
1F
100
AcDbEntity
  8
0
  6
Continuous
 62
     7
100
AcDbCircle
 10
6396.2589243202
 20
4406.6133319253
 30
0.0
 40
2.928932188156068
100
AcDbArc
 50
0.0000000001
 51
90.0000000006
  0
ARC
  5
D8
330
1F
100
AcDbEntity
  8
0
  6
Continuous
 62
     7
100
AcDbCircle
 10
6421.2589243203
 20
4406.6133319253
 30
0.0
 40
2.928932188072395
100
AcDbArc
 50
90.0000000013
 51
180.0000000007
  0
ARC
  5
D9
330
1F
100
AcDbEntity
  8
0
  6
Continuous
 62
     7
100
AcDbCircle
 10
6504.0187553361
 20
4406.6133319253
 30
0.0
 40
2.928932188066938
100
AcDbArc
 50
359.9999999993
 51
90.0000000007
  0
ARC
  5
DA
330
1F
100
AcDbEntity
  8
0
  6
Continuous
 62
     7
100
AcDbCircle
 10
6044.0187553361
 20
4406.6133319253
 30
0.0
 40
2.928932188067847
100
AcDbArc
 50
89.9999999993
 51
180.0000000006
  0
ARC
  5
DB
330
1F
100
AcDbEntity
  8
0
  6
Continuous
 62
     7
100
AcDbCircle
 10
6411.2589243203
 20
4363.176162765
 30
0.0
 40
7.071067811933062
100
AcDbArc
 50
269.9999999997
 51
0.0000000001
  0
ARC
  5
DC
330
1F
100
AcDbEntity
  8
0
  6
Continuous
 62
     7
100
AcDbCircle
 10
6406.2589243202
 20
4363.176162765
 30
0.0
 40
7.071067811933062
100
AcDbArc
 50
179.9999999999
 51
270.0
  0
ARC
  5
DD
330
1F
100
AcDbEntity
  8
0
  6
Continuous
 62
     7
100
AcDbCircle
 10
6436.2589243202
 20
4338.1761627651
 30
0.0
 40
7.071067811933062
100
AcDbArc
 50
90.0
 51
180.0000000002
  0
ARC
  5
DE
330
1F
100
AcDbEntity
  8
0
  6
Continuous
 62
     7
100
AcDbCircle
 10
6504.0187553361
 20
4348.1761627651
 30
0.0
 40
2.928932188066028
100
AcDbArc
 50
269.9999999993
 51
359.9999999987
  0
ARC
  5
DF
330
1F
100
AcDbEntity
  8
0
  6
Continuous
 62
     7
100
AcDbCircle
 10
6436.2589243202
 20
4333.176162765
 30
0.0
 40
7.071067811932153
100
AcDbArc
 50
179.9999999999
 51
270.0
  0
ARC
  5
E0
330
1F
100
AcDbEntity
  8
0
  6
Continuous
 62
     7
100
AcDbCircle
 10
6504.0187553361
 20
4323.176162765
 30
0.0
 40
2.928932188088766
100
AcDbArc
 50
359.9999999993
 51
90.0000000007
  0
ARC
  5
E1
330
1F
100
AcDbEntity
  8
0
  6
Continuous
 62
     7
100
AcDbCircle
 10
6444.0187553361
 20
4147.2361662223
 30
0.0
 40
62.92893218816344
100
AcDbArc
 50
319.9999999999
 51
360.0
  0
ARC
  5
E2
330
1F
100
AcDbEntity
  8
0
  6
Continuous
 62
     7
100
AcDbCircle
 10
6104.0187553361
 20
4147.2361662223
 30
0.0
 40
62.92893218816157
100
AcDbArc
 50
180.0
 51
220.0000000001
  0
ARC
  5
E3
330
1F
100
AcDbEntity
  8
0
  6
Continuous
 62
     7
100
AcDbCircle
 10
6454.6926021729
 20
4066.6133319253
 30
0.0
 40
2.928932188139545
100
AcDbArc
 50
270.0000000013
 51
320.0000000021
  0
ARC
  5
E4
330
1F
100
AcDbEntity
  8
0
  6
Continuous
 62
     7
100
AcDbCircle
 10
6093.3449084993
 20
4066.6133319253
 30
0.0
 40
2.92893218814013
100
AcDbArc
 50
219.9999999979
 51
269.9999999987
  0
ARC
  5
E5
330
1F
100
AcDbEntity
  8
0
  6
Continuous
 62
     7
100
AcDbCircle
 10
6274.0187553361
 20
4231.300526152
 30
0.0
 40
2.999999999998983
100
AcDbArc
 50
283.4434760343
 51
316.5565239657
  0
ARC
  5
E6
330
1F
100
AcDbEntity
  8
0
  6
Continuous
 62
     7
100
AcDbCircle
 10
6274.0187553361
 20
4231.300526152
 30
0.0
 40
2.999999999999673
100
AcDbArc
 50
343.4434760343
 51
16.5565239657
  0
ARC
  5
E7
330
1F
100
AcDbEntity
  8
0
  6
Continuous
 62
     7
100
AcDbCircle
 10
6274.0187553361
 20
4231.300526152
 30
0.0
 40
3.000000000001306
100
AcDbArc
 50
43.4434760343
 51
76.5565239657
  0
ARC
  5
E8
330
1F
100
AcDbEntity
  8
0
  6
Continuous
 62
     7
100
AcDbCircle
 10
6274.0187553361
 20
4231.300526152
 30
0.0
 40
3.000000000001306
100
AcDbArc
 50
103.4434760343
 51
136.5565239657
  0
ARC
  5
E9
330
1F
100
AcDbEntity
  8
0
  6
Continuous
 62
     7
100
AcDbCircle
 10
6274.0187553361
 20
4231.300526152
 30
0.0
 40
2.999999999998801
100
AcDbArc
 50
163.4434760343
 51
196.5565239657
  0
ARC
  5
EA
330
1F
100
AcDbEntity
  8
0
  6
Continuous
 62
     7
100
AcDbCircle
 10
6274.0187553361
 20
4231.300526152
 30
0.0
 40
2.999999999998983
100
AcDbArc
 50
223.4434760343
 51
256.5565239657
  0
CIRCLE
  5
EB
330
1F
100
AcDbEntity
  8
0
  6
Continuous
 62
     7
100
AcDbCircle
 10
6274.0187553361
 20
4231.300526152
 30
0.0
 40
1.000000000000909
  0
CIRCLE
  5
EC
330
1F
100
AcDbEntity
  8
0
  6
Continuous
 62
     7
100
AcDbCircle
 10
6274.0187553361
 20
4231.300526152
 30
0.0
 40
5.649999999999636
  0
ARC
  5
ED
330
1F
100
AcDbEntity
  8
0
  6
Continuous
 62
     7
100
AcDbCircle
 10
6274.0187553361
 20
4231.300526152
 30
0.0
 40
163.7833935415927
100
AcDbArc
 50
94.9035555093
 51
270.0
  0
ARC
  5
EE
330
1F
100
AcDbEntity
  8
0
  6
Continuous
 62
     7
100
AcDbCircle
 10
6274.0187553361
 20
4231.300526152
 30
0.0
 40
163.7833935415928
100
AcDbArc
 50
270.0
 51
85.0964444907
  0
ARC
  5
EF
330
1F
100
AcDbEntity
  8
0
  6
Continuous
 62
     7
100
AcDbCircle
 10
6274.0187553361
 20
4231.300526152
 30
0.0
 40
158.8202604039689
100
AcDbArc
 50
270.0
 51
84.9428153022
  0
ARC
  5
F0
330
1F
100
AcDbEntity
  8
0
  6
Continuous
 62
     7
100
AcDbCircle
 10
6274.0187553361
 20
4231.300526152
 30
0.0
 40
158.8202604039689
100
AcDbArc
 50
95.0571846978
 51
270.0
  0
ELLIPSE
  5
F1
330
1F
100
AcDbEntity
  8
0
  6
Continuous
 62
     7
100
AcDbEllipse
 10
6274.0187553361
 20
5416.1483747457
 30
0.0
 11
0.0
 21
18.27570205065149
 31
0.0
210
0.0
220
0.0
230
1.0
 40
0.7660444431
 41
0.0
 42
1.570796326794897
  0
ELLIPSE
  5
F2
330
1F
100
AcDbEntity
  8
0
  6
Continuous
 62
     7
100
AcDbEllipse
 10
6274.0187553361
 20
5416.1483747457
 30
0.0
 11
0.0
 21
18.27570205065149
 31
0.0
210
0.0
220
0.0
230
1.0
 40
0.7660444431
 41
4.7123889803847
 42
6.283185307179586
  0
LINE
  5
F3
330
1F
100
AcDbEntity
  8
0
  6
Continuous
 62
     7
100
AcDbLine
 10
6264.7687553361
 20
5379.5794269812
 30
0.0
 11
6264.7687553361
 21
5378.8165172552
 31
0.0
  0
LINE
  5
F4
330
1F
100
AcDbEntity
  8
0
  6
Continuous
 62
     7
100
AcDbLine
 10
6283.2687553361
 20
5378.8165172552
 30
0.0
 11
6283.2687553361
 21
5379.5794269812
 31
0.0
  0
LINE
  5
F5
330
1F
100
AcDbEntity
  8
0
  6
Continuous
 62
     7
100
AcDbLine
 10
6281.5187553361
 20
5379.682542659
 30
0.0
 11
6281.5187553361
 21
5380.5485680628
 31
0.0
  0
LINE
  5
F6
330
1F
100
AcDbEntity
  8
0
  6
Continuous
 62
     7
100
AcDbLine
 10
6266.5187553361
 20
5380.5485680628
 30
0.0
 11
6266.5187553361
 21
5379.682542659
 31
0.0
  0
LINE
  5
F7
330
1F
100
AcDbEntity
  8
0
  6
Continuous
 62
     7
100
AcDbLine
 10
6260.0187553364
 20
5416.1483747457
 30
0.0
 11
6260.0187553364
 21
5379.913717567
 31
0.0
  0
LINE
  5
F8
330
1F
100
AcDbEntity
  8
0
  6
Continuous
 62
     7
100
AcDbLine
 10
6288.0187553358
 20
5379.913717567
 30
0.0
 11
6288.0187553358
 21
5416.1483747457
 31
0.0
  0
LINE
  5
F9
330
1F
100
AcDbEntity
  8
0
  6
Continuous
 62
     7
100
AcDbLine
 10
6275.5187553361
 20
5383.44362826
 30
0.0
 11
6275.5187553361
 21
5383.3803013211
 31
0.0
  0
LINE
  5
FA
330
1F
100
AcDbEntity
  8
0
  6
Continuous
 62
     7
100
AcDbLine
 10
6272.5187553361
 20
5383.44362826
 30
0.0
 11
6272.5187553361
 21
5383.3803013211
 31
0.0
  0
LINE
  5
FB
330
1F
100
AcDbEntity
  8
0
  6
Continuous
 62
     7
100
AcDbLine
 10
6268.6252501862
 20
5382.6505988662
 30
0.0
 11
6268.6252501862
 21
5382.573930002
 31
0.0
  0
LINE
  5
FC
330
1F
100
AcDbEntity
  8
0
  6
Continuous
 62
     7
100
AcDbLine
 10
6266.5039298426
 20
5381.6191063619
 30
0.0
 11
6266.5039298426
 21
5381.5132698302
 31
0.0
  0
LINE
  5
FD
330
1F
100
AcDbEntity
  8
0
  6
Continuous
 62
     7
100
AcDbLine
 10
6264.8911872043
 20
5379.8863449283
 30
0.0
 11
6264.8911872043
 21
5379.5665172552
 31
0.0
  0
LINE
  5
FE
330
1F
100
AcDbEntity
  8
0
  6
Continuous
 62
     7
100
AcDbLine
 10
6266.5039298426
 20
5376.9857900841
 30
0.0
 11
6266.5039298426
 21
5376.1197646803
 31
0.0
  0
LINE
  5
FF
330
1F
100
AcDbEntity
  8
0
  6
Continuous
 62
     7
100
AcDbLine
 10
6281.5335808296
 20
5376.9857900841
 30
0.0
 11
6281.5335808296
 21
5376.1197646803
 31
0.0
  0
LINE
  5
100
330
1F
100
AcDbEntity
  8
0
  6
Continuous
 62
     7
100
AcDbLine
 10
6283.1463234679
 20
5379.8863449283
 30
0.0
 11
6283.1463234679
 21
5379.5665172552
 31
0.0
  0
LINE
  5
101
330
1F
100
AcDbEntity
  8
0
  6
Continuous
 62
     7
100
AcDbLine
 10
6281.5335808296
 20
5381.6191063619
 30
0.0
 11
6281.5335808296
 21
5381.5132698302
 31
0.0
  0
LINE
  5
102
330
1F
100
AcDbEntity
  8
0
  6
Continuous
 62
     7
100
AcDbLine
 10
6279.412260486
 20
5382.6505988662
 30
0.0
 11
6279.412260486
 21
5382.573930002
 31
0.0
  0
LINE
  5
103
330
1F
100
AcDbEntity
  8
0
  6
Continuous
 62
     7
100
AcDbLine
 10
6272.5187553361
 20
5383.3803013211
 30
0.0
 11
6272.5187553361
 21
5383.1267521676
 31
0.0
  0
LINE
  5
104
330
1F
100
AcDbEntity
  8
0
  6
Continuous
 62
     7
100
AcDbLine
 10
6275.5187553361
 20
5383.3803013211
 30
0.0
 11
6275.5187553361
 21
5383.1267521676
 31
0.0
  0
LINE
  5
105
330
1F
100
AcDbEntity
  8
0
  6
Continuous
 62
     7
100
AcDbLine
 10
6282.2687553361
 20
5379.682542659
 30
0.0
 11
6282.0884730422
 21
5378.8249069344
 31
0.0
  0
LINE
  5
106
330
1F
100
AcDbEntity
  8
0
  6
Continuous
 62
     7
100
AcDbLine
 10
6282.0884730422
 20
5378.8249069344
 30
0.0
 11
6281.5555053617
 21
5378.0047540063
 31
0.0
  0
LINE
  5
107
330
1F
100
AcDbEntity
  8
0
  6
Continuous
 62
     7
100
AcDbLine
 10
6281.5555053617
 20
5378.0047540063
 30
0.0
 11
6280.6931455397
 21
5377.2579284933
 31
0.0
  0
LINE
  5
108
330
1F
100
AcDbEntity
  8
0
  6
Continuous
 62
     7
100
AcDbLine
 10
6280.6931455397
 20
5377.2579284933
 30
0.0
 11
6279.5390828386
 21
5376.6170702539
 31
0.0
  0
LINE
  5
109
330
1F
100
AcDbEntity
  8
0
  6
Continuous
 62
     7
100
AcDbLine
 10
6279.5390828386
 20
5376.6170702539
 30
0.0
 11
6278.1437553361
 21
5376.1101878684
 31
0.0
  0
LINE
  5
10A
330
1F
100
AcDbEntity
  8
0
  6
Continuous
 62
     7
100
AcDbLine
 10
6278.1437553361
 20
5376.1101878684
 30
0.0
 11
6276.5681455397
 21
5375.7594345293
 31
0.0
  0
LINE
  5
10B
330
1F
100
AcDbEntity
  8
0
  6
Continuous
 62
     7
100
AcDbLine
 10
6276.5681455397
 20
5375.7594345293
 30
0.0
 11
6274.8811151581
 21
5375.5801398406
 31
0.0
  0
LINE
  5
10C
330
1F
100
AcDbEntity
  8
0
  6
Continuous
 62
     7
100
AcDbLine
 10
6274.8811151581
 20
5375.5801398406
 30
0.0
 11
6273.1563955141
 21
5375.5801398406
 31
0.0
  0
LINE
  5
10D
330
1F
100
AcDbEntity
  8
0
  6
Continuous
 62
     7
100
AcDbLine
 10
6273.1563955141
 20
5375.5801398406
 30
0.0
 11
6271.4693651325
 21
5375.7594345293
 31
0.0
  0
LINE
  5
10E
330
1F
100
AcDbEntity
  8
0
  6
Continuous
 62
     7
100
AcDbLine
 10
6271.4693651325
 20
5375.7594345293
 30
0.0
 11
6269.8937553361
 21
5376.1101878684
 31
0.0
  0
LINE
  5
10F
330
1F
100
AcDbEntity
  8
0
  6
Continuous
 62
     7
100
AcDbLine
 10
6269.8937553361
 20
5376.1101878684
 30
0.0
 11
6268.4984278336
 21
5376.6170702539
 31
0.0
  0
LINE
  5
110
330
1F
100
AcDbEntity
  8
0
  6
Continuous
 62
     7
100
AcDbLine
 10
6268.4984278336
 20
5376.6170702539
 30
0.0
 11
6267.3443651325
 21
5377.2579284933
 31
0.0
  0
LINE
  5
111
330
1F
100
AcDbEntity
  8
0
  6
Continuous
 62
     7
100
AcDbLine
 10
6267.3443651325
 20
5377.2579284933
 30
0.0
 11
6266.4820053105
 21
5378.0047540063
 31
0.0
  0
LINE
  5
112
330
1F
100
AcDbEntity
  8
0
  6
Continuous
 62
     7
100
AcDbLine
 10
6266.4820053105
 20
5378.0047540063
 30
0.0
 11
6265.94903763
 21
5378.8249069344
 31
0.0
  0
LINE
  5
113
330
1F
100
AcDbEntity
  8
0
  6
Continuous
 62
     7
100
AcDbLine
 10
6265.94903763
 20
5378.8249069344
 30
0.0
 11
6265.7687553361
 21
5379.682542659
 31
0.0
  0
LINE
  5
114
330
1F
100
AcDbEntity
  8
0
  6
Continuous
 62
     7
100
AcDbLine
 10
6265.7687553361
 20
5379.682542659
 30
0.0
 11
6265.94903763
 21
5380.5401783836
 31
0.0
  0
LINE
  5
115
330
1F
100
AcDbEntity
  8
0
  6
Continuous
 62
     7
100
AcDbLine
 10
6265.94903763
 20
5380.5401783836
 30
0.0
 11
6266.4820053105
 21
5381.3603313117
 31
0.0
  0
LINE
  5
116
330
1F
100
AcDbEntity
  8
0
  6
Continuous
 62
     7
100
AcDbLine
 10
6266.4820053105
 20
5381.3603313117
 30
0.0
 11
6266.5857885569
 21
5381.472340473
 31
0.0
  0
LINE
  5
117
330
1F
100
AcDbEntity
  8
0
  6
Continuous
 62
     7
100
AcDbLine
 10
6265.2185012161
 20
5380.432542659
 30
0.0
 11
6265.3982855113
 21
5380.432542659
 31
0.0
  0
LINE
  5
118
330
1F
100
AcDbEntity
  8
0
  6
Continuous
 62
     7
100
AcDbLine
 10
6282.8190094561
 20
5380.432542659
 30
0.0
 11
6282.6392251609
 21
5380.432542659
 31
0.0
  0
LINE
  5
119
330
1F
100
AcDbEntity
  8
0
  6
Continuous
 62
     7
100
AcDbLine
 10
6282.7257927197
 20
5379.2495299571
 30
0.0
 11
6282.6958156974
 21
5379.1188220972
 31
0.0
  0
LINE
  5
11A
330
1F
100
AcDbEntity
  8
0
  6
Continuous
 62
     7
100
AcDbLine
 10
6282.6958156974
 20
5379.1188220972
 30
0.0
 11
6282.6392251609
 21
5378.932542659
 31
0.0
  0
LINE
  5
11B
330
1F
100
AcDbEntity
  8
0
  6
Continuous
 62
     7
100
AcDbLine
 10
6281.175008178
 20
5377.1650764099
 30
0.0
 11
6281.5335808296
 21
5376.9857900841
 31
0.0
  0
LINE
  5
11C
330
1F
100
AcDbEntity
  8
0
  6
Continuous
 62
     7
100
AcDbLine
 10
6266.8625024942
 20
5377.1650764099
 30
0.0
 11
6266.5039298426
 21
5376.9857900841
 31
0.0
  0
LINE
  5
11D
330
1F
100
AcDbEntity
  8
0
  6
Continuous
 62
     7
100
AcDbLine
 10
6265.3982855113
 20
5378.932542659
 30
0.0
 11
6265.3416949748
 21
5379.1188220972
 31
0.0
  0
LINE
  5
11E
330
1F
100
AcDbEntity
  8
0
  6
Continuous
 62
     7
100
AcDbLine
 10
6265.3416949748
 20
5379.1188220972
 30
0.0
 11
6265.3117179525
 21
5379.2495299571
 31
0.0
  0
LINE
  5
11F
330
1F
100
AcDbEntity
  8
0
  6
Continuous
 62
     7
100
AcDbLine
 10
6279.0536878344
 20
5382.7706315599
 30
0.0
 11
6279.0536878344
 21
5382.3946436762
 31
0.0
  0
LINE
  5
120
330
1F
100
AcDbEntity
  8
0
  6
Continuous
 62
     7
100
AcDbLine
 10
6279.0536878344
 20
5382.3946436762
 30
0.0
 11
6279.412260486
 21
5382.573930002
 31
0.0
  0
LINE
  5
121
330
1F
100
AcDbEntity
  8
0
  6
Continuous
 62
     7
100
AcDbLine
 10
6281.175008178
 20
5381.3339835044
 30
0.0
 11
6281.5335808296
 21
5381.5132698302
 31
0.0
  0
LINE
  5
122
330
1F
100
AcDbEntity
  8
0
  6
Continuous
 62
     7
100
AcDbLine
 10
6268.9838228378
 20
5382.7706315599
 30
0.0
 11
6268.9838228378
 21
5382.3946436762
 31
0.0
  0
LINE
  5
123
330
1F
100
AcDbEntity
  8
0
  6
Continuous
 62
     7
100
AcDbLine
 10
6268.9838228378
 20
5382.3946436762
 30
0.0
 11
6268.6252501862
 21
5382.573930002
 31
0.0
  0
LINE
  5
124
330
1F
100
AcDbEntity
  8
0
  6
Continuous
 62
     7
100
AcDbLine
 10
6266.8625024942
 20
5381.3339835044
 30
0.0
 11
6266.5039298426
 21
5381.5132698302
 31
0.0
  0
LINE
  5
125
330
1F
100
AcDbEntity
  8
0
  6
Continuous
 62
     7
100
AcDbLine
 10
6266.5187553361
 20
5380.5485680628
 30
0.0
 11
6266.5627206574
 21
5380.9540143819
 31
0.0
  0
LINE
  5
126
330
1F
100
AcDbEntity
  8
0
  6
Continuous
 62
     7
100
AcDbLine
 10
6266.5627206574
 20
5380.9540143819
 30
0.0
 11
6266.7176338402
 21
5381.4064178314
 31
0.0
  0
LINE
  5
127
330
1F
100
AcDbEntity
  8
0
  6
Continuous
 62
     7
100
AcDbLine
 10
6281.319876832
 20
5381.4064178314
 30
0.0
 11
6281.3434095039
 21
5381.3547072136
 31
0.0
  0
LINE
  5
128
330
1F
100
AcDbEntity
  8
0
  6
Continuous
 62
     7
100
AcDbLine
 10
6281.3434095039
 20
5381.3547072136
 30
0.0
 11
6281.5187553361
 21
5380.5485680628
 31
0.0
  0
LINE
  5
129
330
1F
100
AcDbEntity
  8
0
  6
Continuous
 62
     7
100
AcDbLine
 10
6281.5187553361
 20
5379.682542659
 30
0.0
 11
6281.3434095039
 21
5378.8764035082
 31
0.0
  0
LINE
  5
12A
330
1F
100
AcDbEntity
  8
0
  6
Continuous
 62
     7
100
AcDbLine
 10
6281.3434095039
 20
5378.8764035082
 30
0.0
 11
6280.8255709836
 21
5378.1079585282
 31
0.0
  0
LINE
  5
12B
330
1F
100
AcDbEntity
  8
0
  6
Continuous
 62
     7
100
AcDbLine
 10
6280.8255709836
 20
5378.1079585282
 30
0.0
 11
6279.9894533289
 21
5377.413139352
 31
0.0
  0
LINE
  5
12C
330
1F
100
AcDbEntity
  8
0
  6
Continuous
 62
     7
100
AcDbLine
 10
6279.9894533289
 20
5377.413139352
 30
0.0
 11
6278.874152472
 21
5376.8244349523
 31
0.0
  0
LINE
  5
12D
330
1F
100
AcDbEntity
  8
0
  6
Continuous
 62
     7
100
AcDbLine
 10
6278.874152472
 20
5376.8244349523
 30
0.0
 11
6277.5318186413
 21
5376.3693724923
 31
0.0
  0
LINE
  5
12E
330
1F
100
AcDbEntity
  8
0
  6
Continuous
 62
     7
100
AcDbLine
 10
6277.5318186413
 20
5376.3693724923
 30
0.0
 11
6276.0252178751
 21
5376.0692301871
 31
0.0
  0
LINE
  5
12F
330
1F
100
AcDbEntity
  8
0
  6
Continuous
 62
     7
100
AcDbLine
 10
6276.0252178751
 20
5376.0692301871
 30
0.0
 11
6274.4247971505
 21
5375.9380423571
 31
0.0
  0
LINE
  5
130
330
1F
100
AcDbEntity
  8
0
  6
Continuous
 62
     7
100
AcDbLine
 10
6274.4247971505
 20
5375.9380423571
 30
0.0
 11
6272.805390362
 21
5375.9819431995
 31
0.0
  0
LINE
  5
131
330
1F
100
AcDbEntity
  8
0
  6
Continuous
 62
     7
100
AcDbLine
 10
6272.805390362
 20
5375.9819431995
 30
0.0
 11
6271.2427191711
 21
5376.1988799597
 31
0.0
  0
LINE
  5
132
330
1F
100
AcDbEntity
  8
0
  6
Continuous
 62
     7
100
AcDbLine
 10
6271.2427191711
 20
5376.1988799597
 30
0.0
 11
6269.8098523459
 21
5376.5787089159
 31
0.0
  0
LINE
  5
133
330
1F
100
AcDbEntity
  8
0
  6
Continuous
 62
     7
100
AcDbLine
 10
6269.8098523459
 20
5376.5787089159
 30
0.0
 11
6268.5737891467
 21
5377.1036696883
 31
0.0
  0
LINE
  5
134
330
1F
100
AcDbEntity
  8
0
  6
Continuous
 62
     7
100
AcDbLine
 10
6268.5737891467
 20
5377.1036696883
 30
0.0
 11
6267.5923265148
 21
5377.7492156946
 31
0.0
  0
LINE
  5
135
330
1F
100
AcDbEntity
  8
0
  6
Continuous
 62
     7
100
AcDbLine
 10
6267.5923265148
 20
5377.7492156946
 30
0.0
 11
6266.9113565522
 21
5378.485161921
 31
0.0
  0
LINE
  5
136
330
1F
100
AcDbEntity
  8
0
  6
Continuous
 62
     7
100
AcDbLine
 10
6266.9113565522
 20
5378.485161921
 30
0.0
 11
6266.5627206574
 21
5379.2770963399
 31
0.0
  0
LINE
  5
137
330
1F
100
AcDbEntity
  8
0
  6
Continuous
 62
     7
100
AcDbLine
 10
6266.5627206574
 20
5379.2770963399
 30
0.0
 11
6266.5627206574
 21
5380.0879889781
 31
0.0
  0
LINE
  5
138
330
1F
100
AcDbEntity
  8
0
  6
Continuous
 62
     7
100
AcDbLine
 10
6266.5627206574
 20
5380.0879889781
 30
0.0
 11
6266.9113565522
 21
5380.879923397
 31
0.0
  0
LINE
  5
139
330
1F
100
AcDbEntity
  8
0
  6
Continuous
 62
     7
100
AcDbLine
 10
6266.9113565522
 20
5380.879923397
 30
0.0
 11
6267.5923265148
 21
5381.6158696234
 31
0.0
  0
LINE
  5
13A
330
1F
100
AcDbEntity
  8
0
  6
Continuous
 62
     7
100
AcDbLine
 10
6267.5923265148
 20
5381.6158696234
 30
0.0
 11
6268.4265185761
 21
5382.1813867928
 31
0.0
  0
LINE
  5
13B
330
1F
100
AcDbEntity
  8
0
  6
Continuous
 62
     7
100
AcDbLine
 10
6282.6392251609
 20
5380.432542659
 30
0.0
 11
6282.6392251609
 21
5379.5665172552
 31
0.0
  0
LINE
  5
13C
330
1F
100
AcDbEntity
  8
0
  6
Continuous
 62
     7
100
AcDbLine
 10
6283.1463234679
 20
5379.5665172552
 30
0.0
 11
6282.6392251609
 21
5379.5665172552
 31
0.0
  0
LINE
  5
13D
330
1F
100
AcDbEntity
  8
0
  6
Continuous
 62
     7
100
AcDbLine
 10
6282.6392251609
 20
5378.932542659
 30
0.0
 11
6282.6392251609
 21
5378.0665172552
 31
0.0
  0
LINE
  5
13E
330
1F
100
AcDbEntity
  8
0
  6
Continuous
 62
     7
100
AcDbLine
 10
6283.1463234679
 20
5378.0665172552
 30
0.0
 11
6282.6392251609
 21
5378.0665172552
 31
0.0
  0
LINE
  5
13F
330
1F
100
AcDbEntity
  8
0
  6
Continuous
 62
     7
100
AcDbLine
 10
6264.8911872043
 20
5378.0665172552
 30
0.0
 11
6265.3982855113
 21
5378.0665172552
 31
0.0
  0
LINE
  5
140
330
1F
100
AcDbEntity
  8
0
  6
Continuous
 62
     7
100
AcDbLine
 10
6264.8911872043
 20
5379.5665172552
 30
0.0
 11
6265.3982855113
 21
5379.5665172552
 31
0.0
  0
LINE
  5
141
330
1F
100
AcDbEntity
  8
0
  6
Continuous
 62
     7
100
AcDbLine
 10
6265.3982855113
 20
5380.432542659
 30
0.0
 11
6265.3982855113
 21
5379.5665172552
 31
0.0
  0
LINE
  5
142
330
1F
100
AcDbEntity
  8
0
  6
Continuous
 62
     7
100
AcDbLine
 10
6265.3982855113
 20
5378.932542659
 30
0.0
 11
6265.3982855113
 21
5378.0665172552
 31
0.0
  0
LINE
  5
143
330
1F
100
AcDbEntity
  8
0
  6
Continuous
 62
     7
100
AcDbLine
 10
6281.175008178
 20
5377.1650764099
 30
0.0
 11
6281.175008178
 21
5376.2990510061
 31
0.0
  0
LINE
  5
144
330
1F
100
AcDbEntity
  8
0
  6
Continuous
 62
     7
100
AcDbLine
 10
6281.175008178
 20
5376.2990510061
 30
0.0
 11
6281.5335808296
 21
5376.1197646803
 31
0.0
  0
LINE
  5
145
330
1F
100
AcDbEntity
  8
0
  6
Continuous
 62
     7
100
AcDbLine
 10
6279.0536878344
 20
5376.1044162381
 30
0.0
 11
6279.0536878344
 21
5375.2383908343
 31
0.0
  0
LINE
  5
146
330
1F
100
AcDbEntity
  8
0
  6
Continuous
 62
     7
100
AcDbLine
 10
6266.8625024942
 20
5377.1650764099
 30
0.0
 11
6266.8625024942
 21
5376.2990510061
 31
0.0
  0
LINE
  5
147
330
1F
100
AcDbEntity
  8
0
  6
Continuous
 62
     7
100
AcDbLine
 10
6268.9838228378
 20
5376.1044162381
 30
0.0
 11
6268.9838228378
 21
5375.2383908343
 31
0.0
  0
LINE
  5
148
330
1F
100
AcDbEntity
  8
0
  6
Continuous
 62
     7
100
AcDbLine
 10
6266.8625024942
 20
5376.2990510061
 30
0.0
 11
6266.5039298426
 21
5376.1197646803
 31
0.0
  0
LINE
  5
149
330
1F
100
AcDbEntity
  8
0
  6
Continuous
 62
     7
100
AcDbLine
 10
6268.9838228378
 20
5375.2383908343
 30
0.0
 11
6268.6252501862
 21
5375.0591045085
 31
0.0
  0
LINE
  5
14A
330
1F
100
AcDbEntity
  8
0
  6
Continuous
 62
     7
100
AcDbLine
 10
6279.0536878344
 20
5375.2383908343
 30
0.0
 11
6279.412260486
 21
5375.0591045085
 31
0.0
  0
LINE
  5
14B
330
1F
100
AcDbEntity
  8
0
  6
Continuous
 62
     7
100
AcDbLine
 10
6272.5187553361
 20
5374.2527331893
 30
0.0
 11
6272.5187553361
 21
5374.5062823428
 31
0.0
  0
LINE
  5
14C
330
1F
100
AcDbEntity
  8
0
  6
Continuous
 62
     7
100
AcDbLine
 10
6275.5187553361
 20
5374.2527331893
 30
0.0
 11
6275.5187553361
 21
5374.5062823428
 31
0.0
  0
LINE
  5
14D
330
1F
100
AcDbEntity
  8
0
  6
Continuous
 62
     7
100
AcDbLine
 10
6275.5187553361
 20
5375.3723077466
 30
0.0
 11
6275.5187553361
 21
5374.5062823428
 31
0.0
  0
LINE
  5
14E
330
1F
100
AcDbEntity
  8
0
  6
Continuous
 62
     7
100
AcDbLine
 10
6272.5187553361
 20
5375.3723077466
 30
0.0
 11
6272.5187553361
 21
5374.5062823428
 31
0.0
  0
LINE
  5
14F
330
1F
100
AcDbEntity
  8
0
  6
Continuous
 62
     7
100
AcDbLine
 10
6266.4687553361
 20
5314.3994545927
 30
0.0
 11
6281.5687553361
 21
5314.3994545927
 31
0.0
  0
LINE
  5
150
330
1F
100
AcDbEntity
  8
0
  6
Continuous
 62
     7
100
AcDbLine
 10
6266.4687553361
 20
5324.9994545927
 30
0.0
 11
6281.5687553361
 21
5324.9994545927
 31
0.0
  0
LINE
  5
151
330
1F
100
AcDbEntity
  8
0
  6
Continuous
 62
     7
100
AcDbLine
 10
6283.3402821739
 20
5324.9994545927
 30
0.0
 11
6281.5687553361
 21
5324.9994545927
 31
0.0
  0
LINE
  5
152
330
1F
100
AcDbEntity
  8
0
  6
Continuous
 62
     7
100
AcDbLine
 10
6459.3556787546
 20
5243.6994545927
 30
0.0
 11
6088.6818319177
 21
5243.6994545927
 31
0.0
  0
LINE
  5
153
330
1F
100
AcDbEntity
  8
0
  6
Continuous
 62
     7
100
AcDbLine
 10
6088.6818319177
 20
5243.6994545927
 30
0.0
 11
6088.6818319177
 21
5248.6994545927
 31
0.0
  0
LINE
  5
154
330
1F
100
AcDbEntity
  8
0
  6
Continuous
 62
     7
100
AcDbLine
 10
6088.6818319177
 20
5248.6994545927
 30
0.0
 11
6459.3556787546
 21
5248.6994545927
 31
0.0
  0
LINE
  5
155
330
1F
100
AcDbEntity
  8
0
  6
Continuous
 62
     7
100
AcDbLine
 10
6459.3556787546
 20
5243.6994545927
 30
0.0
 11
6459.3556787546
 21
5248.6994545927
 31
0.0
  0
LINE
  5
156
330
1F
100
AcDbEntity
  8
0
  6
Continuous
 62
     7
100
AcDbLine
 10
6088.6818319177
 20
4948.6994545927
 30
0.0
 11
6084.8516097021
 21
4948.6994545927
 31
0.0
  0
LINE
  5
157
330
1F
100
AcDbEntity
  8
0
  6
Continuous
 62
     7
100
AcDbLine
 10
6081.0213874865
 20
4953.6994545927
 30
0.0
 11
6088.6818319177
 21
4953.6994545927
 31
0.0
  0
LINE
  5
158
330
1F
100
AcDbEntity
  8
0
  6
Continuous
 62
     7
100
AcDbLine
 10
6088.6818319177
 20
4948.6994545927
 30
0.0
 11
6088.6818319177
 21
4953.6994545927
 31
0.0
  0
LINE
  5
159
330
1F
100
AcDbEntity
  8
0
  6
Continuous
 62
     7
100
AcDbLine
 10
6467.0161231857
 20
5243.6994545927
 30
0.0
 11
6459.3556787546
 21
5243.6994545927
 31
0.0
  0
LINE
  5
15A
330
1F
100
AcDbEntity
  8
0
  6
Continuous
 62
     7
100
AcDbLine
 10
6459.3556787546
 20
5248.6994545927
 30
0.0
 11
6463.1859009701
 21
5248.6994545927
 31
0.0
  0
LINE
  5
15B
330
1F
100
AcDbEntity
  8
0
  6
Continuous
 62
     7
100
AcDbLine
 10
6088.6818319177
 20
4953.6994545927
 30
0.0
 11
6459.3556787546
 21
4953.6994545927
 31
0.0
  0
LINE
  5
15C
330
1F
100
AcDbEntity
  8
0
  6
Continuous
 62
     7
100
AcDbLine
 10
6088.6818319177
 20
5243.6994545927
 30
0.0
 11
6088.6818319177
 21
4953.6994545927
 31
0.0
  0
LINE
  5
15D
330
1F
100
AcDbEntity
  8
0
  6
Continuous
 62
     7
100
AcDbLine
 10
6459.3556787546
 20
4953.6994545927
 30
0.0
 11
6459.3556787546
 21
5243.6994545927
 31
0.0
  0
LINE
  5
15E
330
1F
100
AcDbEntity
  8
0
  6
Continuous
 62
     7
100
AcDbLine
 10
6459.3556787546
 20
4953.6994545927
 30
0.0
 11
6467.0161231857
 21
4953.6994545927
 31
0.0
  0
LINE
  5
15F
330
1F
100
AcDbEntity
  8
0
  6
Continuous
 62
     7
100
AcDbLine
 10
6467.0161231857
 20
5243.6994545927
 30
0.0
 11
6467.0161231857
 21
4953.6994545927
 31
0.0
  0
LINE
  5
160
330
1F
100
AcDbEntity
  8
0
  6
Continuous
 62
     7
100
AcDbLine
 10
6081.0213874865
 20
4953.6994545927
 30
0.0
 11
6081.0213874865
 21
5243.6994545927
 31
0.0
  0
LINE
  5
161
330
1F
100
AcDbEntity
  8
0
  6
Continuous
 62
     7
100
AcDbLine
 10
6088.6818319177
 20
5243.6994545927
 30
0.0
 11
6081.0213874865
 21
5243.6994545927
 31
0.0
  0
LINE
  5
162
330
1F
100
AcDbEntity
  8
0
  6
Continuous
 62
     7
100
AcDbLine
 10
6463.1859009701
 20
4948.6994545927
 30
0.0
 11
6459.3556787546
 21
4948.6994545927
 31
0.0
  0
LINE
  5
163
330
1F
100
AcDbEntity
  8
0
  6
Continuous
 62
     7
100
AcDbLine
 10
6459.3556787546
 20
4948.6994545927
 30
0.0
 11
6459.3556787546
 21
4953.6994545927
 31
0.0
  0
LINE
  5
164
330
1F
100
AcDbEntity
  8
0
  6
Continuous
 62
     7
100
AcDbLine
 10
6084.8516097021
 20
5248.6994545927
 30
0.0
 11
6088.6818319177
 21
5248.6994545927
 31
0.0
  0
LINE
  5
165
330
1F
100
AcDbEntity
  8
0
  6
Continuous
 62
     7
100
AcDbLine
 10
6459.3556787546
 20
4948.6994545927
 30
0.0
 11
6088.6818319177
 21
4948.6994545927
 31
0.0
  0
LINE
  5
166
330
1F
100
AcDbEntity
  8
0
  6
Continuous
 62
     7
100
AcDbLine
 10
6081.0213874865
 20
5243.6994545927
 30
0.0
 11
6042.7351998866
 21
5243.6994545927
 31
0.0
  0
LINE
  5
167
330
1F
100
AcDbEntity
  8
0
  6
Continuous
 62
     7
100
AcDbLine
 10
6046.5654221022
 20
5248.6994545927
 30
0.0
 11
6084.8516097021
 21
5248.6994545927
 31
0.0
  0
LINE
  5
168
330
1F
100
AcDbEntity
  8
0
  6
Continuous
 62
     7
100
AcDbLine
 10
6084.8516097021
 20
4948.6994545927
 30
0.0
 11
6046.5654221022
 21
4948.6994545927
 31
0.0
  0
LINE
  5
169
330
1F
100
AcDbEntity
  8
0
  6
Continuous
 62
     7
100
AcDbLine
 10
6042.7351998866
 20
4953.6994545927
 30
0.0
 11
6081.0213874865
 21
4953.6994545927
 31
0.0
  0
LINE
  5
16A
330
1F
100
AcDbEntity
  8
0
  6
Continuous
 62
     7
100
AcDbLine
 10
6042.7351998866
 20
5243.6994545927
 30
0.0
 11
6042.7351998866
 21
4953.6994545927
 31
0.0
  0
LINE
  5
16B
330
1F
100
AcDbEntity
  8
0
  6
Continuous
 62
     7
100
AcDbLine
 10
6467.0161231857
 20
4953.6994545927
 30
0.0
 11
6505.3023107856
 21
4953.6994545927
 31
0.0
  0
LINE
  5
16C
330
1F
100
AcDbEntity
  8
0
  6
Continuous
 62
     7
100
AcDbLine
 10
6501.47208857
 20
4948.6994545927
 30
0.0
 11
6463.1859009701
 21
4948.6994545927
 31
0.0
  0
LINE
  5
16D
330
1F
100
AcDbEntity
  8
0
  6
Continuous
 62
     7
100
AcDbLine
 10
6505.3023107856
 20
5243.6994545927
 30
0.0
 11
6467.0161231857
 21
5243.6994545927
 31
0.0
  0
LINE
  5
16E
330
1F
100
AcDbEntity
  8
0
  6
Continuous
 62
     7
100
AcDbLine
 10
6505.3023107856
 20
5243.6994545927
 30
0.0
 11
6505.3023107856
 21
4953.6994545927
 31
0.0
  0
LINE
  5
16F
330
1F
100
AcDbEntity
  8
0
  6
Continuous
 62
     7
100
AcDbLine
 10
6463.1859009701
 20
5248.6994545927
 30
0.0
 11
6501.47208857
 21
5248.6994545927
 31
0.0
  0
LINE
  5
170
330
1F
100
AcDbEntity
  8
0
  6
Continuous
 62
     7
100
AcDbLine
 10
6024.0187553361
 20
4953.6994545927
 30
0.0
 11
6042.7351998866
 21
4953.6994545927
 31
0.0
  0
LINE
  5
171
330
1F
100
AcDbEntity
  8
0
  6
Continuous
 62
     7
100
AcDbLine
 10
6024.0187553361
 20
5243.6994545927
 30
0.0
 11
6024.0187553361
 21
4953.6994545927
 31
0.0
  0
LINE
  5
172
330
1F
100
AcDbEntity
  8
0
  6
Continuous
 62
     7
100
AcDbLine
 10
6042.7351998866
 20
5243.6994545927
 30
0.0
 11
6024.0187553361
 21
5243.6994545927
 31
0.0
  0
LINE
  5
173
330
1F
100
AcDbEntity
  8
0
  6
Continuous
 62
     7
100
AcDbLine
 10
6046.5654221022
 20
4948.6994545927
 30
0.0
 11
6029.0187553361
 21
4948.6994545927
 31
0.0
  0
LINE
  5
174
330
1F
100
AcDbEntity
  8
0
  6
Continuous
 62
     7
100
AcDbLine
 10
6029.0187553361
 20
5248.6994545927
 30
0.0
 11
6046.5654221022
 21
5248.6994545927
 31
0.0
  0
LINE
  5
175
330
1F
100
AcDbEntity
  8
0
  6
Continuous
 62
     7
100
AcDbLine
 10
6505.3023107856
 20
4953.6994545927
 30
0.0
 11
6524.0187553361
 21
4953.6994545927
 31
0.0
  0
LINE
  5
176
330
1F
100
AcDbEntity
  8
0
  6
Continuous
 62
     7
100
AcDbLine
 10
6519.0187553361
 20
4948.6994545927
 30
0.0
 11
6501.47208857
 21
4948.6994545927
 31
0.0
  0
LINE
  5
177
330
1F
100
AcDbEntity
  8
0
  6
Continuous
 62
     7
100
AcDbLine
 10
6524.0187553361
 20
5243.6994545927
 30
0.0
 11
6505.3023107856
 21
5243.6994545927
 31
0.0
  0
LINE
  5
178
330
1F
100
AcDbEntity
  8
0
  6
Continuous
 62
     7
100
AcDbLine
 10
6524.0187553361
 20
5243.6994545927
 30
0.0
 11
6524.0187553361
 21
4953.6994545927
 31
0.0
  0
LINE
  5
179
330
1F
100
AcDbEntity
  8
0
  6
Continuous
 62
     7
100
AcDbLine
 10
6501.47208857
 20
5248.6994545927
 30
0.0
 11
6519.0187553361
 21
5248.6994545927
 31
0.0
  0
LINE
  5
17A
330
1F
100
AcDbEntity
  8
0
  6
Continuous
 62
     7
100
AcDbLine
 10
6029.0187553361
 20
5248.6994545927
 30
0.0
 11
6029.0187553361
 21
5253.6994545927
 31
0.0
  0
LINE
  5
17B
330
1F
100
AcDbEntity
  8
0
  6
Continuous
 62
     7
100
AcDbLine
 10
6029.0187553361
 20
5253.6994545927
 30
0.0
 11
6519.0187553361
 21
5253.6994545927
 31
0.0
  0
LINE
  5
17C
330
1F
100
AcDbEntity
  8
0
  6
Continuous
 62
     7
100
AcDbLine
 10
6519.0187553361
 20
5248.6994545927
 30
0.0
 11
6519.0187553361
 21
5253.6994545927
 31
0.0
  0
LINE
  5
17D
330
1F
100
AcDbEntity
  8
0
  6
Continuous
 62
     7
100
AcDbLine
 10
6524.0187553361
 20
5253.6994545927
 30
0.0
 11
6519.0187553361
 21
5253.6994545927
 31
0.0
  0
LINE
  5
17E
330
1F
100
AcDbEntity
  8
0
  6
Continuous
 62
     7
100
AcDbLine
 10
6524.0187553361
 20
5243.6994545927
 30
0.0
 11
6524.0187553361
 21
5253.6994545927
 31
0.0
  0
LINE
  5
17F
330
1F
100
AcDbEntity
  8
0
  6
Continuous
 62
     7
100
AcDbLine
 10
6029.0187553361
 20
5253.6994545927
 30
0.0
 11
6024.0187553361
 21
5253.6994545927
 31
0.0
  0
LINE
  5
180
330
1F
100
AcDbEntity
  8
0
  6
Continuous
 62
     7
100
AcDbLine
 10
6024.0187553361
 20
5253.6994545927
 30
0.0
 11
6024.0187553361
 21
5243.6994545927
 31
0.0
  0
LINE
  5
181
330
1F
100
AcDbEntity
  8
0
  6
Continuous
 62
     7
100
AcDbLine
 10
6519.0187553361
 20
5473.6994545927
 30
0.0
 11
6029.0187553361
 21
5473.6994545927
 31
0.0
  0
LINE
  5
182
330
1F
100
AcDbEntity
  8
0
  6
Continuous
 62
     7
100
AcDbLine
 10
6519.0187553361
 20
5253.6994545927
 30
0.0
 11
6519.0187553361
 21
5473.6994545927
 31
0.0
  0
LINE
  5
183
330
1F
100
AcDbEntity
  8
0
  6
Continuous
 62
     7
100
AcDbLine
 10
6029.0187553361
 20
5473.6994545927
 30
0.0
 11
6029.0187553361
 21
5253.6994545927
 31
0.0
  0
LINE
  5
184
330
1F
100
AcDbEntity
  8
0
  6
Continuous
 62
     7
100
AcDbLine
 10
6524.0187553361
 20
5473.6994545927
 30
0.0
 11
6519.0187553361
 21
5473.6994545927
 31
0.0
  0
LINE
  5
185
330
1F
100
AcDbEntity
  8
0
  6
Continuous
 62
     7
100
AcDbLine
 10
6524.0187553361
 20
5473.6994545927
 30
0.0
 11
6524.0187553361
 21
5253.6994545927
 31
0.0
  0
LINE
  5
186
330
1F
100
AcDbEntity
  8
0
  6
Continuous
 62
     7
100
AcDbLine
 10
6519.0187553361
 20
5473.6994545927
 30
0.0
 11
6519.0187553361
 21
5478.6994545927
 31
0.0
  0
LINE
  5
187
330
1F
100
AcDbEntity
  8
0
  6
Continuous
 62
     7
100
AcDbLine
 10
6029.0187553361
 20
5473.6994545927
 30
0.0
 11
6029.0187553361
 21
5478.6994545927
 31
0.0
  0
LINE
  5
188
330
1F
100
AcDbEntity
  8
0
  6
Continuous
 62
     7
100
AcDbLine
 10
6029.0187553361
 20
5478.6994545927
 30
0.0
 11
6519.0187553361
 21
5478.6994545927
 31
0.0
  0
LINE
  5
189
330
1F
100
AcDbEntity
  8
0
  6
Continuous
 62
     7
100
AcDbLine
 10
6029.0187553361
 20
5473.6994545927
 30
0.0
 11
6024.0187553361
 21
5473.6994545927
 31
0.0
  0
LINE
  5
18A
330
1F
100
AcDbEntity
  8
0
  6
Continuous
 62
     7
100
AcDbLine
 10
6024.0187553361
 20
5253.6994545927
 30
0.0
 11
6024.0187553361
 21
5473.6994545927
 31
0.0
  0
LINE
  5
18B
330
1F
100
AcDbEntity
  8
0
  6
Continuous
 62
     7
100
AcDbLine
 10
6274.0187553361
 20
5374.1290172552
 30
0.0
 11
6275.847727105
 21
5374.2190862533
 31
0.0
  0
LINE
  5
18C
330
1F
100
AcDbEntity
  8
0
  6
Continuous
 62
     7
100
AcDbLine
 10
6275.847727105
 20
5374.2190862533
 30
0.0
 11
6277.6064125145
 21
5374.4858319466
 31
0.0
  0
LINE
  5
18D
330
1F
100
AcDbEntity
  8
0
  6
Continuous
 62
     7
100
AcDbLine
 10
6277.6064125145
 20
5374.4858319466
 30
0.0
 11
6279.2272262707
 21
5374.9190034476
 31
0.0
  0
LINE
  5
18E
330
1F
100
AcDbEntity
  8
0
  6
Continuous
 62
     7
100
AcDbLine
 10
6279.2272262707
 20
5374.9190034476
 30
0.0
 11
6280.6478814097
 21
5375.5019542184
 31
0.0
  0
LINE
  5
18F
330
1F
100
AcDbEntity
  8
0
  6
Continuous
 62
     7
100
AcDbLine
 10
6280.6478814097
 20
5375.5019542184
 30
0.0
 11
6281.8137829514
 21
5376.212281788
 31
0.0
  0
LINE
  5
190
330
1F
100
AcDbEntity
  8
0
  6
Continuous
 62
     7
100
AcDbLine
 10
6281.8137829514
 20
5376.212281788
 30
0.0
 11
6282.6801259534
 21
5377.022688666
 31
0.0
  0
LINE
  5
191
330
1F
100
AcDbEntity
  8
0
  6
Continuous
 62
     7
100
AcDbLine
 10
6282.6801259534
 20
5377.022688666
 30
0.0
 11
6283.2136173399
 21
5377.9020313708
 31
0.0
  0
LINE
  5
192
330
1F
100
AcDbEntity
  8
0
  6
Continuous
 62
     7
100
AcDbLine
 10
6283.2136173399
 20
5377.9020313708
 30
0.0
 11
6283.3937553361
 21
5378.8165172552
 31
0.0
  0
LINE
  5
193
330
1F
100
AcDbEntity
  8
0
  6
Continuous
 62
     7
100
AcDbLine
 10
6283.3937553361
 20
5378.8165172552
 30
0.0
 11
6283.2136173399
 21
5379.7310031397
 31
0.0
  0
LINE
  5
194
330
1F
100
AcDbEntity
  8
0
  6
Continuous
 62
     7
100
AcDbLine
 10
6283.2136173399
 20
5379.7310031397
 30
0.0
 11
6282.6801259534
 21
5380.6103458444
 31
0.0
  0
LINE
  5
195
330
1F
100
AcDbEntity
  8
0
  6
Continuous
 62
     7
100
AcDbLine
 10
6282.6801259534
 20
5380.6103458444
 30
0.0
 11
6281.8137829514
 21
5381.4207527225
 31
0.0
  0
LINE
  5
196
330
1F
100
AcDbEntity
  8
0
  6
Continuous
 62
     7
100
AcDbLine
 10
6281.8137829514
 20
5381.4207527225
 30
0.0
 11
6280.6478814097
 21
5382.131080292
 31
0.0
  0
LINE
  5
197
330
1F
100
AcDbEntity
  8
0
  6
Continuous
 62
     7
100
AcDbLine
 10
6280.6478814097
 20
5382.131080292
 30
0.0
 11
6279.2272262707
 21
5382.7140310629
 31
0.0
  0
LINE
  5
198
330
1F
100
AcDbEntity
  8
0
  6
Continuous
 62
     7
100
AcDbLine
 10
6279.2272262707
 20
5382.7140310629
 30
0.0
 11
6277.6064125145
 21
5383.1472025639
 31
0.0
  0
LINE
  5
199
330
1F
100
AcDbEntity
  8
0
  6
Continuous
 62
     7
100
AcDbLine
 10
6277.6064125145
 20
5383.1472025639
 30
0.0
 11
6275.847727105
 21
5383.4139482571
 31
0.0
  0
LINE
  5
19A
330
1F
100
AcDbEntity
  8
0
  6
Continuous
 62
     7
100
AcDbLine
 10
6275.847727105
 20
5383.4139482571
 30
0.0
 11
6274.0187553361
 21
5383.5040172552
 31
0.0
  0
LINE
  5
19B
330
1F
100
AcDbEntity
  8
0
  6
Continuous
 62
     7
100
AcDbLine
 10
6274.0187553361
 20
5383.5040172552
 30
0.0
 11
6272.1897835672
 21
5383.4139482571
 31
0.0
  0
LINE
  5
19C
330
1F
100
AcDbEntity
  8
0
  6
Continuous
 62
     7
100
AcDbLine
 10
6272.1897835672
 20
5383.4139482571
 30
0.0
 11
6270.4310981577
 21
5383.1472025639
 31
0.0
  0
LINE
  5
19D
330
1F
100
AcDbEntity
  8
0
  6
Continuous
 62
     7
100
AcDbLine
 10
6270.4310981577
 20
5383.1472025639
 30
0.0
 11
6268.8102844015
 21
5382.7140310629
 31
0.0
  0
LINE
  5
19E
330
1F
100
AcDbEntity
  8
0
  6
Continuous
 62
     7
100
AcDbLine
 10
6268.8102844015
 20
5382.7140310629
 30
0.0
 11
6267.3896292625
 21
5382.131080292
 31
0.0
  0
LINE
  5
19F
330
1F
100
AcDbEntity
  8
0
  6
Continuous
 62
     7
100
AcDbLine
 10
6267.3896292625
 20
5382.131080292
 30
0.0
 11
6266.2237277208
 21
5381.4207527225
 31
0.0
  0
LINE
  5
1A0
330
1F
100
AcDbEntity
  8
0
  6
Continuous
 62
     7
100
AcDbLine
 10
6266.2237277208
 20
5381.4207527225
 30
0.0
 11
6265.3573847188
 21
5380.6103458444
 31
0.0
  0
LINE
  5
1A1
330
1F
100
AcDbEntity
  8
0
  6
Continuous
 62
     7
100
AcDbLine
 10
6265.3573847188
 20
5380.6103458444
 30
0.0
 11
6264.8238933323
 21
5379.7310031397
 31
0.0
  0
LINE
  5
1A2
330
1F
100
AcDbEntity
  8
0
  6
Continuous
 62
     7
100
AcDbLine
 10
6264.8238933323
 20
5379.7310031397
 30
0.0
 11
6264.6437553361
 21
5378.8165172552
 31
0.0
  0
LINE
  5
1A3
330
1F
100
AcDbEntity
  8
0
  6
Continuous
 62
     7
100
AcDbLine
 10
6264.6437553361
 20
5378.8165172552
 30
0.0
 11
6264.8238933323
 21
5377.9020313708
 31
0.0
  0
LINE
  5
1A4
330
1F
100
AcDbEntity
  8
0
  6
Continuous
 62
     7
100
AcDbLine
 10
6264.8238933323
 20
5377.9020313708
 30
0.0
 11
6265.3573847188
 21
5377.022688666
 31
0.0
  0
LINE
  5
1A5
330
1F
100
AcDbEntity
  8
0
  6
Continuous
 62
     7
100
AcDbLine
 10
6265.3573847188
 20
5377.022688666
 30
0.0
 11
6266.2237277208
 21
5376.212281788
 31
0.0
  0
LINE
  5
1A6
330
1F
100
AcDbEntity
  8
0
  6
Continuous
 62
     7
100
AcDbLine
 10
6266.2237277208
 20
5376.212281788
 30
0.0
 11
6267.3896292625
 21
5375.5019542184
 31
0.0
  0
LINE
  5
1A7
330
1F
100
AcDbEntity
  8
0
  6
Continuous
 62
     7
100
AcDbLine
 10
6267.3896292625
 20
5375.5019542184
 30
0.0
 11
6268.8102844015
 21
5374.9190034476
 31
0.0
  0
LINE
  5
1A8
330
1F
100
AcDbEntity
  8
0
  6
Continuous
 62
     7
100
AcDbLine
 10
6268.8102844015
 20
5374.9190034476
 30
0.0
 11
6270.4310981577
 21
5374.4858319466
 31
0.0
  0
LINE
  5
1A9
330
1F
100
AcDbEntity
  8
0
  6
Continuous
 62
     7
100
AcDbLine
 10
6270.4310981577
 20
5374.4858319466
 30
0.0
 11
6272.1897835672
 21
5374.2190862533
 31
0.0
  0
LINE
  5
1AA
330
1F
100
AcDbEntity
  8
0
  6
Continuous
 62
     7
100
AcDbLine
 10
6272.1897835672
 20
5374.2190862533
 30
0.0
 11
6274.0187553361
 21
5374.1290172552
 31
0.0
  0
LINE
  5
1AB
330
1F
100
AcDbEntity
  8
0
  6
Continuous
 62
     7
100
AcDbLine
 10
6266.5187553361
 20
5314.3994545927
 30
0.0
 11
6281.5187553361
 21
5314.3994545927
 31
0.0
  0
LINE
  5
1AC
330
1F
100
AcDbEntity
  8
0
  6
Continuous
 62
     7
100
AcDbLine
 10
6281.5187553361
 20
5325.3994545927
 30
0.0
 11
6266.5187553361
 21
5325.3994545927
 31
0.0
  0
LINE
  5
1AD
330
1F
100
AcDbEntity
  8
0
  6
Continuous
 62
     7
100
AcDbLine
 10
7055.0032005325
 20
5314.3994545927
 30
0.0
 11
7055.0032005325
 21
5324.9994545927
 31
0.0
  0
LINE
  5
1AE
330
1F
100
AcDbEntity
  8
0
  6
Continuous
 62
     7
100
AcDbLine
 10
6954.1509783144
 20
5119.4226175383
 30
0.0
 11
6954.3534320255
 21
5119.7726982328
 31
0.0
  0
LINE
  5
1AF
330
1F
100
AcDbEntity
  8
0
  6
Continuous
 62
     7
100
AcDbLine
 10
6963.2500279429
 20
5118.6994545927
 30
0.0
 11
6965.2479557126
 21
5118.6994545927
 31
0.0
  0
LINE
  5
1B0
330
1F
100
AcDbEntity
  8
0
  6
Continuous
 62
     7
100
AcDbLine
 10
6961.296181789
 20
5118.6994545927
 30
0.0
 11
6961.5404821086
 21
5118.6994545927
 31
0.0
  0
LINE
  5
1B1
330
1F
100
AcDbEntity
  8
0
  6
Continuous
 62
     7
100
AcDbLine
 10
6959.3423356352
 20
5118.6994545927
 30
0.0
 11
6959.5866359548
 21
5118.6994545927
 31
0.0
  0
LINE
  5
1B2
330
1F
100
AcDbEntity
  8
0
  6
Continuous
 62
     7
100
AcDbLine
 10
6957.3884894814
 20
5118.6994545927
 30
0.0
 11
6957.632789801
 21
5118.6994545927
 31
0.0
  0
LINE
  5
1B3
330
1F
100
AcDbEntity
  8
0
  6
Continuous
 62
     7
100
AcDbLine
 10
6955.4346433275
 20
5118.6994545927
 30
0.0
 11
6955.6789436471
 21
5118.6994545927
 31
0.0
  0
LINE
  5
1B4
330
1F
100
AcDbEntity
  8
0
  6
Continuous
 62
     7
100
AcDbLine
 10
6956.6555976798
 20
5138.6994545927
 30
0.0
 11
6956.4111726401
 21
5138.6994545927
 31
0.0
  0
LINE
  5
1B5
330
1F
100
AcDbEntity
  8
0
  6
Continuous
 62
     7
100
AcDbLine
 10
6958.6094438336
 20
5138.6994545927
 30
0.0
 11
6958.365018794
 21
5138.6994545927
 31
0.0
  0
LINE
  5
1B6
330
1F
100
AcDbEntity
  8
0
  6
Continuous
 62
     7
100
AcDbLine
 10
6960.5632899874
 20
5138.6994545927
 30
0.0
 11
6960.3188649478
 21
5138.6994545927
 31
0.0
  0
LINE
  5
1B7
330
1F
100
AcDbEntity
  8
0
  6
Continuous
 62
     7
100
AcDbLine
 10
6962.5171361413
 20
5138.6994545927
 30
0.0
 11
6962.2727111017
 21
5138.6994545927
 31
0.0
  0
LINE
  5
1B8
330
1F
100
AcDbEntity
  8
0
  6
Continuous
 62
     7
100
AcDbLine
 10
6965.2479557126
 20
5138.6994545927
 30
0.0
 11
6964.2265572555
 21
5138.6994545927
 31
0.0
  0
LINE
  5
1B9
330
1F
100
AcDbEntity
  8
0
  6
Continuous
 62
     7
100
AcDbLine
 10
6965.2479557126
 20
5118.4994545927
 30
0.0
 11
6965.6032005325
 21
5118.4994545927
 31
0.0
  0
LINE
  5
1BA
330
1F
100
AcDbEntity
  8
0
  6
Continuous
 62
     7
100
AcDbLine
 10
6965.6032005325
 20
5138.8994545927
 30
0.0
 11
6965.2479557126
 21
5138.8994545927
 31
0.0
  0
LINE
  5
1BB
330
1F
100
AcDbEntity
  8
0
  6
Continuous
 62
     7
100
AcDbLine
 10
6953.6904054645
 20
5137.6419043446
 30
0.0
 11
6953.2479557126
 21
5137.1994545927
 31
0.0
  0
LINE
  5
1BC
330
1F
100
AcDbEntity
  8
0
  6
Continuous
 62
     7
100
AcDbLine
 10
6954.6787719167
 20
5138.6302707967
 30
0.0
 11
6954.0608983231
 21
5138.0123972032
 31
0.0
  0
LINE
  5
1BD
330
1F
100
AcDbEntity
  8
0
  6
Continuous
 62
     7
100
AcDbLine
 10
6953.2479557126
 20
5120.1994545927
 30
0.0
 11
6954.0849231483
 21
5119.362487157
 31
0.0
  0
LINE
  5
1BE
330
1F
100
AcDbEntity
  8
0
  6
Continuous
 62
     7
100
AcDbLine
 10
6955.8008403253
 20
5137.6419043446
 30
0.0
 11
6955.3212795222
 21
5137.6419043446
 31
0.0
  0
LINE
  5
1BF
330
1F
100
AcDbEntity
  8
0
  6
Continuous
 62
     7
100
AcDbLine
 10
6957.7546864792
 20
5137.6419043446
 30
0.0
 11
6957.275125676
 21
5137.6419043446
 31
0.0
  0
LINE
  5
1C0
330
1F
100
AcDbEntity
  8
0
  6
Continuous
 62
     7
100
AcDbLine
 10
6959.708532633
 20
5137.6419043446
 30
0.0
 11
6959.2289718299
 21
5137.6419043446
 31
0.0
  0
LINE
  5
1C1
330
1F
100
AcDbEntity
  8
0
  6
Continuous
 62
     7
100
AcDbLine
 10
6961.6623787869
 20
5137.6419043446
 30
0.0
 11
6961.1828179837
 21
5137.6419043446
 31
0.0
  0
LINE
  5
1C2
330
1F
100
AcDbEntity
  8
0
  6
Continuous
 62
     7
100
AcDbLine
 10
6963.6162249407
 20
5137.6419043446
 30
0.0
 11
6963.1366641376
 21
5137.6419043446
 31
0.0
  0
LINE
  5
1C3
330
1F
100
AcDbEntity
  8
0
  6
Continuous
 62
     7
100
AcDbLine
 10
6957.7546864792
 20
5137.6419043446
 30
0.0
 11
6957.275125676
 21
5137.6419043446
 31
0.0
  0
LINE
  5
1C4
330
1F
100
AcDbEntity
  8
0
  6
Continuous
 62
     7
100
AcDbLine
 10
6959.708532633
 20
5137.6419043446
 30
0.0
 11
6959.2289718299
 21
5137.6419043446
 31
0.0
  0
LINE
  5
1C5
330
1F
100
AcDbEntity
  8
0
  6
Continuous
 62
     7
100
AcDbLine
 10
6961.6623787869
 20
5137.6419043446
 30
0.0
 11
6961.1828179837
 21
5137.6419043446
 31
0.0
  0
LINE
  5
1C6
330
1F
100
AcDbEntity
  8
0
  6
Continuous
 62
     7
100
AcDbLine
 10
6963.6162249407
 20
5137.6419043446
 30
0.0
 11
6963.1366641376
 21
5137.6419043446
 31
0.0
  0
LINE
  5
1C7
330
1F
100
AcDbEntity
  8
0
  6
Continuous
 62
     7
100
AcDbLine
 10
6956.2893018638
 20
5119.7570048408
 30
0.0
 11
6956.768863489
 21
5119.7570048408
 31
0.0
  0
LINE
  5
1C8
330
1F
100
AcDbEntity
  8
0
  6
Continuous
 62
     7
100
AcDbLine
 10
6958.2431480176
 20
5119.7570048408
 30
0.0
 11
6958.7227096429
 21
5119.7570048408
 31
0.0
  0
LINE
  5
1C9
330
1F
100
AcDbEntity
  8
0
  6
Continuous
 62
     7
100
AcDbLine
 10
6960.1969941715
 20
5119.7570048408
 30
0.0
 11
6960.6765557967
 21
5119.7570048408
 31
0.0
  0
LINE
  5
1CA
330
1F
100
AcDbEntity
  8
0
  6
Continuous
 62
     7
100
AcDbLine
 10
6962.1508403253
 20
5119.7570048408
 30
0.0
 11
6962.6304019505
 21
5119.7570048408
 31
0.0
  0
LINE
  5
1CB
330
1F
100
AcDbEntity
  8
0
  6
Continuous
 62
     7
100
AcDbLine
 10
6954.3354557099
 20
5119.7570048408
 30
0.0
 11
6954.8150173352
 21
5119.7570048408
 31
0.0
  0
LINE
  5
1CC
330
1F
100
AcDbEntity
  8
0
  6
Continuous
 62
     7
100
AcDbLine
 10
6955.8008403253
 20
5137.6419043446
 30
0.0
 11
6955.3212795222
 21
5137.6419043446
 31
0.0
  0
LINE
  5
1CD
330
1F
100
AcDbEntity
  8
0
  6
Continuous
 62
     7
100
AcDbLine
 10
7045.6032005325
 20
5397.8726726951
 30
0.0
 11
7076.2474838444
 21
5372.1590658704
 31
0.0
  0
LINE
  5
1CE
330
1F
100
AcDbEntity
  8
0
  6
Continuous
 62
     7
100
AcDbLine
 10
7101.3244829589
 20
5387.6683692637
 30
0.0
 11
7045.6032005325
 21
5434.4240767964
 31
0.0
  0
LINE
  5
1CF
330
1F
100
AcDbEntity
  8
0
  6
Continuous
 62
     7
100
AcDbLine
 10
7076.2474838444
 20
5372.1590658704
 30
0.0
 11
7077.9256831068
 21
5371.7057026766
 31
0.0
  0
LINE
  5
1D0
330
1F
100
AcDbEntity
  8
0
  6
Continuous
 62
     7
100
AcDbLine
 10
7101.3244829589
 20
5385.2150060699
 30
0.0
 11
7101.3244829589
 21
5387.6683692637
 31
0.0
  0
LINE
  5
1D1
330
1F
100
AcDbEntity
  8
0
  6
Continuous
 62
     7
100
AcDbLine
 10
7055.0032005325
 20
5325.3994545927
 30
0.0
 11
7055.0032005325
 21
5326.1418268476
 31
0.0
  0
LINE
  5
1D2
330
1F
100
AcDbEntity
  8
0
  6
Continuous
 62
     7
100
AcDbLine
 10
7055.0032005325
 20
5311.2570823378
 30
0.0
 11
7055.0032005325
 21
5314.3994545927
 31
0.0
  0
LINE
  5
1D3
330
1F
100
AcDbEntity
  8
0
  6
Continuous
 62
     7
100
AcDbLine
 10
7045.6032005325
 20
5298.6994545927
 30
0.0
 11
7047.6032005325
 21
5298.6994545927
 31
0.0
  0
LINE
  5
1D4
330
1F
100
AcDbEntity
  8
0
  6
Continuous
 62
     7
100
AcDbLine
 10
7047.6032005325
 20
5338.6994545927
 30
0.0
 11
7045.6032005325
 21
5338.6994545927
 31
0.0
  0
LINE
  5
1D5
330
1F
100
AcDbEntity
  8
0
  6
Continuous
 62
     7
100
AcDbLine
 10
7098.1466811171
 20
5383.3803013211
 30
0.0
 11
7098.2527102252
 21
5383.4415172552
 31
0.0
  0
LINE
  5
1D6
330
1F
100
AcDbEntity
  8
0
  6
Continuous
 62
     7
100
AcDbLine
 10
7082.2312402552
 20
5374.1915172552
 30
0.0
 11
7082.3372693634
 21
5374.2527331893
 31
0.0
  0
LINE
  5
1D7
330
1F
100
AcDbEntity
  8
0
  6
Continuous
 62
     7
100
AcDbLine
 10
7053.8828609
 20
5324.9994545927
 30
0.0
 11
7053.198685004
 21
5324.9994545927
 31
0.0
  0
LINE
  5
1D8
330
1F
100
AcDbEntity
  8
0
  6
Continuous
 62
     7
100
AcDbLine
 10
7053.8828609
 20
5314.3994545927
 30
0.0
 11
7055.0032005325
 21
5314.3994545927
 31
0.0
  0
LINE
  5
1D9
330
1F
100
AcDbEntity
  8
0
  6
Continuous
 62
     7
100
AcDbLine
 10
7053.8828609
 20
5324.9994545927
 30
0.0
 11
7055.0032005325
 21
5324.9994545927
 31
0.0
  0
LINE
  5
1DA
330
1F
100
AcDbEntity
  8
0
  6
Continuous
 62
     7
100
AcDbLine
 10
6970.6032005325
 20
4953.6994545927
 30
0.0
 11
7324.9803662356
 21
4953.6994545927
 31
0.0
  0
LINE
  5
1DB
330
1F
100
AcDbEntity
  8
0
  6
Continuous
 62
     7
100
AcDbLine
 10
6970.6032005325
 20
5473.6994545927
 30
0.0
 11
6970.6032005325
 21
4953.6994545927
 31
0.0
  0
LINE
  5
1DC
330
1F
100
AcDbEntity
  8
0
  6
Continuous
 62
     7
100
AcDbLine
 10
7040.6032005325
 20
5473.6994545927
 30
0.0
 11
6970.6032005325
 21
5473.6994545927
 31
0.0
  0
LINE
  5
1DD
330
1F
100
AcDbEntity
  8
0
  6
Continuous
 62
     7
100
AcDbLine
 10
7040.6032005325
 20
5253.6994545927
 30
0.0
 11
7040.6032005325
 21
5473.6994545927
 31
0.0
  0
LINE
  5
1DE
330
1F
100
AcDbEntity
  8
0
  6
Continuous
 62
     7
100
AcDbLine
 10
7324.9803662356
 20
5243.6994545927
 30
0.0
 11
7050.6032005325
 21
5243.6994545927
 31
0.0
  0
LINE
  5
1DF
330
1F
100
AcDbEntity
  8
0
  6
Continuous
 62
     7
100
AcDbLine
 10
7324.9803662356
 20
5243.6994545927
 30
0.0
 11
7324.9803662356
 21
4953.6994545927
 31
0.0
  0
LINE
  5
1E0
330
1F
100
AcDbEntity
  8
0
  6
Continuous
 62
     7
100
AcDbLine
 10
6970.6032005325
 20
5478.6994545927
 30
0.0
 11
7040.6032005325
 21
5478.6994545927
 31
0.0
  0
LINE
  5
1E1
330
1F
100
AcDbEntity
  8
0
  6
Continuous
 62
     7
100
AcDbLine
 10
7040.6032005325
 20
5478.6994545927
 30
0.0
 11
7040.6032005325
 21
5473.6994545927
 31
0.0
  0
LINE
  5
1E2
330
1F
100
AcDbEntity
  8
0
  6
Continuous
 62
     7
100
AcDbLine
 10
6970.6032005325
 20
5478.6994545927
 30
0.0
 11
6970.6032005325
 21
5473.6994545927
 31
0.0
  0
LINE
  5
1E3
330
1F
100
AcDbEntity
  8
0
  6
Continuous
 62
     7
100
AcDbLine
 10
7324.9803662356
 20
4948.6994545927
 30
0.0
 11
6970.6032005325
 21
4948.6994545927
 31
0.0
  0
LINE
  5
1E4
330
1F
100
AcDbEntity
  8
0
  6
Continuous
 62
     7
100
AcDbLine
 10
6970.6032005325
 20
4948.6994545927
 30
0.0
 11
6970.6032005325
 21
4953.6994545927
 31
0.0
  0
LINE
  5
1E5
330
1F
100
AcDbEntity
  8
0
  6
Continuous
 62
     7
100
AcDbLine
 10
7324.9803662356
 20
4948.6994545927
 30
0.0
 11
7324.9803662356
 21
4953.6994545927
 31
0.0
  0
LINE
  5
1E6
330
1F
100
AcDbEntity
  8
0
  6
Continuous
 62
     7
100
AcDbLine
 10
6965.6032005325
 20
4953.6994545927
 30
0.0
 11
6965.6032005325
 21
5473.6994545927
 31
0.0
  0
LINE
  5
1E7
330
1F
100
AcDbEntity
  8
0
  6
Continuous
 62
     7
100
AcDbLine
 10
6965.6032005325
 20
5473.6994545927
 30
0.0
 11
6970.6032005325
 21
5473.6994545927
 31
0.0
  0
LINE
  5
1E8
330
1F
100
AcDbEntity
  8
0
  6
Continuous
 62
     7
100
AcDbLine
 10
6965.6032005325
 20
4953.6994545927
 30
0.0
 11
6970.6032005325
 21
4953.6994545927
 31
0.0
  0
LINE
  5
1E9
330
1F
100
AcDbEntity
  8
0
  6
Continuous
 62
     7
100
AcDbLine
 10
7050.6032005325
 20
5248.6994545927
 30
0.0
 11
7050.6032005325
 21
5243.6994545927
 31
0.0
  0
LINE
  5
1EA
330
1F
100
AcDbEntity
  8
0
  6
Continuous
 62
     7
100
AcDbLine
 10
7045.6032005325
 20
5253.6994545927
 30
0.0
 11
7040.6032005325
 21
5253.6994545927
 31
0.0
  0
LINE
  5
1EB
330
1F
100
AcDbEntity
  8
0
  6
Continuous
 62
     7
100
AcDbLine
 10
7045.6032005325
 20
5473.6994545927
 30
0.0
 11
7045.6032005325
 21
5253.6994545927
 31
0.0
  0
LINE
  5
1EC
330
1F
100
AcDbEntity
  8
0
  6
Continuous
 62
     7
100
AcDbLine
 10
7045.6032005325
 20
5473.6994545927
 30
0.0
 11
7040.6032005325
 21
5473.6994545927
 31
0.0
  0
LINE
  5
1ED
330
1F
100
AcDbEntity
  8
0
  6
Continuous
 62
     7
100
AcDbLine
 10
7050.6032005325
 20
5248.6994545927
 30
0.0
 11
7324.9803662356
 21
5248.6994545927
 31
0.0
  0
LINE
  5
1EE
330
1F
100
AcDbEntity
  8
0
  6
Continuous
 62
     7
100
AcDbLine
 10
7324.9803662356
 20
5248.6994545927
 30
0.0
 11
7324.9803662356
 21
5243.6994545927
 31
0.0
  0
LINE
  5
1EF
330
1F
100
AcDbEntity
  8
0
  6
Continuous
 62
     7
100
AcDbLine
 10
7324.9803662356
 20
5248.6994545927
 30
0.0
 11
7373.1894369621
 21
5248.6994545927
 31
0.0
  0
LINE
  5
1F0
330
1F
100
AcDbEntity
  8
0
  6
Continuous
 62
     7
100
AcDbLine
 10
7376.4033750105
 20
5243.6994545927
 30
0.0
 11
7376.3416200921
 21
5244.6749062028
 31
0.0
  0
LINE
  5
1F1
330
1F
100
AcDbEntity
  8
0
  6
Continuous
 62
     7
100
AcDbLine
 10
7376.3416200921
 20
5244.6749062028
 30
0.0
 11
7376.1587285438
 21
5245.6128717545
 31
0.0
  0
LINE
  5
1F2
330
1F
100
AcDbEntity
  8
0
  6
Continuous
 62
     7
100
AcDbLine
 10
7376.1587285438
 20
5245.6128717545
 30
0.0
 11
7375.8617287852
 21
5246.4773057578
 31
0.0
  0
LINE
  5
1F3
330
1F
100
AcDbEntity
  8
0
  6
Continuous
 62
     7
100
AcDbLine
 10
7375.8617287852
 20
5246.4773057578
 30
0.0
 11
7375.4620343504
 21
5247.2349884987
 31
0.0
  0
LINE
  5
1F4
330
1F
100
AcDbEntity
  8
0
  6
Continuous
 62
     7
100
AcDbLine
 10
7375.4620343504
 20
5247.2349884987
 30
0.0
 11
7374.9750052726
 21
5247.8568026542
 31
0.0
  0
LINE
  5
1F5
330
1F
100
AcDbEntity
  8
0
  6
Continuous
 62
     7
100
AcDbLine
 10
7374.9750052726
 20
5247.8568026542
 30
0.0
 11
7374.4193578059
 21
5248.3188522553
 31
0.0
  0
LINE
  5
1F6
330
1F
100
AcDbEntity
  8
0
  6
Continuous
 62
     7
100
AcDbLine
 10
7374.4193578059
 20
5248.3188522553
 30
0.0
 11
7373.8164451709
 21
5248.6033809947
 31
0.0
  0
LINE
  5
1F7
330
1F
100
AcDbEntity
  8
0
  6
Continuous
 62
     7
100
AcDbLine
 10
7373.8164451709
 20
5248.6033809947
 30
0.0
 11
7373.1894369621
 21
5248.6994545927
 31
0.0
  0
LINE
  5
1F8
330
1F
100
AcDbEntity
  8
0
  6
Continuous
 62
     7
100
AcDbLine
 10
7376.4033750105
 20
5243.6994545927
 30
0.0
 11
7324.9803662356
 21
5243.6994545927
 31
0.0
  0
LINE
  5
1F9
330
1F
100
AcDbEntity
  8
0
  6
Continuous
 62
     7
100
AcDbLine
 10
7373.1894369621
 20
4948.6994545927
 30
0.0
 11
7324.9803662356
 21
4948.6994545927
 31
0.0
  0
LINE
  5
1FA
330
1F
100
AcDbEntity
  8
0
  6
Continuous
 62
     7
100
AcDbLine
 10
7324.9803662356
 20
4953.6994545927
 30
0.0
 11
7376.4033750105
 21
4953.6994545927
 31
0.0
  0
LINE
  5
1FB
330
1F
100
AcDbEntity
  8
0
  6
Continuous
 62
     7
100
AcDbLine
 10
7373.1894369621
 20
4948.6994545927
 30
0.0
 11
7373.8164451709
 21
4948.7955281907
 31
0.0
  0
LINE
  5
1FC
330
1F
100
AcDbEntity
  8
0
  6
Continuous
 62
     7
100
AcDbLine
 10
7373.8164451709
 20
4948.7955281907
 30
0.0
 11
7374.4193578059
 21
4949.0800569302
 31
0.0
  0
LINE
  5
1FD
330
1F
100
AcDbEntity
  8
0
  6
Continuous
 62
     7
100
AcDbLine
 10
7374.4193578059
 20
4949.0800569302
 30
0.0
 11
7374.9750052726
 21
4949.5421065312
 31
0.0
  0
LINE
  5
1FE
330
1F
100
AcDbEntity
  8
0
  6
Continuous
 62
     7
100
AcDbLine
 10
7374.9750052726
 20
4949.5421065312
 30
0.0
 11
7375.4620343504
 21
4950.1639206868
 31
0.0
  0
LINE
  5
1FF
330
1F
100
AcDbEntity
  8
0
  6
Continuous
 62
     7
100
AcDbLine
 10
7375.4620343504
 20
4950.1639206868
 30
0.0
 11
7375.8617287852
 21
4950.9216034276
 31
0.0
  0
LINE
  5
200
330
1F
100
AcDbEntity
  8
0
  6
Continuous
 62
     7
100
AcDbLine
 10
7375.8617287852
 20
4950.9216034276
 30
0.0
 11
7376.1587285438
 21
4951.7860374309
 31
0.0
  0
LINE
  5
201
330
1F
100
AcDbEntity
  8
0
  6
Continuous
 62
     7
100
AcDbLine
 10
7376.1587285438
 20
4951.7860374309
 30
0.0
 11
7376.3416200921
 21
4952.7240029826
 31
0.0
  0
LINE
  5
202
330
1F
100
AcDbEntity
  8
0
  6
Continuous
 62
     7
100
AcDbLine
 10
7376.3416200921
 20
4952.7240029826
 30
0.0
 11
7376.4033750105
 21
4953.6994545927
 31
0.0
  0
LINE
  5
203
330
1F
100
AcDbEntity
  8
0
  6
Continuous
 62
     7
100
AcDbLine
 10
7376.4033750105
 20
5243.6994545927
 30
0.0
 11
7376.4033750105
 21
4953.6994545927
 31
0.0
  0
LINE
  5
204
330
1F
100
AcDbEntity
  8
0
  6
Continuous
 62
     7
100
AcDbLine
 10
7422.0310766294
 20
5243.6994545927
 30
0.0
 11
7376.4033750105
 21
5243.6994545927
 31
0.0
  0
LINE
  5
205
330
1F
100
AcDbEntity
  8
0
  6
Continuous
 62
     7
100
AcDbLine
 10
7422.0310766294
 20
5243.6994545927
 30
0.0
 11
7421.969321711
 21
5244.6749062028
 31
0.0
  0
LINE
  5
206
330
1F
100
AcDbEntity
  8
0
  6
Continuous
 62
     7
100
AcDbLine
 10
7421.969321711
 20
5244.6749062028
 30
0.0
 11
7421.7864301627
 21
5245.6128717545
 31
0.0
  0
LINE
  5
207
330
1F
100
AcDbEntity
  8
0
  6
Continuous
 62
     7
100
AcDbLine
 10
7421.7864301627
 20
5245.6128717545
 30
0.0
 11
7421.4894304041
 21
5246.4773057578
 31
0.0
  0
LINE
  5
208
330
1F
100
AcDbEntity
  8
0
  6
Continuous
 62
     7
100
AcDbLine
 10
7421.4894304041
 20
5246.4773057578
 30
0.0
 11
7421.0897359693
 21
5247.2349884987
 31
0.0
  0
LINE
  5
209
330
1F
100
AcDbEntity
  8
0
  6
Continuous
 62
     7
100
AcDbLine
 10
7421.0897359693
 20
5247.2349884987
 30
0.0
 11
7420.6027068914
 21
5247.8568026542
 31
0.0
  0
LINE
  5
20A
330
1F
100
AcDbEntity
  8
0
  6
Continuous
 62
     7
100
AcDbLine
 10
7420.6027068914
 20
5247.8568026542
 30
0.0
 11
7420.0470594248
 21
5248.3188522553
 31
0.0
  0
LINE
  5
20B
330
1F
100
AcDbEntity
  8
0
  6
Continuous
 62
     7
100
AcDbLine
 10
7420.0470594248
 20
5248.3188522553
 30
0.0
 11
7419.4441467898
 21
5248.6033809947
 31
0.0
  0
LINE
  5
20C
330
1F
100
AcDbEntity
  8
0
  6
Continuous
 62
     7
100
AcDbLine
 10
7419.4441467898
 20
5248.6033809947
 30
0.0
 11
7418.817138581
 21
5248.6994545927
 31
0.0
  0
LINE
  5
20D
330
1F
100
AcDbEntity
  8
0
  6
Continuous
 62
     7
100
AcDbLine
 10
7373.1894369621
 20
5248.6994545927
 30
0.0
 11
7418.817138581
 21
5248.6994545927
 31
0.0
  0
LINE
  5
20E
330
1F
100
AcDbEntity
  8
0
  6
Continuous
 62
     7
100
AcDbLine
 10
7376.4033750105
 20
4953.6994545927
 30
0.0
 11
7422.0310766294
 21
4953.6994545927
 31
0.0
  0
LINE
  5
20F
330
1F
100
AcDbEntity
  8
0
  6
Continuous
 62
     7
100
AcDbLine
 10
7418.817138581
 20
4948.6994545927
 30
0.0
 11
7419.4441467898
 21
4948.7955281907
 31
0.0
  0
LINE
  5
210
330
1F
100
AcDbEntity
  8
0
  6
Continuous
 62
     7
100
AcDbLine
 10
7419.4441467898
 20
4948.7955281907
 30
0.0
 11
7420.0470594248
 21
4949.0800569302
 31
0.0
  0
LINE
  5
211
330
1F
100
AcDbEntity
  8
0
  6
Continuous
 62
     7
100
AcDbLine
 10
7420.0470594248
 20
4949.0800569302
 30
0.0
 11
7420.6027068914
 21
4949.5421065312
 31
0.0
  0
LINE
  5
212
330
1F
100
AcDbEntity
  8
0
  6
Continuous
 62
     7
100
AcDbLine
 10
7420.6027068914
 20
4949.5421065312
 30
0.0
 11
7421.0897359693
 21
4950.1639206868
 31
0.0
  0
LINE
  5
213
330
1F
100
AcDbEntity
  8
0
  6
Continuous
 62
     7
100
AcDbLine
 10
7421.0897359693
 20
4950.1639206868
 30
0.0
 11
7421.4894304041
 21
4950.9216034276
 31
0.0
  0
LINE
  5
214
330
1F
100
AcDbEntity
  8
0
  6
Continuous
 62
     7
100
AcDbLine
 10
7421.4894304041
 20
4950.9216034276
 30
0.0
 11
7421.7864301627
 21
4951.7860374309
 31
0.0
  0
LINE
  5
215
330
1F
100
AcDbEntity
  8
0
  6
Continuous
 62
     7
100
AcDbLine
 10
7421.7864301627
 20
4951.7860374309
 30
0.0
 11
7421.969321711
 21
4952.7240029826
 31
0.0
  0
LINE
  5
216
330
1F
100
AcDbEntity
  8
0
  6
Continuous
 62
     7
100
AcDbLine
 10
7421.969321711
 20
4952.7240029826
 30
0.0
 11
7422.0310766294
 21
4953.6994545927
 31
0.0
  0
LINE
  5
217
330
1F
100
AcDbEntity
  8
0
  6
Continuous
 62
     7
100
AcDbLine
 10
7418.817138581
 20
4948.6994545927
 30
0.0
 11
7373.1894369621
 21
4948.6994545927
 31
0.0
  0
LINE
  5
218
330
1F
100
AcDbEntity
  8
0
  6
Continuous
 62
     7
100
AcDbLine
 10
7422.0310766294
 20
4953.6994545927
 30
0.0
 11
7422.0310766294
 21
5243.6994545927
 31
0.0
  0
LINE
  5
219
330
1F
100
AcDbEntity
  8
0
  6
Continuous
 62
     7
100
AcDbLine
 10
7422.0310766294
 20
4953.6994545927
 30
0.0
 11
7425.6032005325
 21
4953.6994545927
 31
0.0
  0
LINE
  5
21A
330
1F
100
AcDbEntity
  8
0
  6
Continuous
 62
     7
100
AcDbLine
 10
7420.6032005325
 20
4948.6994545927
 30
0.0
 11
7418.817138581
 21
4948.6994545927
 31
0.0
  0
LINE
  5
21B
330
1F
100
AcDbEntity
  8
0
  6
Continuous
 62
     7
100
AcDbLine
 10
7425.6032005325
 20
5243.6994545927
 30
0.0
 11
7422.0310766294
 21
5243.6994545927
 31
0.0
  0
LINE
  5
21C
330
1F
100
AcDbEntity
  8
0
  6
Continuous
 62
     7
100
AcDbLine
 10
7425.6032005325
 20
5243.6994545927
 30
0.0
 11
7425.6032005325
 21
4953.6994545927
 31
0.0
  0
LINE
  5
21D
330
1F
100
AcDbEntity
  8
0
  6
Continuous
 62
     7
100
AcDbLine
 10
7418.817138581
 20
5248.6994545927
 30
0.0
 11
7420.6032005325
 21
5248.6994545927
 31
0.0
  0
LINE
  5
21E
330
1F
100
AcDbEntity
  8
0
  6
Continuous
 62
     7
100
AcDbLine
 10
6954.7479557126
 20
5138.5865613494
 30
0.0
 11
6954.7187022425
 21
5138.5903404709
 31
0.0
  0
LINE
  5
21F
330
1F
100
AcDbEntity
  8
0
  6
Continuous
 62
     7
100
AcDbLine
 10
6954.0608983231
 20
5138.0123972032
 30
0.0
 11
6953.8469941715
 21
5137.6419043446
 31
0.0
  0
LINE
  5
220
330
1F
100
AcDbEntity
  8
0
  6
Continuous
 62
     7
100
AcDbLine
 10
6954.7479557126
 20
5138.5865613494
 30
0.0
 11
6954.7479557126
 21
5134.6459914655
 31
0.0
  0
LINE
  5
221
330
1F
100
AcDbEntity
  8
0
  6
Continuous
 62
     7
100
AcDbLine
 10
6964.4569575477
 20
5136.06991176
 30
0.0
 11
6962.7473420587
 21
5136.0698903555
 31
0.0
  0
LINE
  5
222
330
1F
100
AcDbEntity
  8
0
  6
Continuous
 62
     7
100
AcDbLine
 10
6965.2479557126
 20
5118.4994545927
 30
0.0
 11
6965.2479557126
 21
5138.8994545927
 31
0.0
  0
LINE
  5
223
330
1F
100
AcDbEntity
  8
0
  6
Continuous
 62
     7
100
AcDbLine
 10
6954.0608983231
 20
5138.0123972032
 30
0.0
 11
6953.6904054645
 21
5137.6419043446
 31
0.0
  0
LINE
  5
224
330
1F
100
AcDbEntity
  8
0
  6
Continuous
 62
     7
100
AcDbLine
 10
6953.2479557126
 20
5128.6994545927
 30
0.0
 11
6953.2479557126
 21
5137.1994545927
 31
0.0
  0
LINE
  5
225
330
1F
100
AcDbEntity
  8
0
  6
Continuous
 62
     7
100
AcDbLine
 10
6953.2479557126
 20
5120.1994545927
 30
0.0
 11
6953.2479557126
 21
5128.6994545927
 31
0.0
  0
LINE
  5
226
330
1F
100
AcDbEntity
  8
0
  6
Continuous
 62
     7
100
AcDbLine
 10
6953.8469941715
 20
5137.6419043446
 30
0.0
 11
6953.6904054645
 21
5137.6419043446
 31
0.0
  0
LINE
  5
227
330
1F
100
AcDbEntity
  8
0
  6
Continuous
 62
     7
100
AcDbLine
 10
7053.8979791015
 20
5314.3994545927
 30
0.0
 11
7055.0032005325
 21
5314.3994545927
 31
0.0
  0
LINE
  5
228
330
1F
100
AcDbEntity
  8
0
  6
Continuous
 62
     7
100
AcDbLine
 10
7055.0032005325
 20
5325.3994545927
 30
0.0
 11
7053.8979791015
 21
5325.3994545927
 31
0.0
  0
LINE
  5
229
330
1F
100
AcDbEntity
  8
0
  6
Continuous
 62
     7
100
AcDbLine
 10
7047.6032005325
 20
5338.6994545927
 30
0.0
 11
7047.6032005325
 21
5327.0636640592
 31
0.0
  0
LINE
  5
22A
330
1F
100
AcDbEntity
  8
0
  6
Continuous
 62
     7
100
AcDbLine
 10
7047.6032005325
 20
5310.3352451262
 30
0.0
 11
7047.6032005325
 21
5298.6994545927
 31
0.0
  0
LINE
  5
22B
330
1F
100
AcDbEntity
  8
0
  6
Continuous
 62
     7
100
AcDbLine
 10
6173.6195262759
 20
4517.8678058055
 30
0.0
 11
6172.5187553361
 21
4518.9685767452
 31
0.0
  0
LINE
  5
22C
330
1F
100
AcDbEntity
  8
0
  6
Continuous
 62
     7
100
AcDbLine
 10
6155.5187553361
 20
4518.9685767452
 30
0.0
 11
6155.0413820326
 21
4518.4912034417
 31
0.0
  0
LINE
  5
22D
330
1F
100
AcDbEntity
  8
0
  6
Continuous
 62
     7
100
AcDbLine
 10
6153.8187553361
 20
4506.9685767452
 30
0.0
 11
6153.8187553361
 21
4506.6133319253
 31
0.0
  0
LINE
  5
22E
330
1F
100
AcDbEntity
  8
0
  6
Continuous
 62
     7
100
AcDbLine
 10
6174.2187553361
 20
4506.6133319253
 30
0.0
 11
6174.2187553361
 21
4506.9685767452
 31
0.0
  0
LINE
  5
22F
330
1F
100
AcDbEntity
  8
0
  6
Continuous
 62
     7
100
AcDbLine
 10
6154.0187553361
 20
4509.4548724074
 30
0.0
 11
6154.0187553361
 21
4506.9685767452
 31
0.0
  0
LINE
  5
230
330
1F
100
AcDbEntity
  8
0
  6
Continuous
 62
     7
100
AcDbLine
 10
6154.0187553361
 20
4511.4087185612
 30
0.0
 11
6154.0187553361
 21
4511.1648115243
 31
0.0
  0
LINE
  5
231
330
1F
100
AcDbEntity
  8
0
  6
Continuous
 62
     7
100
AcDbLine
 10
6154.0187553361
 20
4513.362564715
 30
0.0
 11
6154.0187553361
 21
4513.1186576782
 31
0.0
  0
LINE
  5
232
330
1F
100
AcDbEntity
  8
0
  6
Continuous
 62
     7
100
AcDbLine
 10
6154.0187553361
 20
4515.3164108689
 30
0.0
 11
6154.0187553361
 21
4515.072503832
 31
0.0
  0
LINE
  5
233
330
1F
100
AcDbEntity
  8
0
  6
Continuous
 62
     7
100
AcDbLine
 10
6154.0187553361
 20
4517.2702570227
 30
0.0
 11
6154.0187553361
 21
4517.0263499859
 31
0.0
  0
LINE
  5
234
330
1F
100
AcDbEntity
  8
0
  6
Continuous
 62
     7
100
AcDbLine
 10
6174.0187553361
 20
4516.0490652835
 30
0.0
 11
6174.0187553361
 21
4516.2937381012
 31
0.0
  0
LINE
  5
235
330
1F
100
AcDbEntity
  8
0
  6
Continuous
 62
     7
100
AcDbLine
 10
6174.0187553361
 20
4514.0952191296
 30
0.0
 11
6174.0187553361
 21
4514.3398919474
 31
0.0
  0
LINE
  5
236
330
1F
100
AcDbEntity
  8
0
  6
Continuous
 62
     7
100
AcDbLine
 10
6174.0187553361
 20
4512.1413729758
 30
0.0
 11
6174.0187553361
 21
4512.3860457935
 31
0.0
  0
LINE
  5
237
330
1F
100
AcDbEntity
  8
0
  6
Continuous
 62
     7
100
AcDbLine
 10
6174.0187553361
 20
4510.1875268219
 30
0.0
 11
6174.0187553361
 21
4510.4321996397
 31
0.0
  0
LINE
  5
238
330
1F
100
AcDbEntity
  8
0
  6
Continuous
 62
     7
100
AcDbLine
 10
6174.0187553361
 20
4506.9685767452
 30
0.0
 11
6174.0187553361
 21
4508.4783534859
 31
0.0
  0
LINE
  5
239
330
1F
100
AcDbEntity
  8
0
  6
Continuous
 62
     7
100
AcDbLine
 10
6155.0763055842
 20
4516.4156921325
 30
0.0
 11
6155.0763055842
 21
4515.9368749246
 31
0.0
  0
LINE
  5
23A
330
1F
100
AcDbEntity
  8
0
  6
Continuous
 62
     7
100
AcDbLine
 10
6155.0763055842
 20
4514.4618459787
 30
0.0
 11
6155.0763055842
 21
4513.9830287708
 31
0.0
  0
LINE
  5
23B
330
1F
100
AcDbEntity
  8
0
  6
Continuous
 62
     7
100
AcDbLine
 10
6155.0763055842
 20
4512.5079998248
 30
0.0
 11
6155.0763055842
 21
4512.029182617
 31
0.0
  0
LINE
  5
23C
330
1F
100
AcDbEntity
  8
0
  6
Continuous
 62
     7
100
AcDbLine
 10
6155.0763055842
 20
4510.554153671
 30
0.0
 11
6155.0763055842
 21
4510.0753364631
 31
0.0
  0
LINE
  5
23D
330
1F
100
AcDbEntity
  8
0
  6
Continuous
 62
     7
100
AcDbLine
 10
6172.961205088
 20
4514.9503075171
 30
0.0
 11
6172.961205088
 21
4515.4291196615
 31
0.0
  0
LINE
  5
23E
330
1F
100
AcDbEntity
  8
0
  6
Continuous
 62
     7
100
AcDbLine
 10
6172.961205088
 20
4512.9964613633
 30
0.0
 11
6172.961205088
 21
4513.4752735077
 31
0.0
  0
LINE
  5
23F
330
1F
100
AcDbEntity
  8
0
  6
Continuous
 62
     7
100
AcDbLine
 10
6172.961205088
 20
4511.0426152094
 30
0.0
 11
6172.961205088
 21
4511.5214273538
 31
0.0
  0
LINE
  5
240
330
1F
100
AcDbEntity
  8
0
  6
Continuous
 62
     7
100
AcDbLine
 10
6172.961205088
 20
4509.0887690556
 30
0.0
 11
6172.961205088
 21
4509.5675812
 31
0.0
  0
LINE
  5
241
330
1F
100
AcDbEntity
  8
0
  6
Continuous
 62
     7
100
AcDbLine
 10
6172.961205088
 20
4516.904153671
 30
0.0
 11
6172.961205088
 21
4517.3829658154
 31
0.0
  0
LINE
  5
242
330
1F
100
AcDbEntity
  8
0
  6
Continuous
 62
     7
100
AcDbLine
 10
6155.0763055842
 20
4518.3695382864
 30
0.0
 11
6155.0763055842
 21
4517.8907210785
 31
0.0
  0
LINE
  5
243
330
1F
100
AcDbEntity
  8
0
  6
Continuous
 62
     7
100
AcDbLine
 10
6260.0187553361
 20
4426.6133319253
 30
0.0
 11
6260.0187553361
 21
4383.4305490562
 31
0.0
  0
LINE
  5
244
330
1F
100
AcDbEntity
  8
0
  6
Continuous
 62
     7
100
AcDbLine
 10
6288.0187553361
 20
4383.4305490562
 30
0.0
 11
6288.0187553361
 21
4426.6133319253
 31
0.0
  0
LINE
  5
245
330
1F
100
AcDbEntity
  8
0
  6
Continuous
 62
     7
100
AcDbLine
 10
6029.0187553361
 20
4501.6133319253
 30
0.0
 11
6029.0187553361
 21
4431.6133319253
 31
0.0
  0
LINE
  5
246
330
1F
100
AcDbEntity
  8
0
  6
Continuous
 62
     7
100
AcDbLine
 10
6029.0187553361
 20
4431.6133319253
 30
0.0
 11
6024.0187553361
 21
4431.6133319253
 31
0.0
  0
LINE
  5
247
330
1F
100
AcDbEntity
  8
0
  6
Continuous
 62
     7
100
AcDbLine
 10
6024.0187553361
 20
4431.6133319253
 30
0.0
 11
6024.0187553361
 21
4501.6133319253
 31
0.0
  0
LINE
  5
248
330
1F
100
AcDbEntity
  8
0
  6
Continuous
 62
     7
100
AcDbLine
 10
6029.0187553361
 20
4501.6133319253
 30
0.0
 11
6024.0187553361
 21
4501.6133319253
 31
0.0
  0
LINE
  5
249
330
1F
100
AcDbEntity
  8
0
  6
Continuous
 62
     7
100
AcDbLine
 10
6029.0187553361
 20
4431.6133319253
 30
0.0
 11
6519.0187553361
 21
4431.6133319253
 31
0.0
  0
LINE
  5
24A
330
1F
100
AcDbEntity
  8
0
  6
Continuous
 62
     7
100
AcDbLine
 10
6519.0187553361
 20
4501.6133319253
 30
0.0
 11
6029.0187553361
 21
4501.6133319253
 31
0.0
  0
LINE
  5
24B
330
1F
100
AcDbEntity
  8
0
  6
Continuous
 62
     7
100
AcDbLine
 10
6519.0187553361
 20
4431.6133319253
 30
0.0
 11
6519.0187553361
 21
4501.6133319253
 31
0.0
  0
LINE
  5
24C
330
1F
100
AcDbEntity
  8
0
  6
Continuous
 62
     7
100
AcDbLine
 10
6524.0187553361
 20
4501.6133319253
 30
0.0
 11
6524.0187553361
 21
4431.6133319253
 31
0.0
  0
LINE
  5
24D
330
1F
100
AcDbEntity
  8
0
  6
Continuous
 62
     7
100
AcDbLine
 10
6524.0187553361
 20
4431.6133319253
 30
0.0
 11
6519.0187553361
 21
4431.6133319253
 31
0.0
  0
LINE
  5
24E
330
1F
100
AcDbEntity
  8
0
  6
Continuous
 62
     7
100
AcDbLine
 10
6524.0187553361
 20
4501.6133319253
 30
0.0
 11
6519.0187553361
 21
4501.6133319253
 31
0.0
  0
LINE
  5
24F
330
1F
100
AcDbEntity
  8
0
  6
Continuous
 62
     7
100
AcDbLine
 10
6519.0187553361
 20
4501.6133319253
 30
0.0
 11
6519.0187553361
 21
4506.6133319253
 31
0.0
  0
LINE
  5
250
330
1F
100
AcDbEntity
  8
0
  6
Continuous
 62
     7
100
AcDbLine
 10
6029.0187553361
 20
4501.6133319253
 30
0.0
 11
6029.0187553361
 21
4506.6133319253
 31
0.0
  0
LINE
  5
251
330
1F
100
AcDbEntity
  8
0
  6
Continuous
 62
     7
100
AcDbLine
 10
6029.0187553361
 20
4506.6133319253
 30
0.0
 11
6519.0187553361
 21
4506.6133319253
 31
0.0
  0
LINE
  5
252
330
1F
100
AcDbEntity
  8
0
  6
Continuous
 62
     7
100
AcDbLine
 10
6519.0187553361
 20
4426.6133319253
 30
0.0
 11
6519.0187553361
 21
4431.6133319253
 31
0.0
  0
LINE
  5
253
330
1F
100
AcDbEntity
  8
0
  6
Continuous
 62
     7
100
AcDbLine
 10
6519.0187553361
 20
4426.6133319253
 30
0.0
 11
6029.0187553361
 21
4426.6133319253
 31
0.0
  0
LINE
  5
254
330
1F
100
AcDbEntity
  8
0
  6
Continuous
 62
     7
100
AcDbLine
 10
6029.0187553361
 20
4426.6133319253
 30
0.0
 11
6029.0187553361
 21
4431.6133319253
 31
0.0
  0
LINE
  5
255
330
1F
100
AcDbEntity
  8
0
  6
Continuous
 62
     7
100
AcDbLine
 10
6029.0187553361
 20
4421.6133319253
 30
0.0
 11
6029.0187553361
 21
4426.6133319253
 31
0.0
  0
LINE
  5
256
330
1F
100
AcDbEntity
  8
0
  6
Continuous
 62
     7
100
AcDbLine
 10
6519.0187553361
 20
4421.6133319253
 30
0.0
 11
6519.0187553361
 21
4426.6133319253
 31
0.0
  0
LINE
  5
257
330
1F
100
AcDbEntity
  8
0
  6
Continuous
 62
     7
100
AcDbLine
 10
6029.0187553361
 20
4421.6133319253
 30
0.0
 11
6024.0187553361
 21
4421.6133319253
 31
0.0
  0
LINE
  5
258
330
1F
100
AcDbEntity
  8
0
  6
Continuous
 62
     7
100
AcDbLine
 10
6024.0187553361
 20
4431.6133319253
 30
0.0
 11
6024.0187553361
 21
4421.6133319253
 31
0.0
  0
LINE
  5
259
330
1F
100
AcDbEntity
  8
0
  6
Continuous
 62
     7
100
AcDbLine
 10
6519.0187553361
 20
4421.6133319253
 30
0.0
 11
6524.0187553361
 21
4421.6133319253
 31
0.0
  0
LINE
  5
25A
330
1F
100
AcDbEntity
  8
0
  6
Continuous
 62
     7
100
AcDbLine
 10
6524.0187553361
 20
4421.6133319253
 30
0.0
 11
6524.0187553361
 21
4431.6133319253
 31
0.0
  0
LINE
  5
25B
330
1F
100
AcDbEntity
  8
0
  6
Continuous
 62
     7
100
AcDbLine
 10
6519.0187553361
 20
4147.2361662223
 30
0.0
 11
6519.0187553361
 21
4421.6133319253
 31
0.0
  0
LINE
  5
25C
330
1F
100
AcDbEntity
  8
0
  6
Continuous
 62
     7
100
AcDbLine
 10
6463.1859009701
 20
4053.3993938769
 30
0.0
 11
6501.47208857
 21
4099.0270954958
 31
0.0
  0
LINE
  5
25D
330
1F
100
AcDbEntity
  8
0
  6
Continuous
 62
     7
100
AcDbLine
 10
6088.6818319177
 20
4051.6133319253
 30
0.0
 11
6459.3556787546
 21
4051.6133319253
 31
0.0
  0
LINE
  5
25E
330
1F
100
AcDbEntity
  8
0
  6
Continuous
 62
     7
100
AcDbLine
 10
6046.5654221022
 20
4099.0270954958
 30
0.0
 11
6084.8516097021
 21
4053.3993938769
 31
0.0
  0
LINE
  5
25F
330
1F
100
AcDbEntity
  8
0
  6
Continuous
 62
     7
100
AcDbLine
 10
6029.0187553361
 20
4421.6133319253
 30
0.0
 11
6029.0187553361
 21
4147.2361662223
 31
0.0
  0
LINE
  5
260
330
1F
100
AcDbEntity
  8
0
  6
Continuous
 62
     7
100
AcDbLine
 10
6409.1878565084
 20
4365.2472305769
 30
0.0
 11
6409.1878565084
 21
4406.6133319253
 31
0.0
  0
LINE
  5
261
330
1F
100
AcDbEntity
  8
0
  6
Continuous
 62
     7
100
AcDbLine
 10
6408.3299921321
 20
4365.2472305769
 30
0.0
 11
6409.1878565084
 21
4365.2472305769
 31
0.0
  0
LINE
  5
262
330
1F
100
AcDbEntity
  8
0
  6
Continuous
 62
     7
100
AcDbLine
 10
6408.3299921321
 20
4406.6133319253
 30
0.0
 11
6408.3299921321
 21
4365.2472305769
 31
0.0
  0
LINE
  5
263
330
1F
100
AcDbEntity
  8
0
  6
Continuous
 62
     7
100
AcDbLine
 10
6031.9476875242
 20
4147.2361662223
 30
0.0
 11
6031.9476875242
 21
4406.6133319253
 31
0.0
  0
LINE
  5
264
330
1F
100
AcDbEntity
  8
0
  6
Continuous
 62
     7
100
AcDbLine
 10
6084.0979340794
 20
4058.8541991002
 30
0.0
 11
6048.8091143292
 21
4100.9097768159
 31
0.0
  0
LINE
  5
265
330
1F
100
AcDbEntity
  8
0
  6
Continuous
 62
     7
100
AcDbLine
 10
6454.692602173
 20
4054.5422641134
 30
0.0
 11
6093.3449084992
 21
4054.5422641134
 31
0.0
  0
LINE
  5
266
330
1F
100
AcDbEntity
  8
0
  6
Continuous
 62
     7
100
AcDbLine
 10
6499.228396343
 20
4100.9097768159
 30
0.0
 11
6463.9395765928
 21
4058.8541991002
 31
0.0
  0
LINE
  5
267
330
1F
100
AcDbEntity
  8
0
  6
Continuous
 62
     7
100
AcDbLine
 10
6516.089823148
 20
4323.176162765
 30
0.0
 11
6516.089823148
 21
4147.2361662223
 31
0.0
  0
LINE
  5
268
330
1F
100
AcDbEntity
  8
0
  6
Continuous
 62
     7
100
AcDbLine
 10
6438.3299921321
 20
4335.2472305769
 30
0.0
 11
6504.0187553361
 21
4335.2472305769
 31
0.0
  0
LINE
  5
269
330
1F
100
AcDbEntity
  8
0
  6
Continuous
 62
     7
100
AcDbLine
 10
6438.3299921321
 20
4336.1050949532
 30
0.0
 11
6438.3299921321
 21
4335.2472305769
 31
0.0
  0
LINE
  5
26A
330
1F
100
AcDbEntity
  8
0
  6
Continuous
 62
     7
100
AcDbLine
 10
6504.0187553361
 20
4336.1050949532
 30
0.0
 11
6438.3299921321
 21
4336.1050949532
 31
0.0
  0
LINE
  5
26B
330
1F
100
AcDbEntity
  8
0
  6
Continuous
 62
     7
100
AcDbLine
 10
6516.089823148
 20
4406.6133319253
 30
0.0
 11
6516.089823148
 21
4348.176162765
 31
0.0
  0
LINE
  5
26C
330
1F
100
AcDbEntity
  8
0
  6
Continuous
 62
     7
100
AcDbLine
 10
6421.2589243202
 20
4418.6843997372
 30
0.0
 11
6504.0187553361
 21
4418.6843997372
 31
0.0
  0
LINE
  5
26D
330
1F
100
AcDbEntity
  8
0
  6
Continuous
 62
     7
100
AcDbLine
 10
6409.1878565084
 20
4406.6133319253
 30
0.0
 11
6412.7233904143
 21
4406.6133319253
 31
0.0
  0
LINE
  5
26E
330
1F
100
AcDbEntity
  8
0
  6
Continuous
 62
     7
100
AcDbLine
 10
6412.7233904143
 20
4406.6133319253
 30
0.0
 11
6412.7233904143
 21
4363.176162765
 31
0.0
  0
LINE
  5
26F
330
1F
100
AcDbEntity
  8
0
  6
Continuous
 62
     7
100
AcDbLine
 10
6404.7944582262
 20
4363.176162765
 30
0.0
 11
6404.7944582262
 21
4406.6133319253
 31
0.0
  0
LINE
  5
270
330
1F
100
AcDbEntity
  8
0
  6
Continuous
 62
     7
100
AcDbLine
 10
6408.3299921321
 20
4406.6133319253
 30
0.0
 11
6404.7944582262
 21
4406.6133319253
 31
0.0
  0
LINE
  5
271
330
1F
100
AcDbEntity
  8
0
  6
Continuous
 62
     7
100
AcDbLine
 10
6411.2589243202
 20
4361.711696671
 30
0.0
 11
6406.2589243202
 21
4361.711696671
 31
0.0
  0
LINE
  5
272
330
1F
100
AcDbEntity
  8
0
  6
Continuous
 62
     7
100
AcDbLine
 10
6436.2589243202
 20
4339.6406288591
 30
0.0
 11
6504.0187553361
 21
4339.6406288591
 31
0.0
  0
LINE
  5
273
330
1F
100
AcDbEntity
  8
0
  6
Continuous
 62
     7
100
AcDbLine
 10
6504.0187553361
 20
4339.6406288591
 30
0.0
 11
6504.0187553361
 21
4336.1050949532
 31
0.0
  0
LINE
  5
274
330
1F
100
AcDbEntity
  8
0
  6
Continuous
 62
     7
100
AcDbLine
 10
6434.7944582262
 20
4333.176162765
 30
0.0
 11
6434.7944582262
 21
4338.176162765
 31
0.0
  0
LINE
  5
275
330
1F
100
AcDbEntity
  8
0
  6
Continuous
 62
     7
100
AcDbLine
 10
6504.0187553361
 20
4331.711696671
 30
0.0
 11
6436.2589243202
 21
4331.711696671
 31
0.0
  0
LINE
  5
276
330
1F
100
AcDbEntity
  8
0
  6
Continuous
 62
     7
100
AcDbLine
 10
6504.0187553361
 20
4331.711696671
 30
0.0
 11
6504.0187553361
 21
4335.2472305769
 31
0.0
  0
LINE
  5
277
330
1F
100
AcDbEntity
  8
0
  6
Continuous
 62
     7
100
AcDbLine
 10
6512.554289242
 20
4348.176162765
 30
0.0
 11
6512.554289242
 21
4406.6133319253
 31
0.0
  0
LINE
  5
278
330
1F
100
AcDbEntity
  8
0
  6
Continuous
 62
     7
100
AcDbLine
 10
6512.554289242
 20
4406.6133319253
 30
0.0
 11
6516.089823148
 21
4406.6133319253
 31
0.0
  0
LINE
  5
279
330
1F
100
AcDbEntity
  8
0
  6
Continuous
 62
     7
100
AcDbLine
 10
6512.554289242
 20
4348.176162765
 30
0.0
 11
6516.089823148
 21
4348.176162765
 31
0.0
  0
LINE
  5
27A
330
1F
100
AcDbEntity
  8
0
  6
Continuous
 62
     7
100
AcDbLine
 10
6029.0187553361
 20
4147.2361662223
 30
0.0
 11
6024.0187553361
 21
4147.2361662223
 31
0.0
  0
LINE
  5
27B
330
1F
100
AcDbEntity
  8
0
  6
Continuous
 62
     7
100
AcDbLine
 10
6024.0187553361
 20
4147.2361662223
 30
0.0
 11
6024.0187553361
 21
4421.6133319253
 31
0.0
  0
LINE
  5
27C
330
1F
100
AcDbEntity
  8
0
  6
Continuous
 62
     7
100
AcDbLine
 10
6504.0187553361
 20
4418.6843997372
 30
0.0
 11
6504.0187553361
 21
4415.1488658312
 31
0.0
  0
LINE
  5
27D
330
1F
100
AcDbEntity
  8
0
  6
Continuous
 62
     7
100
AcDbLine
 10
6519.0187553361
 20
4147.2361662223
 30
0.0
 11
6524.0187553361
 21
4147.2361662223
 31
0.0
  0
LINE
  5
27E
330
1F
100
AcDbEntity
  8
0
  6
Continuous
 62
     7
100
AcDbLine
 10
6524.0187553361
 20
4421.6133319253
 30
0.0
 11
6524.0187553361
 21
4147.2361662223
 31
0.0
  0
LINE
  5
27F
330
1F
100
AcDbEntity
  8
0
  6
Continuous
 62
     7
100
AcDbLine
 10
6504.0187553361
 20
4415.1488658312
 30
0.0
 11
6421.2589243202
 21
4415.1488658312
 31
0.0
  0
LINE
  5
280
330
1F
100
AcDbEntity
  8
0
  6
Continuous
 62
     7
100
AcDbLine
 10
6421.2589243202
 20
4418.6843997372
 30
0.0
 11
6421.2589243202
 21
4415.1488658312
 31
0.0
  0
LINE
  5
281
330
1F
100
AcDbEntity
  8
0
  6
Continuous
 62
     7
100
AcDbLine
 10
6031.9476875242
 20
4406.6133319253
 30
0.0
 11
6035.4832214302
 21
4406.6133319253
 31
0.0
  0
LINE
  5
282
330
1F
100
AcDbEntity
  8
0
  6
Continuous
 62
     7
100
AcDbLine
 10
6035.4832214302
 20
4406.6133319253
 30
0.0
 11
6035.4832214302
 21
4147.2361662223
 31
0.0
  0
LINE
  5
283
330
1F
100
AcDbEntity
  8
0
  6
Continuous
 62
     7
100
AcDbLine
 10
6031.9476875242
 20
4147.2361662223
 30
0.0
 11
6035.4832214302
 21
4147.2361662223
 31
0.0
  0
LINE
  5
284
330
1F
100
AcDbEntity
  8
0
  6
Continuous
 62
     7
100
AcDbLine
 10
6396.2589243202
 20
4418.6843997373
 30
0.0
 11
6396.2589243202
 21
4415.1488658314
 31
0.0
  0
LINE
  5
285
330
1F
100
AcDbEntity
  8
0
  6
Continuous
 62
     7
100
AcDbLine
 10
6044.0187553361
 20
4418.6843997372
 30
0.0
 11
6044.0187553361
 21
4415.1488658312
 31
0.0
  0
LINE
  5
286
330
1F
100
AcDbEntity
  8
0
  6
Continuous
 62
     7
100
AcDbLine
 10
6512.554289242
 20
4323.176162765
 30
0.0
 11
6516.089823148
 21
4323.176162765
 31
0.0
  0
LINE
  5
287
330
1F
100
AcDbEntity
  8
0
  6
Continuous
 62
     7
100
AcDbLine
 10
6512.554289242
 20
4147.2361662223
 30
0.0
 11
6512.554289242
 21
4323.176162765
 31
0.0
  0
LINE
  5
288
330
1F
100
AcDbEntity
  8
0
  6
Continuous
 62
     7
100
AcDbLine
 10
6512.554289242
 20
4147.2361662223
 30
0.0
 11
6516.089823148
 21
4147.2361662223
 31
0.0
  0
LINE
  5
289
330
1F
100
AcDbEntity
  8
0
  6
Continuous
 62
     7
100
AcDbLine
 10
6042.7351998866
 20
4095.8131574473
 30
0.0
 11
6046.5654221022
 21
4099.0270954958
 31
0.0
  0
LINE
  5
28A
330
1F
100
AcDbEntity
  8
0
  6
Continuous
 62
     7
100
AcDbLine
 10
6505.3023107856
 20
4095.8131574473
 30
0.0
 11
6501.47208857
 21
4099.0270954958
 31
0.0
  0
LINE
  5
28B
330
1F
100
AcDbEntity
  8
0
  6
Continuous
 62
     7
100
AcDbLine
 10
6048.8091143292
 20
4100.9097768159
 30
0.0
 11
6051.5174904313
 21
4103.1823742043
 31
0.0
  0
LINE
  5
28C
330
1F
100
AcDbEntity
  8
0
  6
Continuous
 62
     7
100
AcDbLine
 10
6496.5200202409
 20
4103.1823742043
 30
0.0
 11
6499.228396343
 21
4100.9097768159
 31
0.0
  0
LINE
  5
28D
330
1F
100
AcDbEntity
  8
0
  6
Continuous
 62
     7
100
AcDbLine
 10
6461.2312004907
 20
4061.1267964885
 30
0.0
 11
6496.5200202409
 21
4103.1823742043
 31
0.0
  0
LINE
  5
28E
330
1F
100
AcDbEntity
  8
0
  6
Continuous
 62
     7
100
AcDbLine
 10
6461.2312004907
 20
4061.1267964885
 30
0.0
 11
6463.9395765928
 21
4058.8541991002
 31
0.0
  0
LINE
  5
28F
330
1F
100
AcDbEntity
  8
0
  6
Continuous
 62
     7
100
AcDbLine
 10
6051.5174904313
 20
4103.1823742043
 30
0.0
 11
6086.8063101815
 21
4061.1267964885
 31
0.0
  0
LINE
  5
290
330
1F
100
AcDbEntity
  8
0
  6
Continuous
 62
     7
100
AcDbLine
 10
6084.0979340794
 20
4058.8541991002
 30
0.0
 11
6086.8063101815
 21
4061.1267964885
 31
0.0
  0
LINE
  5
291
330
1F
100
AcDbEntity
  8
0
  6
Continuous
 62
     7
100
AcDbLine
 10
6505.3023107856
 20
4095.8131574473
 30
0.0
 11
6467.0161231857
 21
4050.1854558284
 31
0.0
  0
LINE
  5
292
330
1F
100
AcDbEntity
  8
0
  6
Continuous
 62
     7
100
AcDbLine
 10
6467.0161231857
 20
4050.1854558284
 30
0.0
 11
6463.1859009701
 21
4053.3993938769
 31
0.0
  0
LINE
  5
293
330
1F
100
AcDbEntity
  8
0
  6
Continuous
 62
     7
100
AcDbLine
 10
6081.0213874865
 20
4050.1854558284
 30
0.0
 11
6042.7351998866
 21
4095.8131574473
 31
0.0
  0
LINE
  5
294
330
1F
100
AcDbEntity
  8
0
  6
Continuous
 62
     7
100
AcDbLine
 10
6081.0213874865
 20
4050.1854558284
 30
0.0
 11
6084.8516097021
 21
4053.3993938769
 31
0.0
  0
LINE
  5
295
330
1F
100
AcDbEntity
  8
0
  6
Continuous
 62
     7
100
AcDbLine
 10
6093.3449084992
 20
4058.0777980193
 30
0.0
 11
6093.3449084992
 21
4054.5422641134
 31
0.0
  0
LINE
  5
296
330
1F
100
AcDbEntity
  8
0
  6
Continuous
 62
     7
100
AcDbLine
 10
6454.692602173
 20
4058.0777980193
 30
0.0
 11
6454.692602173
 21
4054.5422641134
 31
0.0
  0
LINE
  5
297
330
1F
100
AcDbEntity
  8
0
  6
Continuous
 62
     7
100
AcDbLine
 10
6093.3449084992
 20
4058.0777980193
 30
0.0
 11
6454.692602173
 21
4058.0777980193
 31
0.0
  0
LINE
  5
298
330
1F
100
AcDbEntity
  8
0
  6
Continuous
 62
     7
100
AcDbLine
 10
6459.3556787546
 20
4046.6133319253
 30
0.0
 11
6088.6818319177
 21
4046.6133319253
 31
0.0
  0
LINE
  5
299
330
1F
100
AcDbEntity
  8
0
  6
Continuous
 62
     7
100
AcDbLine
 10
6088.6818319177
 20
4046.6133319253
 30
0.0
 11
6088.6818319177
 21
4051.6133319253
 31
0.0
  0
LINE
  5
29A
330
1F
100
AcDbEntity
  8
0
  6
Continuous
 62
     7
100
AcDbLine
 10
6459.3556787546
 20
4046.6133319253
 30
0.0
 11
6459.3556787546
 21
4051.6133319253
 31
0.0
  0
LINE
  5
29B
330
1F
100
AcDbEntity
  8
0
  6
Continuous
 62
     7
100
AcDbLine
 10
6411.2589243202
 20
4359.6406288591
 30
0.0
 11
6411.2589243202
 21
4361.711696671
 31
0.0
  0
LINE
  5
29C
330
1F
100
AcDbEntity
  8
0
  6
Continuous
 62
     7
100
AcDbLine
 10
6414.7944582262
 20
4363.176162765
 30
0.0
 11
6412.7233904143
 21
4363.176162765
 31
0.0
  0
LINE
  5
29D
330
1F
100
AcDbEntity
  8
0
  6
Continuous
 62
     7
100
AcDbLine
 10
6436.2589243202
 20
4331.711696671
 30
0.0
 11
6436.2589243202
 21
4329.6406288591
 31
0.0
  0
LINE
  5
29E
330
1F
100
AcDbEntity
  8
0
  6
Continuous
 62
     7
100
AcDbLine
 10
6434.7944582262
 20
4333.176162765
 30
0.0
 11
6432.7233904143
 21
4333.176162765
 31
0.0
  0
LINE
  5
29F
330
1F
100
AcDbEntity
  8
0
  6
Continuous
 62
     7
100
AcDbLine
 10
6402.7233904143
 20
4363.176162765
 30
0.0
 11
6404.7944582262
 21
4363.176162765
 31
0.0
  0
LINE
  5
2A0
330
1F
100
AcDbEntity
  8
0
  6
Continuous
 62
     7
100
AcDbLine
 10
6406.2589243202
 20
4359.6406288591
 30
0.0
 11
6406.2589243202
 21
4361.711696671
 31
0.0
  0
LINE
  5
2A1
330
1F
100
AcDbEntity
  8
0
  6
Continuous
 62
     7
100
AcDbLine
 10
6436.2589243202
 20
4339.6406288591
 30
0.0
 11
6436.2589243202
 21
4341.711696671
 31
0.0
  0
LINE
  5
2A2
330
1F
100
AcDbEntity
  8
0
  6
Continuous
 62
     7
100
AcDbLine
 10
6434.7944582262
 20
4338.176162765
 30
0.0
 11
6432.7233904143
 21
4338.176162765
 31
0.0
  0
LINE
  5
2A3
330
1F
100
AcDbEntity
  8
0
  6
Continuous
 62
     7
100
AcDbLine
 10
6414.7944582262
 20
4363.176162765
 30
0.0
 11
6414.7944582262
 21
4406.6133319253
 31
0.0
  0
LINE
  5
2A4
330
1F
100
AcDbEntity
  8
0
  6
Continuous
 62
     7
100
AcDbLine
 10
6412.7233904143
 20
4406.6133319253
 30
0.0
 11
6414.7944582262
 21
4406.6133319253
 31
0.0
  0
LINE
  5
2A5
330
1F
100
AcDbEntity
  8
0
  6
Continuous
 62
     7
100
AcDbLine
 10
6402.7233904143
 20
4406.6133319253
 30
0.0
 11
6402.7233904143
 21
4363.176162765
 31
0.0
  0
LINE
  5
2A6
330
1F
100
AcDbEntity
  8
0
  6
Continuous
 62
     7
100
AcDbLine
 10
6402.7233904143
 20
4406.6133319253
 30
0.0
 11
6404.7944582262
 21
4406.6133319253
 31
0.0
  0
LINE
  5
2A7
330
1F
100
AcDbEntity
  8
0
  6
Continuous
 62
     7
100
AcDbLine
 10
6406.2589243202
 20
4359.6406288591
 30
0.0
 11
6411.2589243202
 21
4359.6406288591
 31
0.0
  0
LINE
  5
2A8
330
1F
100
AcDbEntity
  8
0
  6
Continuous
 62
     7
100
AcDbLine
 10
6432.7233904143
 20
4338.176162765
 30
0.0
 11
6432.7233904143
 21
4333.176162765
 31
0.0
  0
LINE
  5
2A9
330
1F
100
AcDbEntity
  8
0
  6
Continuous
 62
     7
100
AcDbLine
 10
6504.0187553361
 20
4331.711696671
 30
0.0
 11
6504.0187553361
 21
4329.6406288591
 31
0.0
  0
LINE
  5
2AA
330
1F
100
AcDbEntity
  8
0
  6
Continuous
 62
     7
100
AcDbLine
 10
6436.2589243202
 20
4329.6406288591
 30
0.0
 11
6504.0187553361
 21
4329.6406288591
 31
0.0
  0
LINE
  5
2AB
330
1F
100
AcDbEntity
  8
0
  6
Continuous
 62
     7
100
AcDbLine
 10
6504.0187553361
 20
4341.711696671
 30
0.0
 11
6436.2589243202
 21
4341.711696671
 31
0.0
  0
LINE
  5
2AC
330
1F
100
AcDbEntity
  8
0
  6
Continuous
 62
     7
100
AcDbLine
 10
6504.0187553361
 20
4339.6406288591
 30
0.0
 11
6504.0187553361
 21
4341.711696671
 31
0.0
  0
LINE
  5
2AD
330
1F
100
AcDbEntity
  8
0
  6
Continuous
 62
     7
100
AcDbLine
 10
6510.4832214302
 20
4406.6133319253
 30
0.0
 11
6510.4832214302
 21
4348.176162765
 31
0.0
  0
LINE
  5
2AE
330
1F
100
AcDbEntity
  8
0
  6
Continuous
 62
     7
100
AcDbLine
 10
6512.554289242
 20
4406.6133319253
 30
0.0
 11
6510.4832214302
 21
4406.6133319253
 31
0.0
  0
LINE
  5
2AF
330
1F
100
AcDbEntity
  8
0
  6
Continuous
 62
     7
100
AcDbLine
 10
6512.554289242
 20
4348.176162765
 30
0.0
 11
6510.4832214302
 21
4348.176162765
 31
0.0
  0
LINE
  5
2B0
330
1F
100
AcDbEntity
  8
0
  6
Continuous
 62
     7
100
AcDbLine
 10
6504.0187553361
 20
4415.1488658312
 30
0.0
 11
6504.0187553361
 21
4413.0777980194
 31
0.0
  0
LINE
  5
2B1
330
1F
100
AcDbEntity
  8
0
  6
Continuous
 62
     7
100
AcDbLine
 10
6044.0187553361
 20
4413.0777980194
 30
0.0
 11
6044.0187553361
 21
4415.1488658312
 31
0.0
  0
LINE
  5
2B2
330
1F
100
AcDbEntity
  8
0
  6
Continuous
 62
     7
100
AcDbLine
 10
6037.554289242
 20
4406.6133319253
 30
0.0
 11
6035.4832214302
 21
4406.6133319253
 31
0.0
  0
LINE
  5
2B3
330
1F
100
AcDbEntity
  8
0
  6
Continuous
 62
     7
100
AcDbLine
 10
6421.2589243202
 20
4415.1488658312
 30
0.0
 11
6421.2589243202
 21
4413.0777980194
 31
0.0
  0
LINE
  5
2B4
330
1F
100
AcDbEntity
  8
0
  6
Continuous
 62
     7
100
AcDbLine
 10
6037.554289242
 20
4147.2361662223
 30
0.0
 11
6037.554289242
 21
4406.6133319253
 31
0.0
  0
LINE
  5
2B5
330
1F
100
AcDbEntity
  8
0
  6
Continuous
 62
     7
100
AcDbLine
 10
6037.554289242
 20
4147.2361662223
 30
0.0
 11
6035.4832214302
 21
4147.2361662223
 31
0.0
  0
LINE
  5
2B6
330
1F
100
AcDbEntity
  8
0
  6
Continuous
 62
     7
100
AcDbLine
 10
6421.2589243202
 20
4413.0777980194
 30
0.0
 11
6504.0187553361
 21
4413.0777980194
 31
0.0
  0
LINE
  5
2B7
330
1F
100
AcDbEntity
  8
0
  6
Continuous
 62
     7
100
AcDbLine
 10
6396.2589243202
 20
4413.0777980195
 30
0.0
 11
6396.2589243202
 21
4415.1488658314
 31
0.0
  0
LINE
  5
2B8
330
1F
100
AcDbEntity
  8
0
  6
Continuous
 62
     7
100
AcDbLine
 10
6512.554289242
 20
4323.176162765
 30
0.0
 11
6510.4832214302
 21
4323.176162765
 31
0.0
  0
LINE
  5
2B9
330
1F
100
AcDbEntity
  8
0
  6
Continuous
 62
     7
100
AcDbLine
 10
6512.554289242
 20
4147.2361662223
 30
0.0
 11
6510.4832214302
 21
4147.2361662223
 31
0.0
  0
LINE
  5
2BA
330
1F
100
AcDbEntity
  8
0
  6
Continuous
 62
     7
100
AcDbLine
 10
6510.4832214302
 20
4323.176162765
 30
0.0
 11
6510.4832214302
 21
4147.2361662223
 31
0.0
  0
LINE
  5
2BB
330
1F
100
AcDbEntity
  8
0
  6
Continuous
 62
     7
100
AcDbLine
 10
6496.5200202409
 20
4103.1823742043
 30
0.0
 11
6494.9334902523
 21
4104.5136309326
 31
0.0
  0
LINE
  5
2BC
330
1F
100
AcDbEntity
  8
0
  6
Continuous
 62
     7
100
AcDbLine
 10
6053.1040204199
 20
4104.5136309326
 30
0.0
 11
6051.5174904313
 21
4103.1823742043
 31
0.0
  0
LINE
  5
2BD
330
1F
100
AcDbEntity
  8
0
  6
Continuous
 62
     7
100
AcDbLine
 10
6459.6446705021
 20
4062.4580532168
 30
0.0
 11
6461.2312004907
 21
4061.1267964885
 31
0.0
  0
LINE
  5
2BE
330
1F
100
AcDbEntity
  8
0
  6
Continuous
 62
     7
100
AcDbLine
 10
6494.9334902523
 20
4104.5136309326
 30
0.0
 11
6459.6446705021
 21
4062.4580532168
 31
0.0
  0
LINE
  5
2BF
330
1F
100
AcDbEntity
  8
0
  6
Continuous
 62
     7
100
AcDbLine
 10
6088.3928401701
 20
4062.4580532168
 30
0.0
 11
6053.1040204199
 21
4104.5136309326
 31
0.0
  0
LINE
  5
2C0
330
1F
100
AcDbEntity
  8
0
  6
Continuous
 62
     7
100
AcDbLine
 10
6088.3928401701
 20
4062.4580532168
 30
0.0
 11
6086.8063101815
 21
4061.1267964885
 31
0.0
  0
LINE
  5
2C1
330
1F
100
AcDbEntity
  8
0
  6
Continuous
 62
     7
100
AcDbLine
 10
6093.3449084992
 20
4060.1488658311
 30
0.0
 11
6093.3449084992
 21
4058.0777980193
 31
0.0
  0
LINE
  5
2C2
330
1F
100
AcDbEntity
  8
0
  6
Continuous
 62
     7
100
AcDbLine
 10
6454.692602173
 20
4060.1488658311
 30
0.0
 11
6454.692602173
 21
4058.0777980193
 31
0.0
  0
LINE
  5
2C3
330
1F
100
AcDbEntity
  8
0
  6
Continuous
 62
     7
100
AcDbLine
 10
6454.692602173
 20
4060.1488658311
 30
0.0
 11
6093.3449084992
 21
4060.1488658311
 31
0.0
  0
LINE
  5
2C4
330
1F
100
AcDbEntity
  8
0
  6
Continuous
 62
     7
100
AcDbLine
 10
6399.1878565083
 20
4363.176162765
 30
0.0
 11
6399.1878565083
 21
4406.6133319253
 31
0.0
  0
LINE
  5
2C5
330
1F
100
AcDbEntity
  8
0
  6
Continuous
 62
     7
100
AcDbLine
 10
6399.1878565083
 20
4406.6133319253
 30
0.0
 11
6402.7233904143
 21
4406.6133319253
 31
0.0
  0
LINE
  5
2C6
330
1F
100
AcDbEntity
  8
0
  6
Continuous
 62
     7
100
AcDbLine
 10
6399.1878565083
 20
4363.176162765
 30
0.0
 11
6402.7233904143
 21
4363.176162765
 31
0.0
  0
LINE
  5
2C7
330
1F
100
AcDbEntity
  8
0
  6
Continuous
 62
     7
100
AcDbLine
 10
6396.2589243202
 20
4413.0777980195
 30
0.0
 11
6396.2589243202
 21
4409.5422641135
 31
0.0
  0
LINE
  5
2C8
330
1F
100
AcDbEntity
  8
0
  6
Continuous
 62
     7
100
AcDbLine
 10
6418.3299921322
 20
4406.6133319253
 30
0.0
 11
6414.7944582262
 21
4406.6133319253
 31
0.0
  0
LINE
  5
2C9
330
1F
100
AcDbEntity
  8
0
  6
Continuous
 62
     7
100
AcDbLine
 10
6421.2589243202
 20
4409.5422641134
 30
0.0
 11
6421.2589243202
 21
4413.0777980194
 31
0.0
  0
LINE
  5
2CA
330
1F
100
AcDbEntity
  8
0
  6
Continuous
 62
     7
100
AcDbLine
 10
6044.0187553361
 20
4413.0777980194
 30
0.0
 11
6044.0187553361
 21
4409.5422641134
 31
0.0
  0
LINE
  5
2CB
330
1F
100
AcDbEntity
  8
0
  6
Continuous
 62
     7
100
AcDbLine
 10
6506.9476875242
 20
4348.176162765
 30
0.0
 11
6506.9476875242
 21
4406.6133319253
 31
0.0
  0
LINE
  5
2CC
330
1F
100
AcDbEntity
  8
0
  6
Continuous
 62
     7
100
AcDbLine
 10
6506.9476875242
 20
4406.6133319253
 30
0.0
 11
6510.4832214302
 21
4406.6133319253
 31
0.0
  0
LINE
  5
2CD
330
1F
100
AcDbEntity
  8
0
  6
Continuous
 62
     7
100
AcDbLine
 10
6506.9476875242
 20
4348.176162765
 30
0.0
 11
6510.4832214302
 21
4348.176162765
 31
0.0
  0
LINE
  5
2CE
330
1F
100
AcDbEntity
  8
0
  6
Continuous
 62
     7
100
AcDbLine
 10
6504.0187553361
 20
4409.5422641134
 30
0.0
 11
6504.0187553361
 21
4413.0777980194
 31
0.0
  0
LINE
  5
2CF
330
1F
100
AcDbEntity
  8
0
  6
Continuous
 62
     7
100
AcDbLine
 10
6037.554289242
 20
4406.6133319253
 30
0.0
 11
6041.089823148
 21
4406.6133319253
 31
0.0
  0
LINE
  5
2D0
330
1F
100
AcDbEntity
  8
0
  6
Continuous
 62
     7
100
AcDbLine
 10
6418.3299921322
 20
4406.6133319253
 30
0.0
 11
6418.3299921322
 21
4363.176162765
 31
0.0
  0
LINE
  5
2D1
330
1F
100
AcDbEntity
  8
0
  6
Continuous
 62
     7
100
AcDbLine
 10
6418.3299921322
 20
4363.176162765
 30
0.0
 11
6414.7944582262
 21
4363.176162765
 31
0.0
  0
LINE
  5
2D2
330
1F
100
AcDbEntity
  8
0
  6
Continuous
 62
     7
100
AcDbLine
 10
6041.089823148
 20
4406.6133319253
 30
0.0
 11
6041.089823148
 21
4147.2361662223
 31
0.0
  0
LINE
  5
2D3
330
1F
100
AcDbEntity
  8
0
  6
Continuous
 62
     7
100
AcDbLine
 10
6037.554289242
 20
4147.2361662223
 30
0.0
 11
6041.089823148
 21
4147.2361662223
 31
0.0
  0
LINE
  5
2D4
330
1F
100
AcDbEntity
  8
0
  6
Continuous
 62
     7
100
AcDbLine
 10
6504.0187553361
 20
4409.5422641134
 30
0.0
 11
6421.2589243202
 21
4409.5422641134
 31
0.0
  0
LINE
  5
2D5
330
1F
100
AcDbEntity
  8
0
  6
Continuous
 62
     7
100
AcDbLine
 10
6411.2589243202
 20
4356.1050949531
 30
0.0
 11
6411.2589243202
 21
4359.6406288591
 31
0.0
  0
LINE
  5
2D6
330
1F
100
AcDbEntity
  8
0
  6
Continuous
 62
     7
100
AcDbLine
 10
6406.2589243202
 20
4356.1050949531
 30
0.0
 11
6406.2589243202
 21
4359.6406288591
 31
0.0
  0
LINE
  5
2D7
330
1F
100
AcDbEntity
  8
0
  6
Continuous
 62
     7
100
AcDbLine
 10
6411.2589243202
 20
4356.1050949531
 30
0.0
 11
6406.2589243202
 21
4356.1050949531
 31
0.0
  0
LINE
  5
2D8
330
1F
100
AcDbEntity
  8
0
  6
Continuous
 62
     7
100
AcDbLine
 10
6436.2589243202
 20
4345.247230577
 30
0.0
 11
6436.2589243202
 21
4341.711696671
 31
0.0
  0
LINE
  5
2D9
330
1F
100
AcDbEntity
  8
0
  6
Continuous
 62
     7
100
AcDbLine
 10
6429.1878565083
 20
4338.176162765
 30
0.0
 11
6432.7233904143
 21
4338.176162765
 31
0.0
  0
LINE
  5
2DA
330
1F
100
AcDbEntity
  8
0
  6
Continuous
 62
     7
100
AcDbLine
 10
6436.2589243202
 20
4345.247230577
 30
0.0
 11
6504.0187553361
 21
4345.247230577
 31
0.0
  0
LINE
  5
2DB
330
1F
100
AcDbEntity
  8
0
  6
Continuous
 62
     7
100
AcDbLine
 10
6504.0187553361
 20
4345.247230577
 30
0.0
 11
6504.0187553361
 21
4341.711696671
 31
0.0
  0
LINE
  5
2DC
330
1F
100
AcDbEntity
  8
0
  6
Continuous
 62
     7
100
AcDbLine
 10
6429.1878565083
 20
4333.176162765
 30
0.0
 11
6432.7233904143
 21
4333.176162765
 31
0.0
  0
LINE
  5
2DD
330
1F
100
AcDbEntity
  8
0
  6
Continuous
 62
     7
100
AcDbLine
 10
6436.2589243202
 20
4329.6406288591
 30
0.0
 11
6436.2589243202
 21
4326.1050949531
 31
0.0
  0
LINE
  5
2DE
330
1F
100
AcDbEntity
  8
0
  6
Continuous
 62
     7
100
AcDbLine
 10
6510.4832214302
 20
4323.176162765
 30
0.0
 11
6506.9476875242
 21
4323.176162765
 31
0.0
  0
LINE
  5
2DF
330
1F
100
AcDbEntity
  8
0
  6
Continuous
 62
     7
100
AcDbLine
 10
6504.0187553361
 20
4329.6406288591
 30
0.0
 11
6504.0187553361
 21
4326.1050949531
 31
0.0
  0
LINE
  5
2E0
330
1F
100
AcDbEntity
  8
0
  6
Continuous
 62
     7
100
AcDbLine
 10
6504.0187553361
 20
4326.1050949531
 30
0.0
 11
6436.2589243202
 21
4326.1050949531
 31
0.0
  0
LINE
  5
2E1
330
1F
100
AcDbEntity
  8
0
  6
Continuous
 62
     7
100
AcDbLine
 10
6429.1878565083
 20
4333.176162765
 30
0.0
 11
6429.1878565083
 21
4338.176162765
 31
0.0
  0
LINE
  5
2E2
330
1F
100
AcDbEntity
  8
0
  6
Continuous
 62
     7
100
AcDbLine
 10
6510.4832214302
 20
4147.2361662223
 30
0.0
 11
6506.9476875242
 21
4147.2361662223
 31
0.0
  0
LINE
  5
2E3
330
1F
100
AcDbEntity
  8
0
  6
Continuous
 62
     7
100
AcDbLine
 10
6506.9476875242
 20
4147.2361662223
 30
0.0
 11
6506.9476875242
 21
4323.176162765
 31
0.0
  0
LINE
  5
2E4
330
1F
100
AcDbEntity
  8
0
  6
Continuous
 62
     7
100
AcDbLine
 10
6494.9334902523
 20
4104.5136309326
 30
0.0
 11
6492.2251141502
 21
4106.7862283209
 31
0.0
  0
LINE
  5
2E5
330
1F
100
AcDbEntity
  8
0
  6
Continuous
 62
     7
100
AcDbLine
 10
6053.1040204199
 20
4104.5136309326
 30
0.0
 11
6055.812396522
 21
4106.7862283209
 31
0.0
  0
LINE
  5
2E6
330
1F
100
AcDbEntity
  8
0
  6
Continuous
 62
     7
100
AcDbLine
 10
6459.6446705021
 20
4062.4580532168
 30
0.0
 11
6456.9362944
 21
4064.7306506052
 31
0.0
  0
LINE
  5
2E7
330
1F
100
AcDbEntity
  8
0
  6
Continuous
 62
     7
100
AcDbLine
 10
6456.9362944
 20
4064.7306506052
 30
0.0
 11
6492.2251141502
 21
4106.7862283209
 31
0.0
  0
LINE
  5
2E8
330
1F
100
AcDbEntity
  8
0
  6
Continuous
 62
     7
100
AcDbLine
 10
6055.812396522
 20
4106.7862283209
 30
0.0
 11
6091.1012162722
 21
4064.7306506052
 31
0.0
  0
LINE
  5
2E9
330
1F
100
AcDbEntity
  8
0
  6
Continuous
 62
     7
100
AcDbLine
 10
6088.3928401701
 20
4062.4580532168
 30
0.0
 11
6091.1012162722
 21
4064.7306506052
 31
0.0
  0
LINE
  5
2EA
330
1F
100
AcDbEntity
  8
0
  6
Continuous
 62
     7
100
AcDbLine
 10
6454.692602173
 20
4060.1488658311
 30
0.0
 11
6454.692602173
 21
4063.6843997372
 31
0.0
  0
LINE
  5
2EB
330
1F
100
AcDbEntity
  8
0
  6
Continuous
 62
     7
100
AcDbLine
 10
6093.3449084992
 20
4060.1488658311
 30
0.0
 11
6093.3449084992
 21
4063.6843997372
 31
0.0
  0
LINE
  5
2EC
330
1F
100
AcDbEntity
  8
0
  6
Continuous
 62
     7
100
AcDbLine
 10
6093.3449084992
 20
4063.6843997372
 30
0.0
 11
6454.692602173
 21
4063.6843997372
 31
0.0
  0
LINE
  5
2ED
330
1F
100
AcDbEntity
  8
0
  6
Continuous
 62
     7
100
AcDbLine
 10
6164.0187553361
 20
4518.1556341347
 30
0.0
 11
6164.0187553361
 21
4518.5261269933
 31
0.0
  0
LINE
  5
2EE
330
1F
100
AcDbEntity
  8
0
  6
Continuous
 62
     7
100
AcDbLine
 10
6162.5203828914
 20
4517.4685767452
 30
0.0
 11
6155.9789357348
 21
4517.4685767452
 31
0.0
  0
LINE
  5
2EF
330
1F
100
AcDbEntity
  8
0
  6
Continuous
 62
     7
100
AcDbLine
 10
6155.5187553361
 20
4518.9685767452
 30
0.0
 11
6172.5187553361
 21
4518.9685767452
 31
0.0
  0
LINE
  5
2F0
330
1F
100
AcDbEntity
  8
0
  6
Continuous
 62
     7
100
AcDbLine
 10
6153.8187553361
 20
4506.9685767452
 30
0.0
 11
6174.2187553361
 21
4506.9685767452
 31
0.0
  0
LINE
  5
2F1
330
1F
100
AcDbEntity
  8
0
  6
Continuous
 62
     7
100
AcDbLine
 10
6157.2603030971
 20
4509.4691903991
 30
0.0
 11
6157.9750433813
 21
4508.8586129271
 31
0.0
  0
LINE
  5
2F2
330
1F
100
AcDbEntity
  8
0
  6
Continuous
 62
     7
100
AcDbLine
 10
6157.9750500507
 20
4508.3701513888
 30
0.0
 11
6157.2603264399
 21
4507.7595749101
 31
0.0
  0
LINE
  5
2F3
330
1F
100
AcDbEntity
  8
0
  6
Continuous
 62
     7
100
AcDbLine
 10
6157.2603264399
 20
4507.7595749101
 30
0.0
 11
6157.2603030971
 21
4509.4691903991
 31
0.0
  0
LINE
  5
2F4
330
1F
100
AcDbEntity
  8
0
  6
Continuous
 62
     7
100
AcDbLine
 10
6157.9750433813
 20
4508.8586129271
 30
0.0
 11
6157.9750500507
 21
4508.3701513888
 31
0.0
  0
LINE
  5
2F5
330
1F
100
AcDbEntity
  8
0
  6
Continuous
 62
     7
100
AcDbLine
 10
6260.0187553361
 20
4383.4305490562
 30
0.0
 11
6260.0861691627
 21
4382.2015625182
 31
0.0
  0
LINE
  5
2F6
330
1F
100
AcDbEntity
  8
0
  6
Continuous
 62
     7
100
AcDbLine
 10
6260.0861691627
 20
4382.2015625182
 30
0.0
 11
6260.2877614105
 21
4380.98440914
 31
0.0
  0
LINE
  5
2F7
330
1F
100
AcDbEntity
  8
0
  6
Continuous
 62
     7
100
AcDbLine
 10
6260.2877614105
 20
4380.98440914
 30
0.0
 11
6260.6215906358
 21
4379.7908187057
 31
0.0
  0
LINE
  5
2F8
330
1F
100
AcDbEntity
  8
0
  6
Continuous
 62
     7
100
AcDbLine
 10
6260.6215906358
 20
4379.7908187057
 30
0.0
 11
6261.0844418809
 21
4378.6322730089
 31
0.0
  0
LINE
  5
2F9
330
1F
100
AcDbEntity
  8
0
  6
Continuous
 62
     7
100
AcDbLine
 10
6261.0844418809
 20
4378.6322730089
 30
0.0
 11
6262.3781807639
 21
4376.4645319355
 31
0.0
  0
LINE
  5
2FA
330
1F
100
AcDbEntity
  8
0
  6
Continuous
 62
     7
100
AcDbLine
 10
6262.3781807639
 20
4376.4645319355
 30
0.0
 11
6264.1192603995
 21
4374.5644909934
 31
0.0
  0
LINE
  5
2FB
330
1F
100
AcDbEntity
  8
0
  6
Continuous
 62
     7
100
AcDbLine
 10
6264.1192603995
 20
4374.5644909934
 30
0.0
 11
6266.2407720738
 21
4373.0051676905
 31
0.0
  0
LINE
  5
2FC
330
1F
100
AcDbEntity
  8
0
  6
Continuous
 62
     7
100
AcDbLine
 10
6266.2407720738
 20
4373.0051676905
 30
0.0
 11
6268.661187283
 21
4371.8464859469
 31
0.0
  0
LINE
  5
2FD
330
1F
100
AcDbEntity
  8
0
  6
Continuous
 62
     7
100
AcDbLine
 10
6268.661187283
 20
4371.8464859469
 30
0.0
 11
6271.2874908279
 21
4371.1329732521
 31
0.0
  0
LINE
  5
2FE
330
1F
100
AcDbEntity
  8
0
  6
Continuous
 62
     7
100
AcDbLine
 10
6271.2874908279
 20
4371.1329732521
 30
0.0
 11
6274.0187553361
 21
4370.892049499
 31
0.0
  0
LINE
  5
2FF
330
1F
100
AcDbEntity
  8
0
  6
Continuous
 62
     7
100
AcDbLine
 10
6274.0187553361
 20
4370.892049499
 30
0.0
 11
6276.7500198443
 21
4371.1329732521
 31
0.0
  0
LINE
  5
300
330
1F
100
AcDbEntity
  8
0
  6
Continuous
 62
     7
100
AcDbLine
 10
6276.7500198443
 20
4371.1329732521
 30
0.0
 11
6279.3763233892
 21
4371.8464859469
 31
0.0
  0
LINE
  5
301
330
1F
100
AcDbEntity
  8
0
  6
Continuous
 62
     7
100
AcDbLine
 10
6279.3763233892
 20
4371.8464859469
 30
0.0
 11
6281.7967385984
 21
4373.0051676905
 31
0.0
  0
LINE
  5
302
330
1F
100
AcDbEntity
  8
0
  6
Continuous
 62
     7
100
AcDbLine
 10
6281.7967385984
 20
4373.0051676905
 30
0.0
 11
6283.9182502727
 21
4374.5644909934
 31
0.0
  0
LINE
  5
303
330
1F
100
AcDbEntity
  8
0
  6
Continuous
 62
     7
100
AcDbLine
 10
6283.9182502727
 20
4374.5644909934
 30
0.0
 11
6285.6593299083
 21
4376.4645319355
 31
0.0
  0
LINE
  5
304
330
1F
100
AcDbEntity
  8
0
  6
Continuous
 62
     7
100
AcDbLine
 10
6285.6593299083
 20
4376.4645319355
 30
0.0
 11
6286.9530687913
 21
4378.6322730089
 31
0.0
  0
LINE
  5
305
330
1F
100
AcDbEntity
  8
0
  6
Continuous
 62
     7
100
AcDbLine
 10
6286.9530687913
 20
4378.6322730089
 30
0.0
 11
6287.4159200364
 21
4379.7908187057
 31
0.0
  0
LINE
  5
306
330
1F
100
AcDbEntity
  8
0
  6
Continuous
 62
     7
100
AcDbLine
 10
6287.4159200364
 20
4379.7908187057
 30
0.0
 11
6287.7497492617
 21
4380.98440914
 31
0.0
  0
LINE
  5
307
330
1F
100
AcDbEntity
  8
0
  6
Continuous
 62
     7
100
AcDbLine
 10
6287.7497492617
 20
4380.98440914
 30
0.0
 11
6287.9513415095
 21
4382.2015625182
 31
0.0
  0
LINE
  5
308
330
1F
100
AcDbEntity
  8
0
  6
Continuous
 62
     7
100
AcDbLine
 10
6287.9513415095
 20
4382.2015625182
 30
0.0
 11
6288.0187553361
 21
4383.4305490562
 31
0.0
  0
LINE
  5
309
330
1F
100
AcDbEntity
  8
0
  6
Continuous
 62
     7
100
AcDbLine
 10
6272.0320743554
 20
4232.9072181739
 30
0.0
 11
6271.7511939984
 21
4233.5764549323
 31
0.0
  0
LINE
  5
30A
330
1F
100
AcDbEntity
  8
0
  6
Continuous
 62
     7
100
AcDbLine
 10
6270.9139625263
 20
4232.1263274849
 30
0.0
 11
6271.6339787388
 21
4232.2176963396
 31
0.0
  0
LINE
  5
30B
330
1F
100
AcDbEntity
  8
0
  6
Continuous
 62
     7
100
AcDbLine
 10
6271.6339787388
 20
4230.3833559645
 30
0.0
 11
6270.9139625263
 21
4230.4747248191
 31
0.0
  0
LINE
  5
30C
330
1F
100
AcDbEntity
  8
0
  6
Continuous
 62
     7
100
AcDbLine
 10
6271.7511939984
 20
4229.0245973718
 30
0.0
 11
6272.0320743554
 21
4229.6938341302
 31
0.0
  0
LINE
  5
30D
330
1F
100
AcDbEntity
  8
0
  6
Continuous
 62
     7
100
AcDbLine
 10
6273.6206597195
 20
4228.7766639426
 30
0.0
 11
6273.181523864
 21
4228.1987960388
 31
0.0
  0
LINE
  5
30E
330
1F
100
AcDbEntity
  8
0
  6
Continuous
 62
     7
100
AcDbLine
 10
6274.8559868082
 20
4228.1987960388
 30
0.0
 11
6274.4168509527
 21
4228.7766639426
 31
0.0
  0
LINE
  5
30F
330
1F
100
AcDbEntity
  8
0
  6
Continuous
 62
     7
100
AcDbLine
 10
6276.0054363168
 20
4229.6938341302
 30
0.0
 11
6276.2863166738
 21
4229.0245973718
 31
0.0
  0
LINE
  5
310
330
1F
100
AcDbEntity
  8
0
  6
Continuous
 62
     7
100
AcDbLine
 10
6277.1235481459
 20
4230.4747248191
 30
0.0
 11
6276.4035319334
 21
4230.3833559645
 31
0.0
  0
LINE
  5
311
330
1F
100
AcDbEntity
  8
0
  6
Continuous
 62
     7
100
AcDbLine
 10
6276.4035319334
 20
4232.2176963396
 30
0.0
 11
6277.1235481459
 21
4232.1263274849
 31
0.0
  0
LINE
  5
312
330
1F
100
AcDbEntity
  8
0
  6
Continuous
 62
     7
100
AcDbLine
 10
6276.2863166738
 20
4233.5764549323
 30
0.0
 11
6276.0054363168
 21
4232.9072181739
 31
0.0
  0
LINE
  5
313
330
1F
100
AcDbEntity
  8
0
  6
Continuous
 62
     7
100
AcDbLine
 10
6274.4168509527
 20
4233.8243883614
 30
0.0
 11
6274.8559868082
 21
4234.4022562652
 31
0.0
  0
LINE
  5
314
330
1F
100
AcDbEntity
  8
0
  6
Continuous
 62
     7
100
AcDbLine
 10
6273.181523864
 20
4234.4022562652
 30
0.0
 11
6273.6206597195
 21
4233.8243883614
 31
0.0
  0
LINE
  5
315
330
1F
100
AcDbEntity
  8
0
  6
Continuous
 62
     7
100
AcDbLine
 10
6292.1857583911
 20
4424.6133319253
 30
0.0
 11
6288.0187553361
 21
4424.6133319253
 31
0.0
  0
LINE
  5
316
330
1F
100
AcDbEntity
  8
0
  6
Continuous
 62
     7
100
AcDbLine
 10
6260.0187553361
 20
4424.6133319253
 30
0.0
 11
6255.8517522811
 21
4424.6133319253
 31
0.0
  0
LINE
  5
317
330
1F
100
AcDbEntity
  8
0
  6
Continuous
 62
     7
100
AcDbLine
 10
6519.0187553361
 20
4421.6133319253
 30
0.0
 11
6288.4204873727
 21
4421.6133319253
 31
0.0
  0
LINE
  5
318
330
1F
100
AcDbEntity
  8
0
  6
Continuous
 62
     7
100
AcDbLine
 10
6259.6282593307
 20
4421.6133319253
 30
0.0
 11
6029.0187553361
 21
4421.6133319253
 31
0.0
  0
LINE
  5
319
330
1F
100
AcDbEntity
  8
0
  6
Continuous
 62
     7
100
AcDbLine
 10
6044.0187553361
 20
4418.6843997372
 30
0.0
 11
6260.0187553361
 21
4418.6843997372
 31
0.0
  0
LINE
  5
31A
330
1F
100
AcDbEntity
  8
0
  6
Continuous
 62
     7
100
AcDbLine
 10
6288.0187553361
 20
4418.6843997373
 30
0.0
 11
6396.2589243202
 21
4418.6843997373
 31
0.0
  0
LINE
  5
31B
330
1F
100
AcDbEntity
  8
0
  6
Continuous
 62
     7
100
AcDbLine
 10
6396.2589243202
 20
4415.1488658314
 30
0.0
 11
6288.0187553361
 21
4415.1488658314
 31
0.0
  0
LINE
  5
31C
330
1F
100
AcDbEntity
  8
0
  6
Continuous
 62
     7
100
AcDbLine
 10
6260.0187553361
 20
4415.1488658312
 30
0.0
 11
6044.0187553361
 21
4415.1488658312
 31
0.0
  0
LINE
  5
31D
330
1F
100
AcDbEntity
  8
0
  6
Continuous
 62
     7
100
AcDbLine
 10
6044.0187553361
 20
4413.0777980194
 30
0.0
 11
6260.0187553361
 21
4413.0777980194
 31
0.0
  0
LINE
  5
31E
330
1F
100
AcDbEntity
  8
0
  6
Continuous
 62
     7
100
AcDbLine
 10
6288.0187553361
 20
4413.0777980195
 30
0.0
 11
6396.2589243202
 21
4413.0777980195
 31
0.0
  0
LINE
  5
31F
330
1F
100
AcDbEntity
  8
0
  6
Continuous
 62
     7
100
AcDbLine
 10
6396.2589243202
 20
4409.5422641135
 30
0.0
 11
6288.0187553361
 21
4409.5422641135
 31
0.0
  0
LINE
  5
320
330
1F
100
AcDbEntity
  8
0
  6
Continuous
 62
     7
100
AcDbLine
 10
6260.0187553361
 20
4409.5422641134
 30
0.0
 11
6044.0187553361
 21
4409.5422641134
 31
0.0
  0
LWPOLYLINE
  5
321
330
1F
100
AcDbEntity
  8
0
  6
Continuous
 62
     7
100
AcDbPolyline
 90
        3
 70
   128
 43
0.0
 10
6262.4702453613
 20
5375.5282979634
 10
6262.9990005886
 20
5375.0921501238
 10
6263.4071788503
 20
5374.7529852785
  0
LWPOLYLINE
  5
322
330
1F
100
AcDbEntity
  8
0
  6
Continuous
 62
     7
100
AcDbPolyline
 90
        3
 70
   128
 43
0.0
 10
6284.6298217773
 20
5374.7529852785
 10
6285.1507453211
 20
5375.1852337032
 10
6285.565024927
 20
5375.5282979634
  0
LWPOLYLINE
  5
323
330
1F
100
AcDbEntity
  8
0
  6
Continuous
 62
     7
100
AcDbPolyline
 90
        5
 70
   128
 43
0.0
 10
6281.566619873
 20
5324.9994545927
 10
6285.2657534247
 20
5323.4950686663
 10
6286.868307641
 20
5319.693864327
 10
6285.2631922145
 20
5315.8995020792
 10
6281.5687553361
 20
5314.3994545927
  0
LWPOLYLINE
  5
324
330
1F
100
AcDbEntity
  8
0
  6
Continuous
 62
     7
100
AcDbPolyline
 90
        5
 70
   128
 43
0.0
 10
6266.4680480957
 20
5314.3994545927
 10
6262.7736308918
 20
5315.8999770776
 10
6261.1689632669
 20
5319.7024489821
 10
6262.7730493439
 20
5323.4983818641
 10
6266.4687553361
 20
5324.9994545927
  0
LWPOLYLINE
  5
325
330
1F
100
AcDbEntity
  8
0
  6
Continuous
 62
     7
100
AcDbPolyline
 90
        9
 70
   128
 43
0.0
 10
6262.4816894531
 20
5375.5336454405
 10
6260.0487902807
 20
5379.4055225559
 10
6260.7920081572
 20
5382.4552643672
 10
6263.6667653925
 20
5385.1344243188
 10
6274.0187553361
 20
5387.6683692637
 10
6284.3707452797
 20
5385.1344243188
 10
6287.245502515
 20
5382.4552643672
 10
6287.9887203915
 20
5379.4055225559
 10
6285.5529216984
 20
5375.5336454405
  0
LWPOLYLINE
  5
326
330
1F
100
AcDbEntity
  8
0
  6
Continuous
 62
     7
100
AcDbPolyline
 90
        7
 70
   128
 43
0.0
 10
6274.0173339844
 20
5385.2150060699
 10
6264.9031432795
 20
5383.1613912156
 10
6262.2389012066
 20
5380.97796788
 10
6261.3241626254
 20
5378.4603543732
 10
6262.2389012066
 20
5375.9427423687
 10
6264.9031432795
 20
5373.7593458831
 10
6274.0187553361
 20
5371.7057026766
  0
LWPOLYLINE
  5
327
330
1F
100
AcDbEntity
  8
0
  6
Continuous
 62
     7
100
AcDbPolyline
 90
        7
 70
   128
 43
0.0
 10
6274.0173339844
 20
5371.7057026766
 10
6283.1343673927
 20
5373.7593458831
 10
6285.7986094656
 20
5375.9427423687
 10
6286.7133480468
 20
5378.4603543732
 10
6285.7986094656
 20
5380.97796788
 10
6283.1343673927
 20
5383.1613912156
 10
6274.0187553361
 20
5385.2150060699
  0
LWPOLYLINE
  5
328
330
1F
100
AcDbEntity
  8
0
  6
Continuous
 62
     7
100
AcDbPolyline
 90
        3
 70
   128
 43
0.0
 10
6292.1829223633
 20
5327.0636640593
 10
6271.6066806886
 20
5326.1459781678
 10
6255.8517522811
 20
5327.0636640592
  0
LWPOLYLINE
  5
329
330
1F
100
AcDbEntity
  8
0
  6
Continuous
 62
     7
100
AcDbPolyline
 90
        3
 70
   128
 43
0.0
 10
6255.8517456055
 20
5310.3352451262
 10
6276.4308299836
 20
5311.2529310177
 10
6292.1857583911
 20
5310.3352451262
  0
LWPOLYLINE
  5
32A
330
1F
100
AcDbEntity
  8
0
  6
Continuous
 62
     7
100
AcDbPolyline
 90
        3
 70
   128
 43
0.0
 10
6255.8517456055
 20
5327.0636640592
 10
6254.0473983189
 20
5317.6298815478
 10
6255.8517522811
 20
5310.3352451262
  0
LWPOLYLINE
  5
32B
330
1F
100
AcDbEntity
  8
0
  6
Continuous
 62
     7
100
AcDbPolyline
 90
        3
 70
   128
 43
0.0
 10
6292.1829223633
 20
5310.3352451262
 10
6293.9901123533
 20
5319.7690276377
 10
6292.1857583911
 20
5327.0636640593
  0
LWPOLYLINE
  5
32C
330
1F
100
AcDbEntity
  8
0
  6
Continuous
 62
     7
100
AcDbPolyline
 90
        5
 70
   128
 43
0.0
 10
6281.5170288086
 20
5314.3994545927
 10
6285.3556304961
 20
5315.9609836715
 10
6287.0182791217
 20
5319.9053050067
 10
6285.3530197562
 20
5323.8423838465
 10
6281.5187553361
 20
5325.3994545927
  0
LWPOLYLINE
  5
32D
330
1F
100
AcDbEntity
  8
0
  6
Continuous
 62
     7
100
AcDbPolyline
 90
        5
 70
   128
 43
0.0
 10
6266.5176391602
 20
5325.3994545927
 10
6262.6818801761
 20
5323.837925514
 10
6261.0192315505
 20
5319.8936041788
 10
6262.684490916
 20
5315.956525339
 10
6266.5187553361
 20
5314.3994545927
  0
LWPOLYLINE
  5
32E
330
1F
100
AcDbEntity
  8
0
  6
Continuous
 62
     7
100
AcDbPolyline
 90
        3
 70
   128
 43
0.0
 10
6955.6922912598
 20
5118.7134406159
 10
6956.0377486486
 20
5119.3066354561
 10
6956.3072781794
 20
5119.7726982328
  0
LWPOLYLINE
  5
32F
330
1F
100
AcDbEntity
  8
0
  6
Continuous
 62
     7
100
AcDbPolyline
 90
        3
 70
   128
 43
0.0
 10
6957.6454162598
 20
5118.7134406159
 10
6957.9915948024
 20
5119.3066354561
 10
6958.2611243332
 20
5119.7726982328
  0
LWPOLYLINE
  5
330
330
1F
100
AcDbEntity
  8
0
  6
Continuous
 62
     7
100
AcDbPolyline
 90
        3
 70
   128
 43
0.0
 10
6959.602355957
 20
5118.7134406159
 10
6959.9454409563
 20
5119.3066354561
 10
6960.2149704871
 20
5119.7726982328
  0
LWPOLYLINE
  5
331
330
1F
100
AcDbEntity
  8
0
  6
Continuous
 62
     7
100
AcDbPolyline
 90
        3
 70
   128
 43
0.0
 10
6961.555480957
 20
5118.7134406159
 10
6961.8992871101
 20
5119.3066354561
 10
6962.1688166409
 20
5119.7726982328
  0
LWPOLYLINE
  5
332
330
1F
100
AcDbEntity
  8
0
  6
Continuous
 62
     7
100
AcDbPolyline
 90
        3
 70
   128
 43
0.0
 10
6957.2830200195
 20
5137.6262109527
 10
6956.9411692828
 20
5138.2193846435
 10
6956.6716808979
 20
5138.6854685696
  0
LWPOLYLINE
  5
333
330
1F
100
AcDbEntity
  8
0
  6
Continuous
 62
     7
100
AcDbPolyline
 90
        3
 70
   128
 43
0.0
 10
6959.2361450195
 20
5137.6262109527
 10
6958.8950154366
 20
5138.2193846435
 10
6958.6255270517
 20
5138.6854685696
  0
LWPOLYLINE
  5
334
330
1F
100
AcDbEntity
  8
0
  6
Continuous
 62
     7
100
AcDbPolyline
 90
        3
 70
   128
 43
0.0
 10
6961.1892700195
 20
5137.6262109527
 10
6960.8488615904
 20
5138.2193846435
 10
6960.5793732056
 20
5138.6854685696
  0
LWPOLYLINE
  5
335
330
1F
100
AcDbEntity
  8
0
  6
Continuous
 62
     7
100
AcDbPolyline
 90
        3
 70
   128
 43
0.0
 10
6963.1423950195
 20
5137.6262109527
 10
6962.8027077443
 20
5138.2193846435
 10
6962.5332193594
 20
5138.6854685696
  0
LWPOLYLINE
  5
336
330
1F
100
AcDbEntity
  8
0
  6
Continuous
 62
     7
100
AcDbPolyline
 90
        3
 70
   128
 43
0.0
 10
6955.3298950195
 20
5137.6262109527
 10
6954.9873231289
 20
5138.2193846435
 10
6954.717834744
 20
5138.6854685696
  0
LWPOLYLINE
  5
337
330
1F
100
AcDbEntity
  8
0
  6
Continuous
 62
     7
100
AcDbPolyline
 90
        3
 70
   128
 43
0.0
 10
6956.7565917969
 20
5119.772359841
 10
6957.1029892617
 20
5119.1792304493
 10
6957.3724586292
 20
5118.7131801048
  0
LWPOLYLINE
  5
338
330
1F
100
AcDbEntity
  8
0
  6
Continuous
 62
     7
100
AcDbPolyline
 90
        3
 70
   128
 43
0.0
 10
6958.7135314941
 20
5119.772359841
 10
6959.0568354155
 20
5119.1792304493
 10
6959.3263047831
 20
5118.7131801048
  0
LWPOLYLINE
  5
339
330
1F
100
AcDbEntity
  8
0
  6
Continuous
 62
     7
100
AcDbPolyline
 90
        3
 70
   128
 43
0.0
 10
6960.6666564941
 20
5119.772359841
 10
6961.0106815694
 20
5119.1792304493
 10
6961.2801509369
 20
5118.7131801048
  0
LWPOLYLINE
  5
33A
330
1F
100
AcDbEntity
  8
0
  6
Continuous
 62
     7
100
AcDbPolyline
 90
        3
 70
   128
 43
0.0
 10
6962.6197814941
 20
5119.772359841
 10
6962.9645277232
 20
5119.1792304493
 10
6963.2339970908
 20
5118.7131801048
  0
LWPOLYLINE
  5
33B
330
1F
100
AcDbEntity
  8
0
  6
Continuous
 62
     7
100
AcDbPolyline
 90
        3
 70
   128
 43
0.0
 10
6958.2977294922
 20
5138.4651543375
 10
6957.9558927947
 20
5137.8838482655
 10
6957.686875143
 20
5137.4273441582
  0
LWPOLYLINE
  5
33C
330
1F
100
AcDbEntity
  8
0
  6
Continuous
 62
     7
100
AcDbPolyline
 90
        3
 70
   128
 43
0.0
 10
6960.2508544922
 20
5138.4651543375
 10
6959.9097389485
 20
5137.8838482655
 10
6959.6407212968
 20
5137.4273441582
  0
LWPOLYLINE
  5
33D
330
1F
100
AcDbEntity
  8
0
  6
Continuous
 62
     7
100
AcDbPolyline
 90
        3
 70
   128
 43
0.0
 10
6962.2039794922
 20
5138.4651543375
 10
6961.8635851024
 20
5137.8838482655
 10
6961.5945674507
 20
5137.4273441582
  0
LWPOLYLINE
  5
33E
330
1F
100
AcDbEntity
  8
0
  6
Continuous
 62
     7
100
AcDbPolyline
 90
        3
 70
   128
 43
0.0
 10
6964.1571044922
 20
5138.4651543375
 10
6963.8174312562
 20
5137.8838482655
 10
6963.5484136045
 20
5137.4273441582
  0
LWPOLYLINE
  5
33F
330
1F
100
AcDbEntity
  8
0
  6
Continuous
 62
     7
100
AcDbPolyline
 90
        3
 70
   128
 43
0.0
 10
6956.3407897949
 20
5138.4651543375
 10
6956.0020466408
 20
5137.8838482655
 10
6955.7330289892
 20
5137.4273441582
  0
LWPOLYLINE
  5
340
330
1F
100
AcDbEntity
  8
0
  6
Continuous
 62
     7
100
AcDbPolyline
 90
        3
 70
   128
 43
0.0
 10
6954.8034667969
 20
5119.772359841
 10
6955.1491431078
 20
5119.1792304493
 10
6955.4186124754
 20
5118.7131801048
  0
LWPOLYLINE
  5
341
330
1F
100
AcDbEntity
  8
0
  6
Continuous
 62
     7
100
AcDbPolyline
 90
        7
 70
   128
 43
0.0
 10
7053.882598877
 20
5314.3994545927
 10
7053.1860724814
 20
5314.7905770918
 10
7052.4456217267
 20
5315.8999770776
 10
7051.60600075
 20
5319.7024489821
 10
7052.4453526006
 20
5323.4983818641
 10
7053.1854289675
 20
5324.6075312097
 10
7053.8828609
 20
5324.9994545927
  0
LWPOLYLINE
  5
342
330
1F
100
AcDbEntity
  8
0
  6
Continuous
 62
     7
100
AcDbPolyline
 90
        8
 70
   128
 43
0.0
 10
6954.0977478027
 20
5119.3770145483
 10
6954.0889218167
 20
5119.3316438876
 10
6954.0871598302
 20
5119.3302027489
 10
6954.0853959603
 20
5119.3304798712
 10
6954.0806838775
 20
5119.3393152183
 10
6954.0743847502
 20
5119.368350081
 10
6953.9988171574
 20
5120.6488258268
 10
6953.6904054645
 20
5133.0281517034
  0
LWPOLYLINE
  5
343
330
1F
100
AcDbEntity
  8
0
  6
Continuous
 62
     7
100
AcDbPolyline
 90
        6
 70
   128
 43
0.0
 10
6953.6895751953
 20
5133.0281517034
 10
6954.1734663264
 20
5120.9444004815
 10
6954.2956703341
 20
5119.8291690037
 10
6954.3007033956
 20
5119.8245930807
 10
6954.3057199673
 20
5119.8240500087
 10
6954.3356048688
 20
5119.8732467997
  0
LWPOLYLINE
  5
344
330
1F
100
AcDbEntity
  8
0
  6
Continuous
 62
     7
100
AcDbPolyline
 90
       15
 70
   128
 43
0.0
 10
6955.3298950195
 20
5137.5968147075
 10
6955.3379511755
 20
5137.614609319
 10
6955.3416792671
 20
5137.6194267973
 10
6955.3454175585
 20
5137.6210750373
 10
6955.3491653214
 20
5137.619647996
 10
6955.3529218274
 20
5137.6152396305
 10
6955.3604581559
 20
5137.5978547553
 10
6955.4512768939
 20
5136.7617547935
 10
6955.8103812051
 20
5128.4334967127
 10
6956.1690149282
 20
5120.3932631696
 10
6956.2374159008
 20
5119.8576532293
 10
6956.2486889558
 20
5119.8303374744
 10
6956.2542943221
 20
5119.8247243127
 10
6956.2598791299
 20
5119.8241385538
 10
6956.2894510226
 20
5119.8732467997
  0
LWPOLYLINE
  5
345
330
1F
100
AcDbEntity
  8
0
  6
Continuous
 62
     7
100
AcDbPolyline
 90
       15
 70
   128
 43
0.0
 10
6957.2830200195
 20
5137.5968147075
 10
6957.2917973294
 20
5137.614609319
 10
6957.295525421
 20
5137.6194267973
 10
6957.2992637124
 20
5137.6210750373
 10
6957.3030114752
 20
5137.619647996
 10
6957.3067679812
 20
5137.6152396305
 10
6957.3143043098
 20
5137.5978547553
 10
6957.4051230477
 20
5136.7617547935
 10
6957.7642273589
 20
5128.4334967127
 10
6958.1228610821
 20
5120.3932631696
 10
6958.1912620547
 20
5119.8576532293
 10
6958.2025351097
 20
5119.8303374744
 10
6958.208140476
 20
5119.8247243127
 10
6958.2137252837
 20
5119.8241385538
 10
6958.2432971765
 20
5119.8732467997
  0
LWPOLYLINE
  5
346
330
1F
100
AcDbEntity
  8
0
  6
Continuous
 62
     7
100
AcDbPolyline
 90
       15
 70
   128
 43
0.0
 10
6959.2361450195
 20
5137.5968147075
 10
6959.2456434832
 20
5137.614609319
 10
6959.2493715748
 20
5137.6194267973
 10
6959.2531098662
 20
5137.6210750373
 10
6959.2568576291
 20
5137.619647996
 10
6959.2606141351
 20
5137.6152396305
 10
6959.2681504636
 20
5137.5978547553
 10
6959.3589692016
 20
5136.7617547935
 10
6959.7180735128
 20
5128.4334967127
 10
6960.0767072359
 20
5120.3932631696
 10
6960.1451082085
 20
5119.8576532293
 10
6960.1563812635
 20
5119.8303374744
 10
6960.1619866298
 20
5119.8247243127
 10
6960.1675714376
 20
5119.8241385538
 10
6960.1971433303
 20
5119.8732467997
  0
LWPOLYLINE
  5
347
330
1F
100
AcDbEntity
  8
0
  6
Continuous
 62
     7
100
AcDbPolyline
 90
       15
 70
   128
 43
0.0
 10
6961.1892700195
 20
5137.5968147075
 10
6961.1994896371
 20
5137.614609319
 10
6961.2032177287
 20
5137.6194267973
 10
6961.2069560201
 20
5137.6210750373
 10
6961.2107037829
 20
5137.619647996
 10
6961.2144602889
 20
5137.6152396305
 10
6961.2219966175
 20
5137.5978547553
 10
6961.3128153554
 20
5136.7617547935
 10
6961.6719196666
 20
5128.4334967127
 10
6962.0305533898
 20
5120.3932631696
 10
6962.0989543624
 20
5119.8576532293
 10
6962.1102274173
 20
5119.8303374744
 10
6962.1158327837
 20
5119.8247243127
 10
6962.1214175914
 20
5119.8241385538
 10
6962.1509894842
 20
5119.8732467997
  0
LWPOLYLINE
  5
348
330
1F
100
AcDbEntity
  8
0
  6
Continuous
 62
     7
100
AcDbPolyline
 90
        7
 70
   128
 43
0.0
 10
6963.1423950195
 20
5137.5968147075
 10
6963.1559888674
 20
5137.6186905445
 10
6963.1597878815
 20
5137.6218757137
 10
6963.1635969417
 20
5137.6221056843
 10
6963.1750766714
 20
5137.6056844534
 10
6963.1866189971
 20
5137.5648986099
 10
6963.3087584605
 20
5136.0698973845
  0
LWPOLYLINE
  5
349
330
1F
100
AcDbEntity
  8
0
  6
Continuous
 62
     7
100
AcDbPolyline
 90
        7
 70
   128
 43
0.0
 10
6954.7462463379
 20
5138.5865613494
 10
6955.459271543
 20
5121.1001591037
 10
6955.6365219795
 20
5118.7395007303
 10
6955.6514207292
 20
5118.7043664298
 10
6955.656991542
 20
5118.7017743247
 10
6955.6625512419
 20
5118.7053161907
 10
6955.6957023877
 20
5118.8290960534
  0
LWPOLYLINE
  5
34A
330
1F
100
AcDbEntity
  8
0
  6
Continuous
 62
     7
100
AcDbPolyline
 90
       14
 70
   128
 43
0.0
 10
6956.6688537598
 20
5138.5739523969
 10
6956.683206125
 20
5138.5893875433
 10
6956.6888560857
 20
5138.5937558302
 10
6956.694522539
 20
5138.5941049738
 10
6956.711668256
 20
5138.5590378691
 10
6956.7290191544
 20
5138.465616074
 10
6956.7639770103
 20
5138.1349067614
 10
6957.0386433611
 20
5132.0293220289
 10
6957.405539739
 20
5121.2587064882
 10
6957.5884624422
 20
5118.7467839708
 10
6957.6038428014
 20
5118.705983975
 10
6957.6095939425
 20
5118.7018298402
 10
6957.6153335965
 20
5118.7041522845
 10
6957.6495485416
 20
5118.8290960534
  0
LWPOLYLINE
  5
34B
330
1F
100
AcDbEntity
  8
0
  6
Continuous
 62
     7
100
AcDbPolyline
 90
       14
 70
   128
 43
0.0
 10
6958.6219787598
 20
5138.5739523969
 10
6958.6370522788
 20
5138.5893875433
 10
6958.6427022395
 20
5138.5937558302
 10
6958.6483686928
 20
5138.5941049738
 10
6958.6655144099
 20
5138.5590378691
 10
6958.6828653082
 20
5138.465616074
 10
6958.7178231641
 20
5138.1349067614
 10
6958.9924895149
 20
5132.0293220289
 10
6959.3593858929
 20
5121.2587064882
 10
6959.5423085961
 20
5118.7467839708
 10
6959.5576889552
 20
5118.705983975
 10
6959.5634400964
 20
5118.7018298402
 10
6959.5691797503
 20
5118.7041522845
 10
6959.6033946954
 20
5118.8290960534
  0
LWPOLYLINE
  5
34C
330
1F
100
AcDbEntity
  8
0
  6
Continuous
 62
     7
100
AcDbPolyline
 90
       14
 70
   128
 43
0.0
 10
6960.578918457
 20
5138.5739523969
 10
6960.5908984326
 20
5138.5893875433
 10
6960.5965483934
 20
5138.5937558302
 10
6960.6022148467
 20
5138.5941049738
 10
6960.6193605637
 20
5138.5590378691
 10
6960.6367114621
 20
5138.465616074
 10
6960.671669318
 20
5138.1349067614
 10
6960.9463356687
 20
5132.0293220289
 10
6961.3132320467
 20
5121.2587064882
 10
6961.4961547499
 20
5118.7467839708
 10
6961.5115351091
 20
5118.705983975
 10
6961.5172862502
 20
5118.7018298402
 10
6961.5230259042
 20
5118.7041522845
 10
6961.5572408493
 20
5118.8290960534
  0
LWPOLYLINE
  5
34D
330
1F
100
AcDbEntity
  8
0
  6
Continuous
 62
     7
100
AcDbPolyline
 90
        6
 70
   128
 43
0.0
 10
6962.532043457
 20
5138.5739523969
 10
6962.5466692149
 20
5138.5907804164
 10
6962.5516313205
 20
5138.5937245599
 10
6962.5566059382
 20
5138.5934795167
 10
6962.5868175037
 20
5138.4936714675
 10
6962.7473420587
 20
5136.0698903555
  0
LWPOLYLINE
  5
34E
330
1F
100
AcDbEntity
  8
0
  6
Continuous
 62
     7
100
AcDbPolyline
 90
        4
 70
   128
 43
0.0
 10
6954.0596008301
 20
5138.0123972032
 10
6954.14865033
 20
5138.000525131
 10
6954.2366138521
 20
5137.9104659065
 10
6954.7479557126
 20
5134.6459914654
  0
LWPOLYLINE
  5
34F
330
1F
100
AcDbEntity
  8
0
  6
Continuous
 62
     7
100
AcDbPolyline
 90
        8
 70
   128
 43
0.0
 10
6954.7462463379
 20
5134.6459914654
 10
6955.2624081553
 20
5120.1976775416
 10
6955.3921550666
 20
5118.7846082202
 10
6955.3975153244
 20
5118.7767087119
 10
6955.402856092
 20
5118.774171354
 10
6955.4108363095
 20
5118.7788384354
 10
6955.418787891
 20
5118.7913492035
 10
6955.4346433275
 20
5118.8294435507
  0
LWPOLYLINE
  5
350
330
1F
100
AcDbEntity
  8
0
  6
Continuous
 62
     7
100
AcDbPolyline
 90
       16
 70
   128
 43
0.0
 10
6956.4094543457
 20
5138.5980235612
 10
6956.4262886475
 20
5138.6488353761
 10
6956.4338754476
 20
5138.6644469442
 10
6956.4376810555
 20
5138.6680985039
 10
6956.4414957533
 20
5138.6685929258
 10
6956.4529882268
 20
5138.6518667271
 10
6956.4645395839
 20
5138.6095729295
 10
6956.4877485606
 20
5138.457265038
 10
6956.5340988426
 20
5137.9446455723
 10
6956.9000068773
 20
5128.7029207941
 10
6957.2656996569
 20
5119.4416888932
 10
6957.3354296456
 20
5118.81591707
 10
6957.3469274906
 20
5118.782847992
 10
6957.3526445336
 20
5118.7756346049
 10
6957.3583399297
 20
5118.7743609858
 10
6957.3884894814
 20
5118.8294435507
  0
LWPOLYLINE
  5
351
330
1F
100
AcDbEntity
  8
0
  6
Continuous
 62
     7
100
AcDbPolyline
 90
       16
 70
   128
 43
0.0
 10
6958.3625793457
 20
5138.5980235612
 10
6958.3801348013
 20
5138.6488353761
 10
6958.3877216014
 20
5138.6644469442
 10
6958.3915272094
 20
5138.6680985039
 10
6958.3953419071
 20
5138.6685929258
 10
6958.4068343806
 20
5138.6518667271
 10
6958.4183857378
 20
5138.6095729295
 10
6958.4415947145
 20
5138.457265038
 10
6958.4879449964
 20
5137.9446455723
 10
6958.8538530311
 20
5128.7029207941
 10
6959.2195458108
 20
5119.4416888932
 10
6959.2892757995
 20
5118.81591707
 10
6959.3007736444
 20
5118.782847992
 10
6959.3064906874
 20
5118.7756346049
 10
6959.3121860835
 20
5118.7743609858
 10
6959.3423356352
 20
5118.8294435507
  0
LWPOLYLINE
  5
352
330
1F
100
AcDbEntity
  8
0
  6
Continuous
 62
     7
100
AcDbPolyline
 90
       16
 70
   128
 43
0.0
 10
6960.3157043457
 20
5138.5980235612
 10
6960.3339809552
 20
5138.6488353761
 10
6960.3415677553
 20
5138.6644469442
 10
6960.3453733632
 20
5138.6680985039
 10
6960.349188061
 20
5138.6685929258
 10
6960.3606805344
 20
5138.6518667271
 10
6960.3722318916
 20
5138.6095729295
 10
6960.3954408683
 20
5138.457265038
 10
6960.4417911503
 20
5137.9446455723
 10
6960.807699185
 20
5128.7029207941
 10
6961.1733919646
 20
5119.4416888932
 10
6961.2431219533
 20
5118.81591707
 10
6961.2546197983
 20
5118.782847992
 10
6961.2603368413
 20
5118.7756346049
 10
6961.2660322374
 20
5118.7743609858
 10
6961.296181789
 20
5118.8294435507
  0
LWPOLYLINE
  5
353
330
1F
100
AcDbEntity
  8
0
  6
Continuous
 62
     7
100
AcDbPolyline
 90
       16
 70
   128
 43
0.0
 10
6962.272644043
 20
5138.5980235612
 10
6962.287827109
 20
5138.6488353761
 10
6962.2954139091
 20
5138.6644469442
 10
6962.2992195171
 20
5138.6680985039
 10
6962.3030342148
 20
5138.6685929258
 10
6962.3145266883
 20
5138.6518667271
 10
6962.3260780455
 20
5138.6095729295
 10
6962.3492870222
 20
5138.457265038
 10
6962.3956373041
 20
5137.9446455723
 10
6962.7615453388
 20
5128.7029207941
 10
6963.1272381185
 20
5119.4416888932
 10
6963.1969681072
 20
5118.81591707
 10
6963.2084659521
 20
5118.782847992
 10
6963.2141829951
 20
5118.7756346049
 10
6963.2198783912
 20
5118.7743609858
 10
6963.2500279429
 20
5118.8294435507
  0
LWPOLYLINE
  5
354
330
1F
100
AcDbEntity
  8
0
  6
Continuous
 62
     7
100
AcDbPolyline
 90
        7
 70
   128
 43
0.0
 10
6964.225769043
 20
5138.5980235612
 10
6964.2506870988
 20
5138.6661330329
 10
6964.2547327056
 20
5138.6690139326
 10
6964.2587875907
 20
5138.6684901409
 10
6964.2696408814
 20
5138.6510468638
 10
6964.2841851562
 20
5138.5935872315
 10
6964.4569575477
 20
5136.06991176
  0
LWPOLYLINE
  5
355
330
1F
100
AcDbEntity
  8
0
  6
Continuous
 62
     7
100
AcDbPolyline
 90
        8
 70
   128
 43
0.0
 10
6953.8459777832
 20
5137.6419043446
 10
6954.3264450307
 20
5128.9628019512
 10
6954.6851611431
 20
5120.6199100093
 10
6954.776243729
 20
5119.8382421029
 10
6954.7837272979
 20
5119.8282660331
 10
6954.7893111467
 20
5119.8280582076
 10
6954.7948736958
 20
5119.8330719745
 10
6954.8059632145
 20
5119.8518185632
  0
LWPOLYLINE
  5
356
330
1F
100
AcDbEntity
  8
0
  6
Continuous
 62
     7
100
AcDbPolyline
 90
        8
 70
   128
 43
0.0
 10
6955.7991027832
 20
5137.6419043446
 10
6956.2802911845
 20
5128.9628019512
 10
6956.639007297
 20
5120.6199100093
 10
6956.7300898828
 20
5119.8382421029
 10
6956.7375734517
 20
5119.8282660331
 10
6956.7431573006
 20
5119.8280582076
 10
6956.7487198497
 20
5119.8330719745
 10
6956.7598093684
 20
5119.8518185632
  0
LWPOLYLINE
  5
357
330
1F
100
AcDbEntity
  8
0
  6
Continuous
 62
     7
100
AcDbPolyline
 90
        8
 70
   128
 43
0.0
 10
6957.7522277832
 20
5137.6419043446
 10
6958.2341373384
 20
5128.9628019512
 10
6958.5928534508
 20
5120.6199100093
 10
6958.6839360367
 20
5119.8382421029
 10
6958.6914196056
 20
5119.8282660331
 10
6958.6970034544
 20
5119.8280582076
 10
6958.7025660035
 20
5119.8330719745
 10
6958.7136555222
 20
5119.8518185632
  0
LWPOLYLINE
  5
358
330
1F
100
AcDbEntity
  8
0
  6
Continuous
 62
     7
100
AcDbPolyline
 90
        8
 70
   128
 43
0.0
 10
6959.7053527832
 20
5137.6419043446
 10
6960.1879834922
 20
5128.9628019512
 10
6960.5466996047
 20
5120.6199100093
 10
6960.6377821905
 20
5119.8382421029
 10
6960.6452657594
 20
5119.8282660331
 10
6960.6508496083
 20
5119.8280582076
 10
6960.6564121574
 20
5119.8330719745
 10
6960.6675016761
 20
5119.8518185632
  0
LWPOLYLINE
  5
359
330
1F
100
AcDbEntity
  8
0
  6
Continuous
 62
     7
100
AcDbPolyline
 90
        8
 70
   128
 43
0.0
 10
6961.6622924805
 20
5137.6419043446
 10
6962.1418296461
 20
5128.9628019512
 10
6962.5005457585
 20
5120.6199100093
 10
6962.5916283444
 20
5119.8382421029
 10
6962.5991119133
 20
5119.8282660331
 10
6962.6046957621
 20
5119.8280582076
 10
6962.6102583112
 20
5119.8330719745
 10
6962.6213478299
 20
5119.8518185632
  0
LWPOLYLINE
  5
35A
330
1F
100
AcDbEntity
  8
0
  6
Continuous
 62
     7
100
AcDbPolyline
 90
        3
 70
   128
 43
0.0
 10
6963.6154174805
 20
5137.6419043446
 10
6963.7183648715
 20
5137.1657623234
 10
6963.7981841399
 20
5136.0699035121
  0
LWPOLYLINE
  5
35B
330
1F
100
AcDbEntity
  8
0
  6
Continuous
 62
     7
100
AcDbPolyline
 90
        3
 70
   128
 43
0.0
 10
6953.6895751953
 20
5133.0281517034
 10
6953.6904054645
 20
5136.6755837262
 10
6953.6904054645
 20
5137.6419043446
  0
LWPOLYLINE
  5
35C
330
1F
100
AcDbEntity
  8
0
  6
Continuous
 62
     7
100
AcDbPolyline
 90
        3
 70
   128
 43
0.0
 10
7076.244354248
 20
5372.1590658704
 10
7091.076393575
 20
5381.3302610733
 10
7101.3244829589
 20
5387.6683692637
  0
LWPOLYLINE
  5
35D
330
1F
100
AcDbEntity
  8
0
  6
Continuous
 62
     7
100
AcDbPolyline
 90
        3
 70
   128
 43
0.0
 10
7101.3221740723
 20
5385.2150060699
 10
7087.4967039711
 20
5377.231534149
 10
7077.9256831068
 20
5371.7057026766
  0
LWPOLYLINE
  5
35E
330
1F
100
AcDbEntity
  8
0
  6
Continuous
 62
     7
100
AcDbPolyline
 90
       11
 70
   128
 43
0.0
 10
7047.5997924805
 20
5310.3352451262
 10
7054.5369791576
 20
5311.2061746158
 10
7054.8963471195
 20
5311.2541042389
 10
7054.9219071718
 20
5311.2575235672
 10
7054.9236290711
 20
5311.2577541917
 10
7054.9236867017
 20
5311.2577619637
 10
7054.9236893449
 20
5311.2577623293
 10
7054.9236894879
 20
5311.2577623606
 10
7054.9236823996
 20
5311.2577614369
 10
7054.9234466847
 20
5311.2577300589
 10
7054.9185975915
 20
5311.2570823378
  0
LWPOLYLINE
  5
35F
330
1F
100
AcDbEntity
  8
0
  6
Continuous
 62
     7
100
AcDbPolyline
 90
        3
 70
   128
 43
0.0
 10
7047.5997924805
 20
5327.0636640592
 10
7045.6511420374
 20
5317.6298815478
 10
7047.6032005325
 20
5310.3352451262
  0
LWPOLYLINE
  5
360
330
1F
100
AcDbEntity
  8
0
  6
Continuous
 62
     7
100
AcDbPolyline
 90
       10
 70
   128
 43
0.0
 10
7054.9163818359
 20
5326.1418268476
 10
7054.95213257
 20
5326.1373368182
 10
7054.952289682
 20
5326.1373160464
 10
7054.9522977602
 20
5326.1373150183
 10
7054.9522989464
 20
5326.1373149143
 10
7054.9522804135
 20
5326.1373175091
 10
7054.9515597661
 20
5326.1374147919
 10
7054.9276383307
 20
5326.140624581
 10
7054.5329368565
 20
5326.1932720318
 10
7047.6032005325
 20
5327.0636640592
  0
LWPOLYLINE
  5
361
330
1F
100
AcDbEntity
  8
0
  6
Continuous
 62
     7
100
AcDbPolyline
 90
        5
 70
   128
 43
0.0
 10
7053.897857666
 20
5325.3994545927
 10
7052.4008207747
 20
5323.837925514
 10
7051.5202827666
 20
5319.8936041788
 10
7052.40257242
 20
5315.956525339
 10
7053.8979791015
 20
5314.3994545927
  0
LWPOLYLINE
  5
362
330
1F
100
AcDbEntity
  8
0
  6
Continuous
 62
     7
100
AcDbPolyline
 90
        3
 70
   128
 43
0.0
 10
6154.0298461914
 20
4517.0094371987
 10
6154.6172324251
 20
4516.6715578266
 10
6155.0763055842
 20
4516.4060427384
  0
LWPOLYLINE
  5
363
330
1F
100
AcDbEntity
  8
0
  6
Continuous
 62
     7
100
AcDbPolyline
 90
        3
 70
   128
 43
0.0
 10
6154.0298461914
 20
4515.0555910449
 10
6154.6172324251
 20
4514.7177116727
 10
6155.0763055842
 20
4514.4521965846
  0
LWPOLYLINE
  5
364
330
1F
100
AcDbEntity
  8
0
  6
Continuous
 62
     7
100
AcDbPolyline
 90
        3
 70
   128
 43
0.0
 10
6154.0298461914
 20
4513.1017448911
 10
6154.6172324251
 20
4512.7638655189
 10
6155.0763055842
 20
4512.4983504308
  0
LWPOLYLINE
  5
365
330
1F
100
AcDbEntity
  8
0
  6
Continuous
 62
     7
100
AcDbPolyline
 90
        3
 70
   128
 43
0.0
 10
6154.0298461914
 20
4511.1478987372
 10
6154.6172324251
 20
4510.810019365
 10
6155.0763055842
 20
4510.5445042769
  0
LWPOLYLINE
  5
366
330
1F
100
AcDbEntity
  8
0
  6
Continuous
 62
     7
100
AcDbPolyline
 90
        3
 70
   128
 43
0.0
 10
6172.9431152344
 20
4515.4198517932
 10
6173.5384314853
 20
4515.7629645209
 10
6174.004571751
 20
4516.0325141218
  0
LWPOLYLINE
  5
367
330
1F
100
AcDbEntity
  8
0
  6
Continuous
 62
     7
100
AcDbPolyline
 90
        3
 70
   128
 43
0.0
 10
6172.9431152344
 20
4513.4660056393
 10
6173.5384314853
 20
4513.8091183671
 10
6174.004571751
 20
4514.078667968
  0
LWPOLYLINE
  5
368
330
1F
100
AcDbEntity
  8
0
  6
Continuous
 62
     7
100
AcDbPolyline
 90
        3
 70
   128
 43
0.0
 10
6172.9431152344
 20
4511.5121594855
 10
6173.5384314853
 20
4511.8552722132
 10
6174.004571751
 20
4512.1248218141
  0
LWPOLYLINE
  5
369
330
1F
100
AcDbEntity
  8
0
  6
Continuous
 62
     7
100
AcDbPolyline
 90
        3
 70
   128
 43
0.0
 10
6172.9431152344
 20
4509.5583133316
 10
6173.5384314853
 20
4509.9014260594
 10
6174.004571751
 20
4510.1709756603
  0
LWPOLYLINE
  5
36A
330
1F
100
AcDbEntity
  8
0
  6
Continuous
 62
     7
100
AcDbPolyline
 90
        3
 70
   128
 43
0.0
 10
6172.9431152344
 20
4517.373697947
 10
6173.3238566021
 20
4517.5927189154
 10
6173.621396339
 20
4517.764783593
  0
LWPOLYLINE
  5
36B
330
1F
100
AcDbEntity
  8
0
  6
Continuous
 62
     7
100
AcDbPolyline
 90
        3
 70
   128
 43
0.0
 10
6155.0903320312
 20
4515.9470925223
 10
6154.5007293291
 20
4515.6039827391
 10
6154.0345860081
 20
4515.3344352693
  0
LWPOLYLINE
  5
36C
330
1F
100
AcDbEntity
  8
0
  6
Continuous
 62
     7
100
AcDbPolyline
 90
        3
 70
   128
 43
0.0
 10
6155.0903320312
 20
4513.9932463684
 10
6154.5007293291
 20
4513.6501365852
 10
6154.0345860081
 20
4513.3805891154
  0
LWPOLYLINE
  5
36D
330
1F
100
AcDbEntity
  8
0
  6
Continuous
 62
     7
100
AcDbPolyline
 90
        3
 70
   128
 43
0.0
 10
6155.0903320312
 20
4512.0394002146
 10
6154.5007293291
 20
4511.6962904314
 10
6154.0345860081
 20
4511.4267429616
  0
LWPOLYLINE
  5
36E
330
1F
100
AcDbEntity
  8
0
  6
Continuous
 62
     7
100
AcDbPolyline
 90
        3
 70
   128
 43
0.0
 10
6155.0903320312
 20
4510.0855540607
 10
6154.5007293291
 20
4509.7424442775
 10
6154.0345860081
 20
4509.4728968078
  0
LWPOLYLINE
  5
36F
330
1F
100
AcDbEntity
  8
0
  6
Continuous
 62
     7
100
AcDbPolyline
 90
        3
 70
   128
 43
0.0
 10
6173.999786377
 20
4514.3575121924
 10
6173.4195483155
 20
4514.6948570052
 10
6172.961205088
 20
4514.9599518477
  0
LWPOLYLINE
  5
370
330
1F
100
AcDbEntity
  8
0
  6
Continuous
 62
     7
100
AcDbPolyline
 90
        3
 70
   128
 43
0.0
 10
6173.999786377
 20
4512.4036660385
 10
6173.4195483155
 20
4512.7410108514
 10
6172.961205088
 20
4513.0061056939
  0
LWPOLYLINE
  5
371
330
1F
100
AcDbEntity
  8
0
  6
Continuous
 62
     7
100
AcDbPolyline
 90
        3
 70
   128
 43
0.0
 10
6173.999786377
 20
4510.4498198847
 10
6173.4195483155
 20
4510.7871646975
 10
6172.961205088
 20
4511.05225954
  0
LWPOLYLINE
  5
372
330
1F
100
AcDbEntity
  8
0
  6
Continuous
 62
     7
100
AcDbPolyline
 90
        3
 70
   128
 43
0.0
 10
6173.999786377
 20
4508.4959737308
 10
6173.4195483155
 20
4508.8333185437
 10
6172.961205088
 20
4509.0984133862
  0
LWPOLYLINE
  5
373
330
1F
100
AcDbEntity
  8
0
  6
Continuous
 62
     7
100
AcDbPolyline
 90
        3
 70
   128
 43
0.0
 10
6173.999786377
 20
4516.3113583462
 10
6173.4195483155
 20
4516.6487031591
 10
6172.961205088
 20
4516.9137980016
  0
LWPOLYLINE
  5
374
330
1F
100
AcDbEntity
  8
0
  6
Continuous
 62
     7
100
AcDbPolyline
 90
        3
 70
   128
 43
0.0
 10
6155.0903320312
 20
4517.9009386761
 10
6154.5007293291
 20
4517.5578288929
 10
6154.0345860081
 20
4517.2882814231
  0
ARC
  5
375
330
1F
100
AcDbEntity
  8
0
  6
Continuous
 62
     7
100
AcDbCircle
 10
6414.3467851778
 20
4369.997896703
 30
0.0
 40
7.013085886990447
100
AcDbArc
 50
222.6408218408
 51
256.5849606743
  0
ARC
  5
376
330
1F
100
AcDbEntity
  8
0
  6
Continuous
 62
     7
100
AcDbCircle
 10
6403.1799892687
 20
4369.9868376891
 30
0.0
 40
6.999028866324282
100
AcDbArc
 50
283.3224743818
 51
317.3762778325
  0
ARC
  5
377
330
1F
100
AcDbEntity
  8
0
  6
Continuous
 62
     7
100
AcDbCircle
 10
6404.4469790072
 20
4360.096157154
 30
0.0
 40
7.000676887863098
100
AcDbArc
 50
13.3423528341
 51
47.3745606696
  0
ARC
  5
378
330
1F
100
AcDbEntity
  8
0
  6
Continuous
 62
     7
100
AcDbCircle
 10
6413.0847177299
 20
4360.085107882
 30
0.0
 40
7.018185394193494
100
AcDbArc
 50
132.647537248
 51
166.598833142
  0
ARC
  5
379
330
1F
100
AcDbEntity
  8
0
  6
Continuous
 62
     7
100
AcDbCircle
 10
6443.0952745353
 20
4341.2757665719
 30
0.0
 40
7.031625798559082
100
AcDbArc
 50
193.4466873296
 51
227.3363851643
  0
ARC
  5
37A
330
1F
100
AcDbEntity
  8
0
  6
Continuous
 62
     7
100
AcDbCircle
 10
6433.1819177372
 20
4331.367832402
 30
0.0
 40
6.996022187981839
100
AcDbArc
 50
42.6202886434
 51
76.6981979152
  0
ARC
  5
37B
330
1F
100
AcDbEntity
  8
0
  6
Continuous
 62
     7
100
AcDbCircle
 10
6433.181501219
 20
4339.9852047509
 30
0.0
 40
6.99681055593084
100
AcDbArc
 50
283.3037806173
 51
317.377732824
  0
ARC
  5
37C
330
1F
100
AcDbEntity
  8
0
  6
Continuous
 62
     7
100
AcDbCircle
 10
6443.0945871073
 20
4330.0769621334
 30
0.0
 40
7.030863464481275
100
AcDbArc
 50
132.6617220423
 51
166.5552054639
  0
ARC
  5
37D
330
1F
100
AcDbEntity
  8
0
  6
Continuous
 62
     7
100
AcDbCircle
 10
6407.622058814
 20
4364.5380913611
 30
0.0
 40
3.138498778912872
100
AcDbArc
 50
205.7180345334
 51
244.2312803809
  0
ARC
  5
37E
330
1F
100
AcDbEntity
  8
0
  6
Continuous
 62
     7
100
AcDbCircle
 10
6409.9171143494
 20
4364.5109564808
 30
0.0
 40
3.104240564238552
100
AcDbArc
 50
295.610476433
 51
334.5330475867
  0
ARC
  5
37F
330
1F
100
AcDbEntity
  8
0
  6
Continuous
 62
     7
100
AcDbCircle
 10
6437.626007466
 20
4334.5408954037
 30
0.0
 40
3.143273178117949
100
AcDbArc
 50
205.7328500619
 51
244.1686438805
  0
ARC
  5
380
330
1F
100
AcDbEntity
  8
0
  6
Continuous
 62
     7
100
AcDbCircle
 10
6437.6316515527
 20
4336.7978273497
 30
0.0
 40
3.156881447980751
100
AcDbArc
 50
115.7748896231
 51
154.1120252336
  0
LWPOLYLINE
  5
381
330
1F
100
AcDbEntity
  8
0
  6
Continuous
 62
     7
100
AcDbPolyline
 90
        5
 70
   128
 43
0.0
 10
6276.1192321777
 20
4239.1599818586
 10
6277.0185998109
 20
4241.2699790255
 10
6276.1628265844
 20
4243.3988489304
 10
6274.0489326137
 20
4244.3003743702
 10
6271.9160671206
 20
4243.4403163914
  0
LWPOLYLINE
  5
382
330
1F
100
AcDbEntity
  8
0
  6
Continuous
 62
     7
100
AcDbPolyline
 90
        5
 70
   128
 43
0.0
 10
6271.915435791
 20
4243.4403163914
 10
6271.0188805969
 20
4241.3279405508
 10
6271.8757571761
 20
4239.20110745
 10
6273.989300826
 20
4238.3006707502
 10
6276.1206759168
 20
4239.1599818586
  0
LWPOLYLINE
  5
383
330
1F
100
AcDbEntity
  8
0
  6
Continuous
 62
     7
100
AcDbPolyline
 90
        5
 70
   128
 43
0.0
 10
6284.3017578125
 20
4233.7774795714
 10
6285.6100419656
 20
4235.6609575892
 10
6285.2030643121
 20
4237.9219905115
 10
6283.3151975158
 20
4239.2322943298
 10
6281.0550965068
 20
4238.823006479
  0
LWPOLYLINE
  5
384
330
1F
100
AcDbEntity
  8
0
  6
Continuous
 62
     7
100
AcDbPolyline
 90
        5
 70
   128
 43
0.0
 10
6281.0516357422
 20
4238.823006479
 10
6279.7472982418
 20
4236.9369771226
 10
6280.155781032
 20
4234.677775791
 10
6282.0436954917
 20
4233.3685683981
 10
6284.3020423225
 20
4233.7774795714
  0
LWPOLYLINE
  5
385
330
1F
100
AcDbEntity
  8
0
  6
Continuous
 62
     7
100
AcDbPolyline
 90
        5
 70
   128
 43
0.0
 10
6284.3170166016
 20
4223.7893577966
 10
6285.6153245583
 20
4225.6856658932
 10
6285.1898843921
 20
4227.9423259703
 10
6283.2950188876
 20
4229.2366004493
 10
6281.0367792654
 20
4228.8111197667
  0
LWPOLYLINE
  5
386
330
1F
100
AcDbEntity
  8
0
  6
Continuous
 62
     7
100
AcDbPolyline
 90
        5
 70
   128
 43
0.0
 10
6281.0363769531
 20
4228.8111197667
 10
6279.7420385247
 20
4226.912246865
 10
6280.168889466
 20
4224.6575720906
 10
6282.0639420023
 20
4223.3642543444
 10
6284.3203604914
 20
4223.7893577966
  0
LWPOLYLINE
  5
387
330
1F
100
AcDbEntity
  8
0
  6
Continuous
 62
     7
100
AcDbPolyline
 90
        5
 70
   128
 43
0.0
 10
6276.1650085449
 20
4219.2065470411
 10
6277.0185498556
 20
4221.335637984
 10
6276.116343813
 20
4223.4453157877
 10
6273.9831349278
 20
4224.3003146757
 10
6271.8696861339
 20
4223.3937305346
  0
LWPOLYLINE
  5
388
330
1F
100
AcDbEntity
  8
0
  6
Continuous
 62
     7
100
AcDbPolyline
 90
        5
 70
   128
 43
0.0
 10
6271.8696594238
 20
4223.3937305346
 10
6271.0189993589
 20
4221.2622628863
 10
6271.9222704336
 20
4219.1546577838
 10
6274.0550993198
 20
4218.3007463076
 10
6276.1670689731
 20
4219.2065470411
  0
LWPOLYLINE
  5
389
330
1F
100
AcDbEntity
  8
0
  6
Continuous
 62
     7
100
AcDbPolyline
 90
        5
 70
   128
 43
0.0
 10
6267.505645752
 20
4224.2073236732
 10
6268.3582719242
 20
4226.3376232132
 10
6267.452087364
 20
4228.4492228233
 10
6265.3183252666
 20
4229.300257121
 10
6263.2086934281
 20
4228.3929711624
  0
LWPOLYLINE
  5
38A
330
1F
100
AcDbEntity
  8
0
  6
Continuous
 62
     7
100
AcDbPolyline
 90
        5
 70
   128
 43
0.0
 10
6263.2064819336
 20
4228.3929711624
 10
6262.3587720857
 20
4226.2602191902
 10
6263.2659822908
 20
4224.150790307
 10
6265.3996178472
 20
4223.300807927
 10
6267.5075716514
 20
4224.2073236732
  0
LWPOLYLINE
  5
38B
330
1F
100
AcDbEntity
  8
0
  6
Continuous
 62
     7
100
AcDbPolyline
 90
        5
 70
   128
 43
0.0
 10
6267.4827575684
 20
4234.1851362427
 10
6268.3584891005
 20
4236.3090810676
 10
6267.4741458503
 20
4238.4275071414
 10
6265.3519544825
 20
4239.3005190086
 10
6263.230521305
 20
4238.4151658727
  0
LWPOLYLINE
  5
38C
330
1F
100
AcDbEntity
  8
0
  6
Continuous
 62
     7
100
AcDbPolyline
 90
        5
 70
   128
 43
0.0
 10
6263.2293701172
 20
4238.4151658727
 10
6262.3585242932
 20
4236.288780128
 10
6263.2438271672
 20
4234.172580354
 10
6265.3659471334
 20
4233.3005353921
 10
6267.4857355429
 20
4234.1851362427
  0
LWPOLYLINE
  5
38D
330
1F
100
AcDbEntity
  8
0
  6
Continuous
 62
     7
100
AcDbPolyline
 90
        3
 70
   128
 43
0.0
 10
6164.0167236328
 20
4518.1556341347
 10
6159.1032278115
 20
4517.7641571642
 10
6155.9789357348
 20
4517.4685767452
  0
LINE
  5
38E
330
1F
100
AcDbEntity
  8
0
  6
Continuous
 62
     7
100
AcDbLine
 10
6156.192779541
 20
4518.5261269933
 30
0.0
 11
6164.0187553361
 21
4518.5261269933
 31
0.0
  0
LWPOLYLINE
  5
38F
330
1F
100
AcDbEntity
  8
0
  6
Continuous
 62
     7
100
AcDbPolyline
 90
        8
 70
   128
 43
0.0
 10
6162.5175476074
 20
4517.4685767452
 10
6172.8577569155
 20
4517.7219923418
 10
6173.5898185994
 20
4517.7696258282
 10
6173.6425047831
 20
4517.7816599272
 10
6173.6447275375
 20
4517.7836803081
 10
6173.6449666432
 20
4517.7857056114
 10
6173.6166508113
 20
4517.7965831477
 10
6173.5592559434
 20
4517.807535473
  0
LWPOLYLINE
  5
390
330
1F
100
AcDbEntity
  8
0
  6
Continuous
 62
     7
100
AcDbPolyline
 90
        7
 70
   128
 43
0.0
 10
6155.101776123
 20
4518.4270101154
 10
6155.0865022145
 20
4518.4364084354
 10
6155.0810077454
 20
4518.4411040534
 10
6155.0799784047
 20
4518.443450357
 10
6155.0803638002
 20
4518.445795421
 10
6155.0898450062
 20
4518.4520415172
 10
6156.1938087619
 20
4518.5261269933
  0
LWPOLYLINE
  5
391
330
1F
100
AcDbEntity
  8
0
  6
Continuous
 62
     7
100
AcDbPolyline
 90
        5
 70
   128
 43
0.0
 10
6172.8515625
 20
4517.374395433
 10
6163.7527453008
 20
4516.8954291497
 10
6155.71132372
 20
4516.5352698577
 10
6155.1790398126
 20
4516.4460160652
 10
6155.1832716616
 20
4516.4155651497
  0
LWPOLYLINE
  5
392
330
1F
100
AcDbEntity
  8
0
  6
Continuous
 62
     7
100
AcDbPolyline
 90
        5
 70
   128
 43
0.0
 10
6172.8515625
 20
4515.4205492791
 10
6163.7527453008
 20
4514.9415829959
 10
6155.71132372
 20
4514.5814237038
 10
6155.1790398126
 20
4514.4921699113
 10
6155.1832716616
 20
4514.4617189958
  0
LWPOLYLINE
  5
393
330
1F
100
AcDbEntity
  8
0
  6
Continuous
 62
     7
100
AcDbPolyline
 90
        5
 70
   128
 43
0.0
 10
6172.8515625
 20
4513.4667031253
 10
6163.7527453008
 20
4512.987736842
 10
6155.71132372
 20
4512.62757755
 10
6155.1790398126
 20
4512.5383237575
 10
6155.1832716616
 20
4512.507872842
  0
LWPOLYLINE
  5
394
330
1F
100
AcDbEntity
  8
0
  6
Continuous
 62
     7
100
AcDbPolyline
 90
        5
 70
   128
 43
0.0
 10
6172.8515625
 20
4511.5128569714
 10
6163.7527453008
 20
4511.0338906882
 10
6155.71132372
 20
4510.6737313961
 10
6155.1790398126
 20
4510.5844776036
 10
6155.1832716616
 20
4510.5540266881
  0
LWPOLYLINE
  5
395
330
1F
100
AcDbEntity
  8
0
  6
Continuous
 62
     7
100
AcDbPolyline
 90
        3
 70
   128
 43
0.0
 10
6172.8515625
 20
4509.5590108176
 10
6166.2278684913
 20
4509.166089561
 10
6157.9750433813
 20
4508.8586129271
  0
LWPOLYLINE
  5
396
330
1F
100
AcDbEntity
  8
0
  6
Continuous
 62
     7
100
AcDbPolyline
 90
        7
 70
   128
 43
0.0
 10
6162.5175476074
 20
4517.4685767452
 10
6154.6097963537
 20
4517.1365624858
 10
6154.1353900573
 20
4517.0752227333
 10
6154.1177866506
 20
4517.0648347805
 10
6154.1153589681
 20
4517.0596168793
 10
6154.1164426815
 20
4517.0543857962
 10
6154.1586369609
 20
4517.0263499859
  0
LWPOLYLINE
  5
397
330
1F
100
AcDbEntity
  8
0
  6
Continuous
 62
     7
100
AcDbPolyline
 90
       12
 70
   128
 43
0.0
 10
6173.9349365234
 20
4516.0490652835
 10
6174.0077160099
 20
4516.0260518151
 10
6174.0098218636
 20
4516.0222392678
 10
6174.0087018765
 20
4516.0184337862
 10
6173.2563720403
 20
4515.9276634087
 10
6164.015124201
 20
4515.5608975796
 10
6154.7566683031
 20
4515.1941976205
 10
6154.1511636687
 20
4515.1264704026
 10
6154.1224263463
 20
4515.1150203538
 10
6154.116548148
 20
4515.1092634995
 10
6154.1154184417
 20
4515.1034887097
 10
6154.1586369609
 20
4515.072503832
  0
LWPOLYLINE
  5
398
330
1F
100
AcDbEntity
  8
0
  6
Continuous
 62
     7
100
AcDbPolyline
 90
       12
 70
   128
 43
0.0
 10
6173.9349365234
 20
4514.0952191296
 10
6174.0077160099
 20
4514.0722056613
 10
6174.0098218636
 20
4514.068393114
 10
6174.0087018765
 20
4514.0645876324
 10
6173.2563720403
 20
4513.9738172549
 10
6164.015124201
 20
4513.6070514257
 10
6154.7566683031
 20
4513.2403514666
 10
6154.1511636687
 20
4513.1726242488
 10
6154.1224263463
 20
4513.1611742
 10
6154.116548148
 20
4513.1554173457
 10
6154.1154184417
 20
4513.1496425558
 10
6154.1586369609
 20
4513.1186576782
  0
LWPOLYLINE
  5
399
330
1F
100
AcDbEntity
  8
0
  6
Continuous
 62
     7
100
AcDbPolyline
 90
       12
 70
   128
 43
0.0
 10
6173.9349365234
 20
4512.1413729758
 10
6174.0077160099
 20
4512.1183595074
 10
6174.0098218636
 20
4512.1145469601
 10
6174.0087018765
 20
4512.1107414785
 10
6173.2563720403
 20
4512.019971101
 10
6164.015124201
 20
4511.6532052719
 10
6154.7566683031
 20
4511.2865053128
 10
6154.1511636687
 20
4511.2187780949
 10
6154.1224263463
 20
4511.2073280461
 10
6154.116548148
 20
4511.2015711918
 10
6154.1154184417
 20
4511.195796402
 10
6154.1586369609
 20
4511.1648115243
  0
LWPOLYLINE
  5
39A
330
1F
100
AcDbEntity
  8
0
  6
Continuous
 62
     7
100
AcDbPolyline
 90
        7
 70
   128
 43
0.0
 10
6173.9349365234
 20
4510.1875268219
 10
6174.0094186828
 20
4510.1621234958
 10
6174.009316376
 20
4510.1579181403
 10
6174.0053624963
 20
4510.1537208677
 10
6173.9769434625
 20
4510.1425615176
 10
6172.3742174003
 20
4510.0078015242
 10
6157.2603030971
 20
4509.4691903991
  0
LWPOLYLINE
  5
39B
330
1F
100
AcDbEntity
  8
0
  6
Continuous
 62
     7
100
AcDbPolyline
 90
        4
 70
   128
 43
0.0
 10
6155.9753417969
 20
4517.4685767452
 10
6154.1910280455
 20
4517.3204591458
 10
6154.1488964588
 20
4517.2954119182
 10
6154.1397423732
 20
4517.2702570227
  0
LWPOLYLINE
  5
39C
330
1F
100
AcDbEntity
  8
0
  6
Continuous
 62
     7
100
AcDbPolyline
 90
        5
 70
   128
 43
0.0
 10
6173.9807128906
 20
4516.2937381012
 10
6164.0134971404
 20
4515.8054153012
 10
6154.7582208573
 20
4515.4387643581
 10
6154.1537712412
 20
4515.3474086029
 10
6154.1397423732
 20
4515.3164108689
  0
LWPOLYLINE
  5
39D
330
1F
100
AcDbEntity
  8
0
  6
Continuous
 62
     7
100
AcDbPolyline
 90
        5
 70
   128
 43
0.0
 10
6173.9807128906
 20
4514.3398919474
 10
6164.0134971404
 20
4513.8515691474
 10
6154.7582208573
 20
4513.4849182042
 10
6154.1537712412
 20
4513.393562449
 10
6154.1397423732
 20
4513.362564715
  0
LWPOLYLINE
  5
39E
330
1F
100
AcDbEntity
  8
0
  6
Continuous
 62
     7
100
AcDbPolyline
 90
        5
 70
   128
 43
0.0
 10
6173.9807128906
 20
4512.3860457935
 10
6164.0134971404
 20
4511.8977229935
 10
6154.7582208573
 20
4511.5310720504
 10
6154.1537712412
 20
4511.4397162952
 10
6154.1397423732
 20
4511.4087185612
  0
LWPOLYLINE
  5
39F
330
1F
100
AcDbEntity
  8
0
  6
Continuous
 62
     7
100
AcDbPolyline
 90
        5
 70
   128
 43
0.0
 10
6173.9807128906
 20
4510.4321996397
 10
6164.0134971404
 20
4509.9438768397
 10
6154.7582208573
 20
4509.5772258965
 10
6154.1537712412
 20
4509.4858701413
 10
6154.1397423732
 20
4509.4548724074
  0
LWPOLYLINE
  5
3A0
330
1F
100
AcDbEntity
  8
0
  6
Continuous
 62
     7
100
AcDbPolyline
 90
        3
 70
   128
 43
0.0
 10
6173.9807128906
 20
4508.4783534859
 10
6166.7398113067
 20
4508.0751166444
 10
6157.2603264399
 20
4507.7595749101
  0
LWPOLYLINE
  5
3A1
330
1F
100
AcDbEntity
  8
0
  6
Continuous
 62
     7
100
AcDbPolyline
 90
        5
 70
   128
 43
0.0
 10
6164.0167236328
 20
4518.3695382864
 10
6157.9016481794
 20
4518.1352303821
 10
6155.3459122212
 20
4517.95972916
 10
6155.2451286321
 20
4517.9302743731
 10
6155.2199708676
 20
4517.9005891652
  0
LWPOLYLINE
  5
3A2
330
1F
100
AcDbEntity
  8
0
  6
Continuous
 62
     7
100
AcDbPolyline
 90
        6
 70
   128
 43
0.0
 10
6172.9278564453
 20
4516.9043150217
 10
6164.3012924743
 20
4516.4254914127
 10
6158.0046356517
 20
4516.1863556518
 10
6155.352827044
 20
4516.0071115711
 10
6155.2462051396
 20
4515.977050094
 10
6155.2199708676
 20
4515.9467430114
  0
LWPOLYLINE
  5
3A3
330
1F
100
AcDbEntity
  8
0
  6
Continuous
 62
     7
100
AcDbPolyline
 90
        6
 70
   128
 43
0.0
 10
6172.9278564453
 20
4514.9504688678
 10
6164.3012924743
 20
4514.4716452589
 10
6158.0046356517
 20
4514.2325094979
 10
6155.352827044
 20
4514.0532654172
 10
6155.2462051396
 20
4514.0232039402
 10
6155.2199708676
 20
4513.9928968575
  0
LWPOLYLINE
  5
3A4
330
1F
100
AcDbEntity
  8
0
  6
Continuous
 62
     7
100
AcDbPolyline
 90
        6
 70
   128
 43
0.0
 10
6172.9278564453
 20
4512.996622714
 10
6164.3012924743
 20
4512.517799105
 10
6158.0046356517
 20
4512.2786633441
 10
6155.352827044
 20
4512.0994192634
 10
6155.2462051396
 20
4512.0693577863
 10
6155.2199708676
 20
4512.0390507037
  0
LWPOLYLINE
  5
3A5
330
1F
100
AcDbEntity
  8
0
  6
Continuous
 62
     7
100
AcDbPolyline
 90
        6
 70
   128
 43
0.0
 10
6172.9278564453
 20
4511.0427765601
 10
6164.3012924743
 20
4510.5639529512
 10
6158.0046356517
 20
4510.3248171902
 10
6155.352827044
 20
4510.1455731095
 10
6155.2462051396
 20
4510.1155116325
 10
6155.2199708676
 20
4510.0852045498
  0
LWPOLYLINE
  5
3A6
330
1F
100
AcDbEntity
  8
0
  6
Continuous
 62
     7
100
AcDbPolyline
 90
        3
 70
   128
 43
0.0
 10
6172.9278564453
 20
4509.0889304063
 10
6166.4484304826
 20
4508.6855775594
 10
6157.9750500507
 20
4508.3701513888
  0
LWPOLYLINE
  5
3A7
330
1F
100
AcDbEntity
  8
0
  6
Continuous
 62
     7
100
AcDbPolyline
 90
        5
 70
   128
 43
0.0
 10
6271.7475891113
 20
4233.5764549323
 10
6271.7282113148
 20
4234.1590137144
 10
6272.1029711091
 20
4234.6197283312
 10
6272.6891050894
 20
4234.7132402821
 10
6273.181523864
 20
4234.4022562652
  0
LWPOLYLINE
  5
3A8
330
1F
100
AcDbEntity
  8
0
  6
Continuous
 62
     7
100
AcDbPolyline
 90
        3
 70
   128
 43
0.0
 10
6271.6331481934
 20
4232.2176963396
 10
6272.0291938715
 20
4232.5135016572
 10
6272.0320743554
 20
4232.9072181739
  0
LWPOLYLINE
  5
3A9
330
1F
100
AcDbEntity
  8
0
  6
Continuous
 62
     7
100
AcDbPolyline
 90
        5
 70
   128
 43
0.0
 10
6270.9121704102
 20
4230.4747248191
 10
6270.3979603979
 20
4230.7461006227
 10
6270.1863498093
 20
4231.3010095074
 10
6270.3984331007
 20
4231.8553723823
 10
6270.9139625263
 20
4232.1263274849
  0
LWPOLYLINE
  5
3AA
330
1F
100
AcDbEntity
  8
0
  6
Continuous
 62
     7
100
AcDbPolyline
 90
        3
 70
   128
 43
0.0
 10
6272.029876709
 20
4229.6938341302
 10
6271.9735070021
 20
4230.1840031339
 10
6271.6339787388
 20
4230.3833559645
  0
LWPOLYLINE
  5
3AB
330
1F
100
AcDbEntity
  8
0
  6
Continuous
 62
     7
100
AcDbPolyline
 90
        5
 70
   128
 43
0.0
 10
6273.1781005859
 20
4228.1987960388
 10
6272.6885048089
 20
4227.887613586
 10
6272.1021345436
 20
4227.9818070143
 10
6271.7280836177
 20
4228.4426578518
 10
6271.7511939984
 20
4229.0245973718
  0
LWPOLYLINE
  5
3AC
330
1F
100
AcDbEntity
  8
0
  6
Continuous
 62
     7
100
AcDbPolyline
 90
        3
 70
   128
 43
0.0
 10
6274.4140625
 20
4228.7766639426
 10
6273.9630684667
 20
4228.9710276287
 10
6273.6206597195
 20
4228.7766639426
  0
LWPOLYLINE
  5
3AD
330
1F
100
AcDbEntity
  8
0
  6
Continuous
 62
     7
100
AcDbPolyline
 90
        5
 70
   128
 43
0.0
 10
6276.2832641602
 20
4229.0245973718
 10
6276.3092993574
 20
4228.4420385897
 10
6275.9345395631
 20
4227.9813239729
 10
6275.3484055828
 20
4227.887812022
 10
6274.8559868082
 20
4228.1987960388
  0
LWPOLYLINE
  5
3AE
330
1F
100
AcDbEntity
  8
0
  6
Continuous
 62
     7
100
AcDbPolyline
 90
        3
 70
   128
 43
0.0
 10
6276.4015197754
 20
4230.3833559645
 10
6276.0083168007
 20
4230.0875506468
 10
6276.0054363168
 20
4229.6938341302
  0
LWPOLYLINE
  5
3AF
330
1F
100
AcDbEntity
  8
0
  6
Continuous
 62
     7
100
AcDbPolyline
 90
        5
 70
   128
 43
0.0
 10
6277.1224975586
 20
4232.1263274849
 10
6277.6395502743
 20
4231.8549516814
 10
6277.8511608629
 20
4231.3000427966
 10
6277.6390775715
 20
4230.7456799217
 10
6277.1235481459
 20
4230.4747248191
  0
LWPOLYLINE
  5
3B0
330
1F
100
AcDbEntity
  8
0
  6
Continuous
 62
     7
100
AcDbPolyline
 90
        3
 70
   128
 43
0.0
 10
6276.0047912598
 20
4232.9072181739
 10
6276.0640036701
 20
4232.4170491701
 10
6276.4035319334
 20
4232.2176963396
  0
LWPOLYLINE
  5
3B1
330
1F
100
AcDbEntity
  8
0
  6
Continuous
 62
     7
100
AcDbPolyline
 90
        5
 70
   128
 43
0.0
 10
6274.8527526855
 20
4234.4022562652
 10
6275.3490058633
 20
4234.713438718
 10
6275.9353761286
 20
4234.6192452898
 10
6276.3094270545
 20
4234.1583944522
 10
6276.2863166738
 20
4233.5764549323
  0
LWPOLYLINE
  5
3B2
330
1F
100
AcDbEntity
  8
0
  6
Continuous
 62
     7
100
AcDbPolyline
 90
        3
 70
   128
 43
0.0
 10
6273.6206054688
 20
4233.8243883614
 10
6274.0744422055
 20
4233.6300246753
 10
6274.4168509527
 20
4233.8243883614
  0
LWPOLYLINE
  5
3B3
330
1F
100
AcDbEntity
  8
0
  6
Continuous
 62
     7
100
AcDbPolyline
 90
        3
 70
   128
 43
0.0
 10
6292.1829223633
 20
4424.6133319253
 10
6289.9666788911
 20
4422.6409215111
 10
6288.0187553361
 20
4421.3818839529
  0
LWPOLYLINE
  5
3B4
330
1F
100
AcDbEntity
  8
0
  6
Continuous
 62
     7
100
AcDbPolyline
 90
        3
 70
   128
 43
0.0
 10
6260.0173950195
 20
4421.3053793177
 10
6257.5878659564
 20
4423.0104424015
 10
6255.8517522811
 20
4424.6133319253
  0
LWPOLYLINE
  5
3B5
330
1F
100
AcDbEntity
  8
0
  6
Continuous
 62
     7
100
AcDbPolyline
 90
       12
 70
   128
 43
0.0
 10
6255.8517456055
 20
4424.6133319253
 10
6254.1307868007
 20
4426.4665498672
 10
6254.052617312
 20
4426.5593407839
 10
6254.0514533768
 20
4426.5607247821
 10
6254.051388725
 20
4426.5608013692
 10
6254.051386059
 20
4426.5608044809
 10
6254.0513855769
 20
4426.5608050238
 10
6254.0513856589
 20
4426.5608048954
 10
6254.0514063341
 20
4426.5607800377
 10
6254.0514617315
 20
4426.5607138489
 10
6254.0524546531
 20
4426.5595304505
 10
6254.0617812004
 20
4426.5484234017
  0
LWPOLYLINE
  5
3B6
330
1F
100
AcDbEntity
  8
0
  6
Continuous
 62
     7
100
AcDbPolyline
 90
       10
 70
   128
 43
0.0
 10
6293.9720153809
 20
4426.5484234017
 10
6293.9842794252
 20
4426.5585778652
 10
6293.9849366538
 20
4426.5593576944
 10
6293.9851145387
 20
4426.5595681634
 10
6293.9851160269
 20
4426.5595698443
 10
6293.9851147987
 20
4426.5595682968
 10
6293.9850488886
 20
4426.5594894395
 10
6293.9836823649
 20
4426.5578632972
 10
6293.904381308
 20
4426.4637801676
 10
6292.1857583911
 20
4424.6133319253
  0
ENDSEC
  0
SECTION
  2
OBJECTS
  0
DICTIONARY
  5
C
330
0
100
AcDbDictionary
281
     1
  3
ACAD_GROUP
350
D
  3
ACAD_LAYOUT
350
1A
  3
ACAD_MLINESTYLE
350
17
  3
ACAD_PLOTSETTINGS
350
19
  3
ACAD_PLOTSTYLENAME
350
E
  3
ACAD_SCALELIST
350
47
  3
DWGPROPS
350
3B7
  0
DICTIONARY
  5
D
102
{ACAD_REACTORS
330
C
102
}
330
C
100
AcDbDictionary
281
     1
  0
DICTIONARY
  5
1A
102
{ACAD_REACTORS
330
C
102
}
330
C
100
AcDbDictionary
281
     1
  3
Layout1
350
1E
  3
Layout2
350
26
  3
Model
350
22
  0
DICTIONARY
  5
17
102
{ACAD_REACTORS
330
C
102
}
330
C
100
AcDbDictionary
281
     1
  3
Standard
350
18
  0
DICTIONARY
  5
19
102
{ACAD_REACTORS
330
C
102
}
330
C
100
AcDbDictionary
281
     1
  0
ACDBDICTIONARYWDFLT
  5
E
102
{ACAD_REACTORS
330
C
102
}
330
C
100
AcDbDictionary
281
     1
  3
Normal
350
F
100
AcDbDictionaryWithDefault
340
F
  0
DICTIONARY
  5
47
102
{ACAD_REACTORS
330
C
102
}
330
C
100
AcDbDictionary
281
     1
  3
A0
350
48
  3
A1
350
49
  3
A2
350
4A
  3
A3
350
4B
  3
A4
350
4C
  3
A5
350
4D
  3
A6
350
4E
  3
A7
350
4F
  3
A8
350
50
  3
A9
350
51
  3
B0
350
52
  3
B1
350
53
  3
B2
350
54
  3
B3
350
55
  3
B4
350
56
  3
B5
350
57
  3
B6
350
58
  3
B7
350
59
  3
B8
350
5A
  3
B9
350
5B
  3
C0
350
5C
  3
C1
350
5D
  3
C2
350
5E
  3
C3
350
5F
  3
C4
350
60
  3
C5
350
61
  3
C6
350
62
  3
C7
350
63
  3
C8
350
64
  3
C9
350
65
  3
D0
350
66
  3
D1
350
67
  3
D2
350
68
  0
XRECORD
  5
3B7
102
{ACAD_REACTORS
330
C
102
}
330
C
100
AcDbXrecord
280
     1
  1
DWGPROPS COOKIE
  2

  3

  4

  6

  7

  8
radek.stransky
  9

300
=
301
=
302
=
303
=
304
=
305
=
306
=
307
=
308
=
309
=
 40
0.0
 41
2459096.453126724
 42
2459096.453159028
  1

 90
        0
  0
LAYOUT
  5
1E
102
{ACAD_REACTORS
330
1A
102
}
330
1A
100
AcDbPlotSettings
  1

  2
none_device
  4

  6

 40
0.0
 41
0.0
 42
0.0
 43
0.0
 44
0.0
 45
0.0
 46
0.0
 47
0.0
 48
0.0
 49
0.0
140
0.0
141
0.0
142
1.0
143
1.0
 70
   688
 72
     1
 73
     0
 74
     5
  7

 75
    16
147
1.0
148
0.0
149
0.0
100
AcDbLayout
  1
Layout1
 70
     1
 71
     1
 10
0.0
 20
0.0
 11
420.0
 21
297.0
 12
0.0
 22
0.0
 32
0.0
 14
1.0000000000E+20
 24
1.0000000000E+20
 34
1.0000000000E+20
 15
-1.0000000000E+20
 25
-1.0000000000E+20
 35
-1.0000000000E+20
146
0.0
 13
0.0
 23
0.0
 33
0.0
 16
1.0
 26
0.0
 36
0.0
 17
0.0
 27
1.0
 37
0.0
 76
     0
330
1B
  0
LAYOUT
  5
26
102
{ACAD_REACTORS
330
1A
102
}
330
1A
100
AcDbPlotSettings
  1

  2
none_device
  4

  6

 40
0.0
 41
0.0
 42
0.0
 43
0.0
 44
0.0
 45
0.0
 46
0.0
 47
0.0
 48
0.0
 49
0.0
140
0.0
141
0.0
142
1.0
143
1.0
 70
   688
 72
     1
 73
     0
 74
     5
  7

 75
    16
147
1.0
148
0.0
149
0.0
100
AcDbLayout
  1
Layout2
 70
     1
 71
     2
 10
0.0
 20
0.0
 11
0.0
 21
0.0
 12
0.0
 22
0.0
 32
0.0
 14
0.0
 24
0.0
 34
0.0
 15
0.0
 25
0.0
 35
0.0
146
0.0
 13
0.0
 23
0.0
 33
0.0
 16
1.0
 26
0.0
 36
0.0
 17
0.0
 27
1.0
 37
0.0
 76
     0
330
23
  0
LAYOUT
  5
22
102
{ACAD_REACTORS
330
1A
102
}
330
1A
100
AcDbPlotSettings
  1

  2
none_device
  4
ANSI_A_(11.00_x_8.50_Inches)
  6

 40
6.35
 41
19.05
 42
6.35000508
 43
19.05000254
 44
279.4
 45
215.9
 46
-870.338119116
 47
-621.9336055057
 48
0.0
 49
0.0
140
0.0
141
0.0
142
0.0058760433
143
1.0
 70
  1696
 72
     0
 73
     0
 74
     0
  7

 75
     0
147
0.0179189148
148
-1300.4909072572
149
0.0
100
AcDbLayout
  1
Model
 70
     1
 71
     0
 10
0.0
 20
0.0
 11
420.0
 21
297.0
 12
0.0
 22
0.0
 32
0.0
 14
6024.0187553361
 24
4046.6133319253
 34
0.0
 15
7425.6032005325
 25
5478.6994545927
 35
0.0
146
0.0
 13
0.0
 23
0.0
 33
0.0
 16
1.0
 26
0.0
 36
0.0
 17
0.0
 27
1.0
 37
0.0
 76
     0
330
1F
331
29
  0
MLINESTYLE
  5
18
102
{ACAD_REACTORS
330
17
102
}
330
17
100
AcDbMlineStyle
  2
Standard
 70
     0
  3

 62
   256
 51
90.0
 52
90.0
 71
     2
 49
0.5
 62
   256
  6
BYLAYER
 49
-0.5
 62
   256
  6
BYLAYER
  0
ACDBPLACEHOLDER
  5
F
102
{ACAD_REACTORS
330
E
102
}
330
E
  0
SCALE
  5
48
102
{ACAD_REACTORS
330
47
102
}
330
47
100
AcDbScale
 70
     0
300
1:1
140
1.0
141
1.0
290
     1
  0
SCALE
  5
49
102
{ACAD_REACTORS
330
47
102
}
330
47
100
AcDbScale
 70
     0
300
1:2
140
1.0
141
2.0
290
     0
  0
SCALE
  5
4A
102
{ACAD_REACTORS
330
47
102
}
330
47
100
AcDbScale
 70
     0
300
1:4
140
1.0
141
4.0
290
     0
  0
SCALE
  5
4B
102
{ACAD_REACTORS
330
47
102
}
330
47
100
AcDbScale
 70
     0
300
1:5
140
1.0
141
5.0
290
     0
  0
SCALE
  5
4C
102
{ACAD_REACTORS
330
47
102
}
330
47
100
AcDbScale
 70
     0
300
1:8
140
1.0
141
8.0
290
     0
  0
SCALE
  5
4D
102
{ACAD_REACTORS
330
47
102
}
330
47
100
AcDbScale
 70
     0
300
1:10
140
1.0
141
10.0
290
     0
  0
SCALE
  5
4E
102
{ACAD_REACTORS
330
47
102
}
330
47
100
AcDbScale
 70
     0
300
1:16
140
1.0
141
16.0
290
     0
  0
SCALE
  5
4F
102
{ACAD_REACTORS
330
47
102
}
330
47
100
AcDbScale
 70
     0
300
1:20
140
1.0
141
20.0
290
     0
  0
SCALE
  5
50
102
{ACAD_REACTORS
330
47
102
}
330
47
100
AcDbScale
 70
     0
300
1:30
140
1.0
141
30.0
290
     0
  0
SCALE
  5
51
102
{ACAD_REACTORS
330
47
102
}
330
47
100
AcDbScale
 70
     0
300
1:40
140
1.0
141
40.0
290
     0
  0
SCALE
  5
52
102
{ACAD_REACTORS
330
47
102
}
330
47
100
AcDbScale
 70
     0
300
1:50
140
1.0
141
50.0
290
     0
  0
SCALE
  5
53
102
{ACAD_REACTORS
330
47
102
}
330
47
100
AcDbScale
 70
     0
300
1:100
140
1.0
141
100.0
290
     0
  0
SCALE
  5
54
102
{ACAD_REACTORS
330
47
102
}
330
47
100
AcDbScale
 70
     0
300
2:1
140
2.0
141
1.0
290
     0
  0
SCALE
  5
55
102
{ACAD_REACTORS
330
47
102
}
330
47
100
AcDbScale
 70
     0
300
4:1
140
4.0
141
1.0
290
     0
  0
SCALE
  5
56
102
{ACAD_REACTORS
330
47
102
}
330
47
100
AcDbScale
 70
     0
300
8:1
140
8.0
141
1.0
290
     0
  0
SCALE
  5
57
102
{ACAD_REACTORS
330
47
102
}
330
47
100
AcDbScale
 70
     0
300
10:1
140
10.0
141
1.0
290
     0
  0
SCALE
  5
58
102
{ACAD_REACTORS
330
47
102
}
330
47
100
AcDbScale
 70
     0
300
100:1
140
100.0
141
1.0
290
     0
  0
SCALE
  5
59
102
{ACAD_REACTORS
330
47
102
}
330
47
100
AcDbScale
 70
     0
300
1/128" = 1'-0"
140
0.0078125
141
12.0
290
     0
  0
SCALE
  5
5A
102
{ACAD_REACTORS
330
47
102
}
330
47
100
AcDbScale
 70
     0
300
1/64" = 1'-0"
140
0.015625
141
12.0
290
     0
  0
SCALE
  5
5B
102
{ACAD_REACTORS
330
47
102
}
330
47
100
AcDbScale
 70
     0
300
1/32" = 1'-0"
140
0.03125
141
12.0
290
     0
  0
SCALE
  5
5C
102
{ACAD_REACTORS
330
47
102
}
330
47
100
AcDbScale
 70
     0
300
1/16" = 1'-0"
140
0.0625
141
12.0
290
     0
  0
SCALE
  5
5D
102
{ACAD_REACTORS
330
47
102
}
330
47
100
AcDbScale
 70
     0
300
3/32" = 1'-0"
140
0.09375
141
12.0
290
     0
  0
SCALE
  5
5E
102
{ACAD_REACTORS
330
47
102
}
330
47
100
AcDbScale
 70
     0
300
1/8" = 1'-0"
140
0.125
141
12.0
290
     0
  0
SCALE
  5
5F
102
{ACAD_REACTORS
330
47
102
}
330
47
100
AcDbScale
 70
     0
300
3/16" = 1'-0"
140
0.1875
141
12.0
290
     0
  0
SCALE
  5
60
102
{ACAD_REACTORS
330
47
102
}
330
47
100
AcDbScale
 70
     0
300
1/4" = 1'-0"
140
0.25
141
12.0
290
     0
  0
SCALE
  5
61
102
{ACAD_REACTORS
330
47
102
}
330
47
100
AcDbScale
 70
     0
300
3/8" = 1'-0"
140
0.375
141
12.0
290
     0
  0
SCALE
  5
62
102
{ACAD_REACTORS
330
47
102
}
330
47
100
AcDbScale
 70
     0
300
1/2" = 1'-0"
140
0.5
141
12.0
290
     0
  0
SCALE
  5
63
102
{ACAD_REACTORS
330
47
102
}
330
47
100
AcDbScale
 70
     0
300
3/4" = 1'-0"
140
0.75
141
12.0
290
     0
  0
SCALE
  5
64
102
{ACAD_REACTORS
330
47
102
}
330
47
100
AcDbScale
 70
     0
300
1" = 1'-0"
140
1.0
141
12.0
290
     0
  0
SCALE
  5
65
102
{ACAD_REACTORS
330
47
102
}
330
47
100
AcDbScale
 70
     0
300
1-1/2" = 1'-0"
140
1.5
141
12.0
290
     0
  0
SCALE
  5
66
102
{ACAD_REACTORS
330
47
102
}
330
47
100
AcDbScale
 70
     0
300
3" = 1'-0"
140
3.0
141
12.0
290
     0
  0
SCALE
  5
67
102
{ACAD_REACTORS
330
47
102
}
330
47
100
AcDbScale
 70
     0
300
6" = 1'-0"
140
6.0
141
12.0
290
     0
  0
SCALE
  5
68
102
{ACAD_REACTORS
330
47
102
}
330
47
100
AcDbScale
 70
     0
300
1'-0" = 1'-0"
140
12.0
141
12.0
290
     0
  0
ENDSEC
  0
EOF
