  0
SECTION
  2
HEADER
  9
$ACADVER
  1
AC1015
  9
$ACADMAINTVER
 70
     6
  9
$DWGCODEPAGE
  3
ANSI_1250
  9
$INSBASE
 10
0.0
 20
0.0
 30
0.0
  9
$EXTMIN
 10
0.0
 20
0.0
 30
0.0
  9
$EXTMAX
 10
20000.0
 20
10000.0
 30
0.0
  9
$LIMMIN
 10
0.0
 20
0.0
  9
$LIMMAX
 10
20000.0
 20
10000.0
  9
$ORTHOMODE
 70
     0
  9
$REGENMODE
 70
     1
  9
$FILLMODE
 70
     1
  9
$QTEXTMODE
 70
     0
  9
$MIRRTEXT
 70
     1
  9
$LTSCALE
 40
1.0
  9
$ATTMODE
 70
     1
  9
$TEXTSIZE
 40
2.0
  9
$TRACEWID
 40
1.0
  9
$TEXTSTYLE
  7
Standard
  9
$CLAYER
  8
0
  9
$CELTYPE
  6
ByLayer
  9
$CECOLOR
 62
   256
  9
$CELTSCALE
 40
1.0
  9
$DISPSILH
 70
     0
  9
$DIMSCALE
 40
1.0
  9
$DIMASZ
 40
2.0
  9
$DIMEXO
 40
1.0
  9
$DIMDLI
 40
3.75
  9
$DIMRND
 40
0.0
  9
$DIMDLE
 40
0.0
  9
$DIMEXE
 40
1.0
  9
$DIMTP
 40
0.0
  9
$DIMTM
 40
0.0
  9
$DIMTXT
 40
2.0
  9
$DIMCEN
 40
2.5
  9
$DIMTSZ
 40
0.0
  9
$DIMTOL
 70
     0
  9
$DIMLIM
 70
     0
  9
$DIMTIH
 70
     1
  9
$DIMTOH
 70
     1
  9
$DIMSE1
 70
     0
  9
$DIMSE2
 70
     0
  9
$DIMTAD
 70
     1
  9
$DIMZIN
 70
     0
  9
$DIMBLK
  1

  9
$DIMASO
 70
     1
  9
$DIMSHO
 70
     1
  9
$DIMPOST
  1

  9
$DIMAPOST
  1

  9
$DIMALT
 70
     0
  9
$DIMALTD
 70
     3
  9
$DIMALTF
 40
0.0393700787
  9
$DIMLFAC
 40
1.0
  9
$DIMTOFL
 70
     1
  9
$DIMTVP
 40
0.0
  9
$DIMTIX
 70
     0
  9
$DIMSOXD
 70
     0
  9
$DIMSAH
 70
     0
  9
$DIMBLK1
  1

  9
$DIMBLK2
  1

  9
$DIMSTYLE
  2
ISO-25
  9
$DIMCLRD
 70
     0
  9
$DIMCLRE
 70
     0
  9
$DIMCLRT
 70
     0
  9
$DIMTFAC
 40
1.0
  9
$DIMGAP
 40
1.524
  9
$DIMJUST
 70
     0
  9
$DIMSD1
 70
     0
  9
$DIMSD2
 70
     0
  9
$DIMTOLJ
 70
     0
  9
$DIMTZIN
 70
     0
  9
$DIMALTZ
 70
     0
  9
$DIMALTTZ
 70
     0
  9
$DIMUPT
 70
     0
  9
$DIMDEC
 70
     2
  9
$DIMTDEC
 70
     0
  9
$DIMALTU
 70
     2
  9
$DIMALTTD
 70
     3
  9
$DIMTXSTY
  7
Standard
  9
$DIMAUNIT
 70
     0
  9
$DIMADEC
 70
     2
  9
$DIMALTRND
 40
0.0
  9
$DIMAZIN
 70
     0
  9
$DIMDSEP
 70
    44
  9
$DIMATFIT
 70
     3
  9
$DIMFRAC
 70
     0
  9
$DIMLDRBLK
  1

  9
$DIMLUNIT
 70
     2
  9
$DIMLWD
 70
    -2
  9
$DIMLWE
 70
    -2
  9
$DIMTMOVE
 70
     0
  9
$LUNITS
 70
     2
  9
$LUPREC
 70
     3
  9
$SKETCHINC
 40
1.0
  9
$FILLETRAD
 40
10.0
  9
$AUNITS
 70
     0
  9
$AUPREC
 70
     2
  9
$MENU
  1
.
  9
$ELEVATION
 40
0.0
  9
$PELEVATION
 40
0.0
  9
$THICKNESS
 40
0.0
  9
$LIMCHECK
 70
     0
  9
$CHAMFERA
 40
0.0
  9
$CHAMFERB
 40
0.0
  9
$CHAMFERC
 40
0.0
  9
$CHAMFERD
 40
0.0
  9
$SKPOLY
 70
     0
  9
$TDCREATE
 40
2459093.587415174
  9
$TDUCREATE
 40
2459093.50408184
  9
$TDUPDATE
 40
2459093.587416077
  9
$TDUUPDATE
 40
2459093.504082743
  9
$TDINDWG
 40
0.0000000116
  9
$TDUSRTIMER
 40
0.0000000116
  9
$USRTIMER
 70
     1
  9
$ANGBASE
 50
0.0
  9
$ANGDIR
 70
     0
  9
$PDMODE
 70
     0
  9
$PDSIZE
 40
-1.0
  9
$PLINEWID
 40
0.0
  9
$SPLFRAME
 70
     0
  9
$SPLINETYPE
 70
     6
  9
$SPLINESEGS
 70
     8
  9
$HANDSEED
  5
28E
  9
$SURFTAB1
 70
     6
  9
$SURFTAB2
 70
     6
  9
$SURFTYPE
 70
     6
  9
$SURFU
 70
     6
  9
$SURFV
 70
     6
  9
$UCSBASE
  2

  9
$UCSNAME
  2

  9
$UCSORG
 10
0.0
 20
0.0
 30
0.0
  9
$UCSXDIR
 10
1.0
 20
0.0
 30
0.0
  9
$UCSYDIR
 10
0.0
 20
1.0
 30
0.0
  9
$UCSORTHOREF
  2

  9
$UCSORTHOVIEW
 70
     0
  9
$UCSORGTOP
 10
0.0
 20
0.0
 30
0.0
  9
$UCSORGBOTTOM
 10
0.0
 20
0.0
 30
0.0
  9
$UCSORGLEFT
 10
0.0
 20
0.0
 30
0.0
  9
$UCSORGRIGHT
 10
0.0
 20
0.0
 30
0.0
  9
$UCSORGFRONT
 10
0.0
 20
0.0
 30
0.0
  9
$UCSORGBACK
 10
0.0
 20
0.0
 30
0.0
  9
$PUCSBASE
  2

  9
$PUCSNAME
  2

  9
$PUCSORG
 10
0.0
 20
0.0
 30
0.0
  9
$PUCSXDIR
 10
1.0
 20
0.0
 30
0.0
  9
$PUCSYDIR
 10
0.0
 20
1.0
 30
0.0
  9
$PUCSORTHOREF
  2

  9
$PUCSORTHOVIEW
 70
     0
  9
$PUCSORGTOP
 10
0.0
 20
0.0
 30
0.0
  9
$PUCSORGBOTTOM
 10
0.0
 20
0.0
 30
0.0
  9
$PUCSORGLEFT
 10
0.0
 20
0.0
 30
0.0
  9
$PUCSORGRIGHT
 10
0.0
 20
0.0
 30
0.0
  9
$PUCSORGFRONT
 10
0.0
 20
0.0
 30
0.0
  9
$PUCSORGBACK
 10
0.0
 20
0.0
 30
0.0
  9
$USERI1
 70
     0
  9
$USERI2
 70
     0
  9
$USERI3
 70
     0
  9
$USERI4
 70
     0
  9
$USERI5
 70
     0
  9
$USERR1
 40
0.0
  9
$USERR2
 40
0.0
  9
$USERR3
 40
0.0
  9
$USERR4
 40
0.0
  9
$USERR5
 40
0.0
  9
$WORLDVIEW
 70
     1
  9
$SHADEDGE
 70
     3
  9
$SHADEDIF
 70
    70
  9
$TILEMODE
 70
     1
  9
$MAXACTVP
 70
    64
  9
$PINSBASE
 10
0.0
 20
0.0
 30
0.0
  9
$PLIMCHECK
 70
     0
  9
$PEXTMIN
 10
1.0000000000E+20
 20
1.0000000000E+20
 30
1.0000000000E+20
  9
$PEXTMAX
 10
-1.0000000000E+20
 20
-1.0000000000E+20
 30
-1.0000000000E+20
  9
$PLIMMIN
 10
0.0
 20
0.0
  9
$PLIMMAX
 10
420.0
 20
297.0
  9
$UNITMODE
 70
     0
  9
$VISRETAIN
 70
     1
  9
$PLINEGEN
 70
     0
  9
$PSLTSCALE
 70
     1
  9
$TREEDEPTH
 70
  3020
  9
$CMLSTYLE
  2
Standard
  9
$CMLJUST
 70
     0
  9
$CMLSCALE
 40
20.0
  9
$PROXYGRAPHICS
 70
     1
  9
$MEASUREMENT
 70
     1
  9
$CELWEIGHT
370
    -1
  9
$ENDCAPS
280
     0
  9
$JOINSTYLE
280
     0
  9
$LWDISPLAY
290
     1
  9
$INSUNITS
 70
     4
  9
$HYPERLINKBASE
  1

  9
$STYLESHEET
  1

  9
$XEDIT
290
     1
  9
$CEPSNTYPE
380
     0
  9
$PSTYLEMODE
290
     1
  9
$FINGERPRINTGUID
  2
{5bad96e1-dc41-4b63-9ca8-0a355bc8b78c}
  9
$VERSIONGUID
  2
{FAEB1C32-E019-11D5-929B-00C0DF256EC4}
  9
$EXTNAMES
290
     1
  9
$PSVPSCALE
 40
0.0
  9
$OLESTARTUP
290
     0
  0
ENDSEC
  0
SECTION
  2
CLASSES
  0
CLASS
  1
ACDBDICTIONARYWDFLT
  2
AcDbDictionaryWithDefault
  3
ObjectDBX Classes
 90
        0
280
     0
281
     0
  0
CLASS
  1
VISUALSTYLE
  2
AcDbVisualStyle
  3
ObjectDBX Classes
 90
     4095
280
     0
281
     0
  0
CLASS
  1
MATERIAL
  2
AcDbMaterial
  3
ObjectDBX Classes
 90
     1153
280
     0
281
     0
  0
CLASS
  1
SCALE
  2
AcDbScale
  3
ObjectDBX Classes
 90
     1153
280
     0
281
     0
  0
CLASS
  1
TABLESTYLE
  2
AcDbTableStyle
  3
ObjectDBX Classes
 90
     4095
280
     0
281
     0
  0
CLASS
  1
MLEADERSTYLE
  2
AcDbMLeaderStyle
  3
ACDB_MLEADERSTYLE_CLASS
 90
     4095
280
     0
281
     0
  0
CLASS
  1
SUN
  2
AcDbSun
  3
SCENEOE
 90
     1153
280
     0
281
     0
  0
CLASS
  1
ACDBPLACEHOLDER
  2
AcDbPlaceHolder
  3
ObjectDBX Classes
 90
        0
280
     0
281
     0
  0
CLASS
  1
LAYOUT
  2
AcDbLayout
  3
ObjectDBX Classes
 90
        0
280
     0
281
     0
  0
ENDSEC
  0
SECTION
  2
TABLES
  0
TABLE
  2
VPORT
  5
8
330
0
100
AcDbSymbolTable
 70
     1
  0
VPORT
  5
29
330
8
100
AcDbSymbolTableRecord
100
AcDbViewportTableRecord
  2
*Active
 70
     0
 10
0.0
 20
0.0
 11
1.0
 21
1.0
 12
10000.0
 22
5000.0
 13
0.0
 23
0.0
 14
10.0
 24
10.0
 15
10.0
 25
10.0
 16
0.0
 26
0.0
 36
1.0
 17
0.0
 27
0.0
 37
0.0
 40
10000.0
 41
2.0
 42
50.0
 43
0.0
 44
0.0
 50
0.0
 51
0.0
 71
     0
 72
  2000
 73
     1
 74
     3
 75
     0
 76
     0
 77
     0
 78
     0
281
     0
 65
     1
110
0.0
120
0.0
130
0.0
111
1.0
121
0.0
131
0.0
112
0.0
122
1.0
132
0.0
 79
     0
146
0.0
  0
ENDTAB
  0
TABLE
  2
LTYPE
  5
5
330
0
100
AcDbSymbolTable
 70
     6
  0
LTYPE
  5
14
330
5
100
AcDbSymbolTableRecord
100
AcDbLinetypeTableRecord
  2
ByBlock
 70
     0
  3

 72
    65
 73
     0
 40
0.0
  0
LTYPE
  5
15
330
5
100
AcDbSymbolTableRecord
100
AcDbLinetypeTableRecord
  2
ByLayer
 70
     0
  3

 72
    65
 73
     0
 40
0.0
  0
LTYPE
  5
16
330
5
100
AcDbSymbolTableRecord
100
AcDbLinetypeTableRecord
  2
Continuous
 70
     0
  3
Solid line
 72
    65
 73
     0
 40
0.0
  0
LTYPE
  5
6E
330
5
100
AcDbSymbolTableRecord
100
AcDbLinetypeTableRecord
  2
HIDDEN
 70
     0
  3
Hidden __ __ __ __ __ __ __ __ __ __ __ __ __ __
 72
    65
 73
     2
 40
1.905
 49
1.27
 74
     0
 49
-0.635
 74
     0
  0
LTYPE
  5
6F
330
5
100
AcDbSymbolTableRecord
100
AcDbLinetypeTableRecord
  2
PHANTOM
 70
     0
  3
Phantom ______  __  __  ______  __  __  ______
 72
    65
 73
     6
 40
12.7
 49
6.35
 74
     0
 49
-1.27
 74
     0
 49
1.27
 74
     0
 49
-1.27
 74
     0
 49
1.27
 74
     0
 49
-1.27
 74
     0
  0
LTYPE
  5
70
330
5
100
AcDbSymbolTableRecord
100
AcDbLinetypeTableRecord
  2
CENTER
 70
     0
  3
Center ____ _ ____ _ ____ _ ____ _ ____ _ ____
 72
    65
 73
     4
 40
10.16
 49
6.35
 74
     0
 49
-1.27
 74
     0
 49
1.27
 74
     0
 49
-1.27
 74
     0
  0
LTYPE
  5
71
330
5
100
AcDbSymbolTableRecord
100
AcDbLinetypeTableRecord
  2
CENTERX2
 70
     0
  3
Center (2x) ________  __  ________  __  _____
 72
    65
 73
     4
 40
20.32
 49
12.7
 74
     0
 49
-2.54
 74
     0
 49
2.54
 74
     0
 49
-2.54
 74
     0
  0
LTYPE
  5
72
330
5
100
AcDbSymbolTableRecord
100
AcDbLinetypeTableRecord
  2
DOT2
 70
     0
  3
Dot (.5x) ........................................
 72
    65
 73
     2
 40
0.635
 49
0.0
 74
     0
 49
-0.635
 74
     0
  0
ENDTAB
  0
TABLE
  2
LAYER
  5
2
330
0
100
AcDbSymbolTable
 70
    13
  0
LAYER
  5
10
330
2
100
AcDbSymbolTableRecord
100
AcDbLayerTableRecord
  2
0
 70
     0
 62
     7
  6
Continuous
370
    -3
390
F
  0
LAYER
  5
73
330
2
100
AcDbSymbolTableRecord
100
AcDbLayerTableRecord
  2
FORMAT
 70
     0
 62
     7
  6
Continuous
370
    -3
390
F
  0
LAYER
  5
74
330
2
100
AcDbSymbolTableRecord
100
AcDbLayerTableRecord
  2
OSA
 70
     0
 62
     7
  6
CENTER
370
    -3
390
F
  0
LAYER
  5
75
330
2
100
AcDbSymbolTableRecord
100
AcDbLayerTableRecord
  2
0_35
 70
     0
 62
     7
  6
Continuous
370
    35
390
F
  0
LAYER
  5
76
330
2
100
AcDbSymbolTableRecord
100
AcDbLayerTableRecord
  2
0_5
 70
     0
 62
     7
  6
Continuous
370
    50
390
F
  0
LAYER
  5
77
330
2
100
AcDbSymbolTableRecord
100
AcDbLayerTableRecord
  2
0_25
 70
     0
 62
     7
  6
Continuous
370
    25
390
F
  0
LAYER
  5
78
330
2
100
AcDbSymbolTableRecord
100
AcDbLayerTableRecord
  2
0_18
 70
     0
 62
     7
  6
Continuous
370
    -3
390
F
  0
LAYER
  5
79
330
2
100
AcDbSymbolTableRecord
100
AcDbLayerTableRecord
  2
SLD-0
 70
     0
 62
   179
  6
Continuous
370
    -3
390
F
  0
LAYER
  5
7A
330
2
100
AcDbSymbolTableRecord
100
AcDbLayerTableRecord
  2
KOTY
 70
     0
 62
     7
  6
Continuous
370
    -3
390
F
  0
LAYER
  5
7B
330
2
100
AcDbSymbolTableRecord
100
AcDbLayerTableRecord
  2
SILNA
 70
     0
 62
   179
  6
Continuous
370
    -3
390
F
  0
LAYER
  5
7C
330
2
100
AcDbSymbolTableRecord
100
AcDbLayerTableRecord
  2
0_18_1
 70
     0
 62
   179
  6
Continuous
370
    -3
390
F
  0
LAYER
  5
7D
330
2
100
AcDbSymbolTableRecord
100
AcDbLayerTableRecord
  2
0_35_1
 70
     0
 62
   179
  6
Continuous
370
    35
390
F
  0
LAYER
  5
7E
330
2
100
AcDbSymbolTableRecord
100
AcDbLayerTableRecord
  2
0_5_1
 70
     0
 62
   179
  6
Continuous
370
    50
390
F
  0
ENDTAB
  0
TABLE
  2
STYLE
  5
3
330
0
100
AcDbSymbolTable
 70
     1
  0
STYLE
  5
11
330
3
100
AcDbSymbolTableRecord
100
AcDbTextStyleTableRecord
  2
Standard
 70
     0
 40
0.0
 41
1.0
 50
0.0
 71
     0
 42
2.0
  3
txt
  4

  0
ENDTAB
  0
TABLE
  2
VIEW
  5
6
330
0
100
AcDbSymbolTable
 70
     0
  0
ENDTAB
  0
TABLE
  2
UCS
  5
7
330
0
100
AcDbSymbolTable
 70
     0
  0
ENDTAB
  0
TABLE
  2
APPID
  5
9
330
0
100
AcDbSymbolTable
 70
     1
  0
APPID
  5
12
330
9
100
AcDbSymbolTableRecord
100
AcDbRegAppTableRecord
  2
ACAD
 70
     0
  0
ENDTAB
  0
TABLE
  2
DIMSTYLE
  5
A
330
0
100
AcDbSymbolTable
 70
     1
100
AcDbDimStyleTable
  0
DIMSTYLE
105
27
330
A
100
AcDbSymbolTableRecord
100
AcDbDimStyleTableRecord
  2
ISO-25
 70
     0
 41
2.5
 42
0.625
 43
3.75
 44
1.25
 73
     0
 74
     0
 77
     1
 78
     8
140
2.5
141
2.5
143
0.0393700787
147
0.625
171
     3
172
     1
178
     0
271
     2
272
     2
274
     3
278
    44
283
     0
284
     8
340
11
  0
ENDTAB
  0
TABLE
  2
BLOCK_RECORD
  5
1
330
0
100
AcDbSymbolTable
 70
     1
  0
BLOCK_RECORD
  5
1F
330
1
100
AcDbSymbolTableRecord
100
AcDbBlockTableRecord
  2
*Model_Space
340
22
  0
BLOCK_RECORD
  5
1B
330
1
100
AcDbSymbolTableRecord
100
AcDbBlockTableRecord
  2
*Paper_Space
340
1E
  0
BLOCK_RECORD
  5
23
330
1
100
AcDbSymbolTableRecord
100
AcDbBlockTableRecord
  2
*Paper_Space0
340
26
  0
ENDTAB
  0
ENDSEC
  0
SECTION
  2
BLOCKS
  0
BLOCK
  5
20
330
1F
100
AcDbEntity
  8
0
100
AcDbBlockBegin
  2
*Model_Space
 70
     0
 10
0.0
 20
0.0
 30
0.0
  3
*Model_Space
  1

  0
ENDBLK
  5
21
330
1F
100
AcDbEntity
  8
0
100
AcDbBlockEnd
  0
BLOCK
  5
1C
330
1B
100
AcDbEntity
 67
     1
  8
0
100
AcDbBlockBegin
  2
*Paper_Space
 70
     0
 10
0.0
 20
0.0
 30
0.0
  3
*Paper_Space
  1

  0
ENDBLK
  5
1D
330
1B
100
AcDbEntity
 67
     1
  8
0
100
AcDbBlockEnd
  0
BLOCK
  5
24
330
23
100
AcDbEntity
  8
0
100
AcDbBlockBegin
  2
*Paper_Space0
 70
     0
 10
0.0
 20
0.0
 30
0.0
  3
*Paper_Space0
  1

  0
ENDBLK
  5
25
330
23
100
AcDbEntity
  8
0
100
AcDbBlockEnd
  0
ENDSEC
  0
SECTION
  2
ENTITIES
  0
LINE
  5
7F
330
1F
100
AcDbEntity
  8
0
  6
Continuous
 62
     7
370
    25
100
AcDbLine
 10
6288.0187553361
 20
5291.1994545927
 30
0.0
 11
6286.5187553361
 21
5292.6994545927
 31
0.0
  0
LINE
  5
80
330
1F
100
AcDbEntity
  8
0
  6
Continuous
 62
     7
370
    25
100
AcDbLine
 10
6261.5187553361
 20
5292.6994545927
 30
0.0
 11
6260.0187553361
 21
5291.1994545927
 31
0.0
  0
LINE
  5
81
330
1F
100
AcDbEntity
  8
0
  6
Continuous
 62
     7
370
    25
100
AcDbLine
 10
6288.0187553361
 20
5290.6994545927
 30
0.0
 11
6288.0187553361
 21
5291.1994545927
 31
0.0
  0
LINE
  5
82
330
1F
100
AcDbEntity
  8
0
  6
Continuous
 62
     7
370
    25
100
AcDbLine
 10
6260.0187553361
 20
5291.1994545927
 30
0.0
 11
6260.0187553361
 21
5290.6994545927
 31
0.0
  0
LINE
  5
83
330
1F
100
AcDbEntity
  8
0
  6
Continuous
 62
     7
370
    25
100
AcDbLine
 10
6264.7687553361
 20
5229.1106198279
 30
0.0
 11
6264.7687553361
 21
5228.7570664373
 31
0.0
  0
LINE
  5
84
330
1F
100
AcDbEntity
  8
0
  6
Continuous
 62
     7
370
    25
100
AcDbLine
 10
6283.2687553361
 20
5228.7570664373
 30
0.0
 11
6283.2687553361
 21
5229.1106198279
 31
0.0
  0
LINE
  5
85
330
1F
100
AcDbEntity
  8
0
  6
Continuous
 62
     7
370
    25
100
AcDbLine
 10
6281.5187553361
 20
5228.7570664373
 30
0.0
 11
6281.5187553361
 21
5229.4641732185
 31
0.0
  0
LINE
  5
86
330
1F
100
AcDbEntity
  8
0
  6
Continuous
 62
     7
370
    25
100
AcDbLine
 10
6266.5187553361
 20
5229.4641732185
 30
0.0
 11
6266.5187553361
 21
5228.7570664373
 31
0.0
  0
LINE
  5
87
330
1F
100
AcDbEntity
  8
0
  6
Continuous
 62
     7
370
    25
100
AcDbLine
 10
6249.1187553361
 20
5287.9994545927
 30
0.0
 11
6249.4187553361
 21
5287.6994545927
 31
0.0
  0
LINE
  5
88
330
1F
100
AcDbEntity
  8
0
  6
Continuous
 62
     7
370
    25
100
AcDbLine
 10
6298.6187553361
 20
5287.6994545927
 30
0.0
 11
6298.9187553361
 21
5287.9994545927
 31
0.0
  0
LINE
  5
89
330
1F
100
AcDbEntity
  8
0
  6
Continuous
 62
     7
370
    25
100
AcDbLine
 10
6249.1187553361
 20
5289.6994545927
 30
0.0
 11
6249.1187553361
 21
5287.9994545927
 31
0.0
  0
LINE
  5
8A
330
1F
100
AcDbEntity
  8
0
  6
Continuous
 62
     7
370
    25
100
AcDbLine
 10
6298.9187553361
 20
5287.9994545927
 30
0.0
 11
6298.9187553361
 21
5289.6994545927
 31
0.0
  0
LINE
  5
8B
330
1F
100
AcDbEntity
  8
0
  6
Continuous
 62
     7
370
    25
100
AcDbLine
 10
6298.9187553361
 20
5289.6994545927
 30
0.0
 11
6297.9187553361
 21
5290.6994545927
 31
0.0
  0
LINE
  5
8C
330
1F
100
AcDbEntity
  8
0
  6
Continuous
 62
     7
370
    25
100
AcDbLine
 10
6250.1187553361
 20
5290.6994545927
 30
0.0
 11
6249.1187553361
 21
5289.6994545927
 31
0.0
  0
LINE
  5
8D
330
1F
100
AcDbEntity
  8
0
  6
Continuous
 62
     7
370
    25
100
AcDbLine
 10
6249.2687553361
 20
5138.8994545927
 30
0.0
 11
6249.4687553361
 21
5138.6994545927
 31
0.0
  0
LINE
  5
8E
330
1F
100
AcDbEntity
  8
0
  6
Continuous
 62
     7
370
    25
100
AcDbLine
 10
6298.5687553361
 20
5138.6994545927
 30
0.0
 11
6298.7687553361
 21
5138.8994545927
 31
0.0
  0
LINE
  5
8F
330
1F
100
AcDbEntity
  8
0
  6
Continuous
 62
     7
370
    25
100
AcDbLine
 10
6298.7687553361
 20
5287.4994545927
 30
0.0
 11
6298.5687553361
 21
5287.6994545927
 31
0.0
  0
LINE
  5
90
330
1F
100
AcDbEntity
  8
0
  6
Continuous
 62
     7
370
    25
100
AcDbLine
 10
6249.4687553361
 20
5287.6994545927
 30
0.0
 11
6249.2687553361
 21
5287.4994545927
 31
0.0
  0
LINE
  5
91
330
1F
100
AcDbEntity
  8
0
  6
Continuous
 62
     7
370
    25
100
AcDbLine
 10
6249.2687553361
 20
5287.4994545927
 30
0.0
 11
6249.2687553361
 21
5138.8994545927
 31
0.0
  0
LINE
  5
92
330
1F
100
AcDbEntity
  8
0
  6
Continuous
 62
     7
370
    25
100
AcDbLine
 10
6298.7687553361
 20
5138.8994545927
 30
0.0
 11
6298.7687553361
 21
5287.4994545927
 31
0.0
  0
LINE
  5
93
330
1F
100
AcDbEntity
  8
0
  6
Continuous
 62
     7
370
    25
100
AcDbLine
 10
6304.0187553361
 20
5136.7597815263
 30
0.0
 11
6303.535792423
 21
5137.5962978301
 31
0.0
  0
LINE
  5
94
330
1F
100
AcDbEntity
  8
0
  6
Continuous
 62
     7
370
    25
100
AcDbLine
 10
6244.5017182492
 20
5137.5962978301
 30
0.0
 11
6244.0187553361
 21
5136.7597815263
 31
0.0
  0
LINE
  5
95
330
1F
100
AcDbEntity
  8
0
  6
Continuous
 62
     7
370
    25
100
AcDbLine
 10
6304.0187553361
 20
5134.6994545927
 30
0.0
 11
6304.0187553361
 21
5136.7597815263
 31
0.0
  0
LINE
  5
96
330
1F
100
AcDbEntity
  8
0
  6
Continuous
 62
     7
370
    25
100
AcDbLine
 10
6244.0187553361
 20
5136.7597815263
 30
0.0
 11
6244.0187553361
 21
5134.6994545927
 31
0.0
  0
LINE
  5
97
330
1F
100
AcDbEntity
  8
0
  6
Continuous
 62
     7
370
    25
100
AcDbLine
 10
6303.535792423
 20
5137.5962978301
 30
0.0
 11
6299.4187553361
 21
5138.6994545927
 31
0.0
  0
LINE
  5
98
330
1F
100
AcDbEntity
  8
0
  6
Continuous
 62
     7
370
    25
100
AcDbLine
 10
6248.6187553361
 20
5138.6994545927
 30
0.0
 11
6244.5017182492
 21
5137.5962978301
 31
0.0
  0
LINE
  5
99
330
1F
100
AcDbEntity
  8
0
  6
Continuous
 62
     7
370
    25
100
AcDbLine
 10
6261.5187553361
 20
5292.6994545927
 30
0.0
 11
6286.5187553361
 21
5292.6994545927
 31
0.0
  0
LINE
  5
9A
330
1F
100
AcDbEntity
  8
0
  6
Continuous
 62
     7
370
    25
100
AcDbLine
 10
6288.0187553361
 20
5291.1994545927
 30
0.0
 11
6260.0187553361
 21
5291.1994545927
 31
0.0
  0
ARC
  5
9B
330
1F
100
AcDbEntity
  8
0
  6
Continuous
 62
     7
370
    25
100
AcDbCircle
 10
6269.4861227859
 20
5229.1052689613
 30
0.0
 40
4.717370484543772
100
AcDbArc
 50
161.7820021848
 51
179.9350099516
  0
LWPOLYLINE
  5
9C
330
1F
100
AcDbEntity
  8
0
  6
Continuous
 62
     7
370
    25
100
AcDbPolyline
 90
        3
 70
   128
 43
0.0
 10
6283.0322949563
 20
5230.5800761076
 10
6283.2070984685
 20
5229.8645596399
 10
6283.2687553361
 20
5229.1106198279
  0
ARC
  5
9D
330
1F
100
AcDbEntity
  8
0
  6
Continuous
 62
     7
370
    25
100
AcDbCircle
 10
6274.0115151681
 20
5235.0221801507
 30
0.0
 40
12.80655589295327
100
AcDbArc
 50
255.8536949078
 51
272.9335791868
  0
ARC
  5
9E
330
1F
100
AcDbEntity
  8
0
  6
Continuous
 62
     7
370
    25
100
AcDbCircle
 10
6274.0795224582
 20
5233.9674992765
 30
0.0
 40
12.45578059472034
100
AcDbArc
 50
273.2728416265
 51
286.8978847609
  0
LINE
  5
9F
330
1F
100
AcDbEntity
  8
0
  6
Continuous
 62
     7
370
    25
100
AcDbLine
 10
6277.7000052154
 20
5222.7566123159
 30
0.0
 11
6277.7000052154
 21
5222.0495055347
 31
0.0
  0
ARC
  5
A0
330
1F
100
AcDbEntity
  8
0
  6
Continuous
 62
     7
370
    25
100
AcDbCircle
 10
6274.8163006824
 20
5232.404137872
 30
0.0
 40
10.06928503866248
100
AcDbArc
 50
286.6417277582
 51
305.3861985819
  0
ARC
  5
A1
330
1F
100
AcDbEntity
  8
0
  6
Continuous
 62
     7
370
    25
100
AcDbCircle
 10
6276.91410623
 20
5228.9138527973
 30
0.0
 40
6.57655840500634
100
AcDbArc
 50
309.332748952
 51
330.2215658006
  0
LINE
  5
A2
330
1F
100
AcDbEntity
  8
0
  6
Continuous
 62
     7
370
    25
100
AcDbLine
 10
6282.6222462104
 20
5226.3547295775
 30
0.0
 11
6282.6222462104
 21
5225.6476227963
 31
0.0
  0
ARC
  5
A3
330
1F
100
AcDbEntity
  8
0
  6
Continuous
 62
     7
370
    25
100
AcDbCircle
 10
6278.4273785471
 20
5228.7667931358
 30
0.0
 40
4.838901251554678
100
AcDbArc
 50
330.100947763
 51
6.3605162396
  0
LINE
  5
A4
330
1F
100
AcDbEntity
  8
0
  6
Continuous
 62
     7
370
    25
100
AcDbLine
 10
6283.2364939364
 20
5229.3028663536
 30
0.0
 11
6283.2364939364
 21
5228.5957595724
 31
0.0
  0
ARC
  5
A5
330
1F
100
AcDbEntity
  8
0
  6
Continuous
 62
     7
370
    25
100
AcDbCircle
 10
6278.2030877296
 20
5227.9640219679
 30
0.0
 40
5.072895666553861
100
AcDbArc
 50
7.1537274671
 51
32.0099799123
  0
LINE
  5
A6
330
1F
100
AcDbEntity
  8
0
  6
Continuous
 62
     7
370
    25
100
AcDbLine
 10
6282.504678935
 20
5231.3601031902
 30
0.0
 11
6282.504678935
 21
5230.652996409
 31
0.0
  0
ARC
  5
A7
330
1F
100
AcDbEntity
  8
0
  6
Continuous
 62
     7
370
    25
100
AcDbCircle
 10
6276.7098506052
 20
5227.7150866546
 30
0.0
 40
6.845887883722556
100
AcDbArc
 50
32.1703853282
 51
52.8521803244
  0
LINE
  5
A8
330
1F
100
AcDbEntity
  8
0
  6
Continuous
 62
     7
370
    25
100
AcDbLine
 10
6279.9908808913
 20
5233.6794797171
 30
0.0
 11
6279.9908808913
 21
5233.0447677782
 31
0.0
  0
ARC
  5
A9
330
1F
100
AcDbEntity
  8
0
  6
Continuous
 62
     7
370
    25
100
AcDbCircle
 10
6274.6296200344
 20
5223.955315154
 30
0.0
 40
10.55278479752425
100
AcDbArc
 50
59.4664851876
 51
74.6889829521
  0
LINE
  5
AA
330
1F
100
AcDbEntity
  8
0
  6
Continuous
 62
     7
370
    25
100
AcDbLine
 10
6277.4161727046
 20
5234.6645961202
 30
0.0
 11
6277.4161727046
 21
5234.1335463952
 31
0.0
  0
LINE
  5
AB
330
1F
100
AcDbEntity
  8
0
  6
Continuous
 62
     7
370
    25
100
AcDbLine
 10
6273.2468776922
 20
5235.0661367057
 30
0.0
 11
6273.2468776922
 21
5234.5678851276
 31
0.0
  0
ARC
  5
AC
330
1F
100
AcDbEntity
  8
0
  6
Continuous
 62
     7
370
    25
100
AcDbCircle
 10
6273.957988214
 20
5222.1324200359
 30
0.0
 40
12.45578059454388
100
AcDbArc
 50
93.2728416264
 51
106.8978847609
  0
LINE
  5
AD
330
1F
100
AcDbEntity
  8
0
  6
Continuous
 62
     7
370
    25
100
AcDbLine
 10
6270.3375054568
 20
5234.5882191801
 30
0.0
 11
6270.3375054568
 21
5234.0504137775
 31
0.0
  0
LINE
  5
AE
330
1F
100
AcDbEntity
  8
0
  6
Continuous
 62
     7
370
    25
100
AcDbLine
 10
6266.9550299484
 20
5232.9799969155
 30
0.0
 11
6267.1936101342
 21
5233.1718083875
 31
0.0
  0
LINE
  5
AF
330
1F
100
AcDbEntity
  8
0
  6
Continuous
 62
     7
370
    25
100
AcDbLine
 10
6266.9550299484
 20
5232.9799969155
 30
0.0
 11
6266.9550299484
 21
5232.2728901343
 31
0.0
  0
ARC
  5
B0
330
1F
100
AcDbEntity
  8
0
  6
Continuous
 62
     7
370
    25
100
AcDbCircle
 10
6271.1234044421
 20
5227.186066515
 30
0.0
 40
6.576558404987844
100
AcDbArc
 50
129.3327489519
 51
150.2215658006
  0
LINE
  5
B1
330
1F
100
AcDbEntity
  8
0
  6
Continuous
 62
     7
370
    25
100
AcDbLine
 10
6265.4152644618
 20
5231.1594032971
 30
0.0
 11
6265.4152644618
 21
5230.4522965159
 31
0.0
  0
ARC
  5
B2
330
1F
100
AcDbEntity
  8
0
  6
Continuous
 62
     7
370
    25
100
AcDbCircle
 10
6269.6101321251
 20
5228.7473397387
 30
0.0
 40
4.838901251564117
100
AcDbArc
 50
150.100947763
 51
186.3605162396
  0
LINE
  5
B3
330
1F
100
AcDbEntity
  8
0
  6
Continuous
 62
     7
370
    25
100
AcDbLine
 10
6264.8010167358
 20
5228.211266521
 30
0.0
 11
6264.8010167358
 21
5227.5041597398
 31
0.0
  0
ARC
  5
B4
330
1F
100
AcDbEntity
  8
0
  6
Continuous
 62
     7
370
    25
100
AcDbCircle
 10
6269.8344229426
 20
5228.1358973443
 30
0.0
 40
5.072895666551041
100
AcDbArc
 50
187.1537274671
 51
212.0099799123
  0
ARC
  5
B5
330
1F
100
AcDbEntity
  8
0
  6
Continuous
 62
     7
370
    25
100
AcDbCircle
 10
6271.847826489
 20
5230.3215745003
 30
0.0
 40
7.581142739064409
100
AcDbArc
 50
219.2415880112
 51
239.9072309029
  0
LINE
  5
B6
330
1F
100
AcDbEntity
  8
0
  6
Continuous
 62
     7
370
    25
100
AcDbLine
 10
6268.0466297809
 20
5223.7622583152
 30
0.0
 11
6268.0466297809
 21
5223.055151534
 31
0.0
  0
ARC
  5
B7
330
1F
100
AcDbEntity
  8
0
  6
Continuous
 62
     7
370
    25
100
AcDbCircle
 10
6273.4078906378
 20
5232.1446041582
 30
0.0
 40
10.5527847974925
100
AcDbArc
 50
239.4664851876
 51
254.6889829521
  0
ARC
  5
B8
330
1F
100
AcDbEntity
  8
0
  6
Continuous
 62
     7
370
    25
100
AcDbCircle
 10
6270.1770362995
 20
5228.75777215
 30
0.0
 40
4.395998725989839
100
AcDbArc
 50
142.9123666174
 51
198.8974013503
  0
ARC
  5
B9
330
1F
100
AcDbEntity
  8
0
  6
Continuous
 62
     7
370
    25
100
AcDbCircle
 10
6272.9294236776
 20
5226.2491196943
 30
0.0
 40
8.152045904295246
100
AcDbArc
 50
108.3685395603
 51
132.8033237458
  0
ARC
  5
BA
330
1F
100
AcDbEntity
  8
0
  6
Continuous
 62
     7
370
    25
100
AcDbCircle
 10
6274.0329081574
 20
5223.2790607097
 30
0.0
 40
11.31300897809777
100
AcDbArc
 50
73.9752048238
 51
93.3563494723
  0
LWPOLYLINE
  5
BB
330
1F
100
AcDbEntity
  8
0
  6
Continuous
 62
     7
370
    25
100
AcDbPolyline
 90
       28
 70
   128
 43
0.0
 10
6279.8529432521
 20
5232.8816725616
 10
6280.5553766373
 20
5232.3162153499
 10
6281.1798749509
 20
5231.6536908402
 10
6281.6709751554
 20
5230.9372076984
 10
6282.0195289833
 20
5230.1801126499
 10
6282.2190435361
 20
5229.396508943
 10
6282.2658022354
 20
5228.600993632
 10
6282.1589340549
 20
5227.8083856622
 10
6281.9004297467
 20
5227.0334498202
 10
6281.4951047569
 20
5226.2906216945
 10
6280.9505095232
 20
5225.5937387678
 10
6280.2767888244
 20
5224.9557826502
 10
6279.4864928023
 20
5224.3886372574
 10
6278.5943431767
 20
5223.9028674347
 10
6277.6169590068
 20
5223.507522155
 10
6276.5725471107
 20
5223.2099659527
 10
6275.4805629058
 20
5223.015741737
 10
6274.3613479917
 20
5222.9284675374
 10
6273.2357512246
 20
5222.9497691072
 10
6272.1247403426
 20
5223.0792496384
 10
6271.0490113763
 20
5223.3144971537
 10
6270.0286031211
 20
5223.6511294371
 10
6269.0825238519
 20
5224.0828756659
 10
6268.2283972356
 20
5224.6016932249
 10
6267.4821340349
 20
5225.1979175246
 10
6266.8576357213
 20
5225.8604420344
 10
6266.3665355168
 20
5226.5769251762
 10
6266.0179816889
 20
5227.3340202247
  0
LINE
  5
BC
330
1F
100
AcDbEntity
  8
0
  6
Continuous
 62
     7
370
    25
100
AcDbLine
 10
6282.1870361563
 20
5226.5387688419
 30
0.0
 11
6282.6222462104
 21
5226.3547295775
 31
0.0
  0
ARC
  5
BD
330
1F
100
AcDbEntity
  8
0
  6
Continuous
 62
     7
370
    25
100
AcDbCircle
 10
6276.7544249445
 20
5229.5719706238
 30
0.0
 40
6.22202359586034
100
AcDbArc
 50
308.7303444163
 51
330.8239703362
  0
LINE
  5
BE
330
1F
100
AcDbEntity
  8
0
  6
Continuous
 62
     7
370
    25
100
AcDbLine
 10
6277.7000052154
 20
5222.7566123159
 30
0.0
 11
6277.5763044993
 21
5223.1043527548
 31
0.0
  0
ARC
  5
BF
330
1F
100
AcDbEntity
  8
0
  6
Continuous
 62
     7
370
    25
100
AcDbCircle
 10
6274.0755245236
 20
5234.349343153
 30
0.0
 40
11.77732013204276
100
AcDbArc
 50
272.8783648797
 51
287.2923615076
  0
ARC
  5
C0
330
1F
100
AcDbEntity
  8
0
  6
Continuous
 62
     7
370
    25
100
AcDbCircle
 10
6273.4425310597
 20
5232.6258874997
 30
0.0
 40
9.97887469813056
100
AcDbArc
 50
239.0259192753
 51
255.1295488645
  0
LINE
  5
C1
330
1F
100
AcDbEntity
  8
0
  6
Continuous
 62
     7
370
    25
100
AcDbLine
 10
6268.3069006047
 20
5224.0699982957
 30
0.0
 11
6268.0466297809
 21
5223.7622583152
 31
0.0
  0
ARC
  5
C2
330
1F
100
AcDbEntity
  8
0
  6
Continuous
 62
     7
370
    25
100
AcDbCircle
 10
6270.0644185481
 20
5228.8373501921
 30
0.0
 40
4.801925345766619
100
AcDbArc
 50
186.4402066723
 51
212.723500707
  0
LINE
  5
C3
330
1F
100
AcDbEntity
  8
0
  6
Continuous
 62
     7
370
    25
100
AcDbLine
 10
6264.8010167358
 20
5228.211266521
 30
0.0
 11
6265.2927959808
 21
5228.2987361362
 31
0.0
  0
LINE
  5
C4
330
1F
100
AcDbEntity
  8
0
  6
Continuous
 62
     7
370
    25
100
AcDbLine
 10
6267.3902400025
 20
5232.795957651
 30
0.0
 11
6266.9550299484
 21
5232.9799969155
 31
0.0
  0
LINE
  5
C5
330
1F
100
AcDbEntity
  8
0
  6
Continuous
 62
     7
370
    25
100
AcDbLine
 10
6273.3198137815
 20
5235.06995811
 30
0.0
 11
6273.3705784082
 21
5234.9272514698
 31
0.0
  0
LINE
  5
C6
330
1F
100
AcDbEntity
  8
0
  6
Continuous
 62
     7
370
    25
100
AcDbLine
 10
6277.1559018808
 20
5234.5329131959
 30
0.0
 11
6277.293396441
 21
5234.6954845231
 31
0.0
  0
LINE
  5
C7
330
1F
100
AcDbEntity
  8
0
  6
Continuous
 62
     7
370
    25
100
AcDbLine
 10
6282.504678935
 20
5231.3601031902
 30
0.0
 11
6282.01289969
 21
5231.272633575
 31
0.0
  0
LINE
  5
C8
330
1F
100
AcDbEntity
  8
0
  6
Continuous
 62
     7
370
    25
100
AcDbLine
 10
6273.2468776922
 20
5234.5678851276
 30
0.0
 11
6273.3705784082
 21
5234.2201446886
 31
0.0
  0
ARC
  5
C9
330
1F
100
AcDbEntity
  8
0
  6
Continuous
 62
     7
370
    25
100
AcDbCircle
 10
6273.9619861486
 20
5222.4576829405
 30
0.0
 40
11.77732013198494
100
AcDbArc
 50
92.8783648797
 51
107.2923615076
  0
LINE
  5
CA
330
1F
100
AcDbEntity
  8
0
  6
Continuous
 62
     7
370
    25
100
AcDbLine
 10
6270.3375054568
 20
5234.0504137775
 30
0.0
 11
6270.4612061729
 21
5233.7026733386
 31
0.0
  0
LINE
  5
CB
330
1F
100
AcDbEntity
  8
0
  6
Continuous
 62
     7
370
    25
100
AcDbLine
 10
6273.3705784082
 20
5234.9272514698
 30
0.0
 11
6273.3705784082
 21
5234.2201446886
 31
0.0
  0
LINE
  5
CC
330
1F
100
AcDbEntity
  8
0
  6
Continuous
 62
     7
370
    25
100
AcDbLine
 10
6279.7306100675
 20
5232.7370277977
 30
0.0
 11
6279.9908808913
 21
5233.0447677782
 31
0.0
  0
ARC
  5
CD
330
1F
100
AcDbEntity
  8
0
  6
Continuous
 62
     7
370
    25
100
AcDbCircle
 10
6274.5949796124
 20
5224.1811385937
 30
0.0
 40
9.978874698123457
100
AcDbArc
 50
59.0259192753
 51
75.1295488645
  0
LINE
  5
CE
330
1F
100
AcDbEntity
  8
0
  6
Continuous
 62
     7
370
    25
100
AcDbLine
 10
6277.1559018808
 20
5233.8258064147
 30
0.0
 11
6277.4161727046
 21
5234.1335463952
 31
0.0
  0
LWPOLYLINE
  5
CF
330
1F
100
AcDbEntity
  8
0
  6
Continuous
 62
     7
370
    25
100
AcDbPolyline
 90
        3
 70
   128
 43
0.0
 10
6266.0179816889
 20
5228.0411270059
 10
6265.8184671361
 20
5228.8247307128
 10
6265.7839207901
 20
5229.1106198279
  0
ARC
  5
D0
330
1F
100
AcDbEntity
  8
0
  6
Continuous
 62
     7
370
    25
100
AcDbCircle
 10
6276.5911205737
 20
5230.0355976299
 30
0.0
 40
5.73752059711945
100
AcDbArc
 50
297.2374988327
 51
350.7225392121
  0
ARC
  5
D1
330
1F
100
AcDbEntity
  8
0
  6
Continuous
 62
     7
370
    25
100
AcDbCircle
 10
6271.6416946752
 20
5230.2964810898
 30
0.0
 40
6.059106352931795
100
AcDbArc
 50
201.8529372209
 51
242.2495221727
  0
LINE
  5
D2
330
1F
100
AcDbEntity
  8
0
  6
Continuous
 62
     7
370
    25
100
AcDbLine
 10
6277.1559018808
 20
5234.5329131959
 30
0.0
 11
6277.1559018808
 21
5233.8258064147
 31
0.0
  0
LINE
  5
D3
330
1F
100
AcDbEntity
  8
0
  6
Continuous
 62
     7
370
    25
100
AcDbLine
 10
6264.7992108788
 20
5229.6409499138
 30
0.0
 11
6264.7782032896
 21
5229.8757314622
 31
0.0
  0
LINE
  5
D4
330
1F
100
AcDbEntity
  8
0
  6
Continuous
 62
     7
370
    25
100
AcDbLine
 10
6283.2593073826
 20
5229.8757314622
 30
0.0
 11
6283.2382997934
 21
5229.6409499138
 31
0.0
  0
LWPOLYLINE
  5
D5
330
1F
100
AcDbEntity
  8
0
  6
Continuous
 62
     7
370
    25
100
AcDbPolyline
 90
       44
 70
   128
 43
0.0
 10
6266.7453247477
 20
5227.4633880622
 10
6266.5564522234
 20
5228.2260145308
 10
6266.5266257343
 20
5228.9999594487
 10
6266.6564809802
 20
5229.7687275239
 10
6266.9432503219
 20
5230.5159337993
 10
6267.3808217689
 20
5231.2256528706
 10
6267.9598692454
 20
5231.8827583079
 10
6268.6680513598
 20
5232.4732450497
 10
6269.4902744399
 20
5232.9845278962
 10
6270.4090142281
 20
5233.4057097412
 10
6271.404689381
 20
5233.7278138249
 10
6272.4560788113
 20
5233.943975058
 10
6273.5407739787
 20
5234.0495863391
 10
6274.6356564888
 20
5234.0423967471
 10
6275.717390822
 20
5233.9225595157
 10
6276.7629216888
 20
5233.6926287674
 10
6277.7499654141
 20
5233.3575050769
 10
6278.6574848746
 20
5232.9243310239
 10
6279.4661378684
 20
5232.4023389612
 10
6280.1586893611
 20
5231.8026542433
 10
6280.7203788199
 20
5231.138058109
 10
6281.1392348091
 20
5230.422715271
 10
6281.4063301406
 20
5229.6718720199
 10
6281.5159721411
 20
5228.9015312761
 10
6281.4658239816
 20
5228.128111515
 10
6281.2569544833
 20
5227.3680968361
 10
6280.8938153367
 20
5226.6376856328
 10
6280.3841462223
 20
5225.9524453518
 10
6279.7388098524
 20
5225.3269807
 10
6278.9715604515
 20
5224.7746223706
 10
6278.0987506083
 20
5224.3071429223
 10
6277.1389827493
 20
5223.934505868
 10
6276.1127126602
 20
5223.6646533195
 10
6275.0418135062
 20
5223.5033367154
 10
6273.9491096435
 20
5223.4539942391
 10
6272.8578901578
 20
5223.5176775398
 10
6271.7914124979
 20
5223.6930293185
 10
6270.7724067837
 20
5223.9763122564
 10
6269.8225913526
 20
5224.3614886696
 10
6268.9622098718
 20
5224.8403491915
 10
6268.2095998785
 20
5225.4026877415
 10
6267.5808019483
 20
5226.0365190497
 10
6267.0892178173
 20
5226.7283341022
 10
6266.7453247477
 20
5227.4633880622
  0
ARC
  5
D6
330
1F
100
AcDbEntity
  8
0
  6
Continuous
 62
     7
370
    25
100
AcDbCircle
 10
6271.3720050489
 20
5229.146370552
 30
0.0
 40
4.863643830463965
100
AcDbArc
 50
121.6426399652
 51
176.253481016
  0
ARC
  5
D7
330
1F
100
AcDbEntity
  8
0
  6
Continuous
 62
     7
370
    25
100
AcDbCircle
 10
6277.0315355707
 20
5229.3068506235
 30
0.0
 40
4.489976795238212
100
AcDbArc
 50
2.0079761099
 51
51.7456572732
  0
LINE
  5
D8
330
1F
100
AcDbEntity
  8
0
  6
Continuous
 62
     7
370
    25
100
AcDbLine
 10
6267.3902400025
 20
5232.795957651
 30
0.0
 11
6267.3902400025
 21
5232.0888508698
 31
0.0
  0
LINE
  5
D9
330
1F
100
AcDbEntity
  8
0
  6
Continuous
 62
     7
370
    25
100
AcDbLine
 10
6267.3902400025
 20
5232.0888508698
 30
0.0
 11
6266.9550299484
 21
5232.2728901343
 31
0.0
  0
ARC
  5
DA
330
1F
100
AcDbEntity
  8
0
  6
Continuous
 62
     7
370
    25
100
AcDbCircle
 10
6271.2830857276
 20
5227.2350554696
 30
0.0
 40
6.222023595841872
100
AcDbArc
 50
128.7303444163
 51
150.8239703363
  0
LINE
  5
DB
330
1F
100
AcDbEntity
  8
0
  6
Continuous
 62
     7
370
    25
100
AcDbLine
 10
6265.8504745159
 20
5230.2682572515
 30
0.0
 11
6265.4152644618
 21
5230.4522965159
 31
0.0
  0
LINE
  5
DC
330
1F
100
AcDbEntity
  8
0
  6
Continuous
 62
     7
370
    25
100
AcDbLine
 10
6282.504678935
 20
5230.652996409
 30
0.0
 11
6282.01289969
 21
5230.5655267938
 31
0.0
  0
LINE
  5
DD
330
1F
100
AcDbEntity
  8
0
  6
Continuous
 62
     7
370
    25
100
AcDbLine
 10
6283.2364939364
 20
5228.5957595724
 30
0.0
 11
6282.7447146914
 21
5228.5082899572
 31
0.0
  0
ARC
  5
DE
330
1F
100
AcDbEntity
  8
0
  6
Continuous
 62
     7
370
    25
100
AcDbCircle
 10
6277.973092124
 20
5227.9696759013
 30
0.0
 40
4.801925345796741
100
AcDbArc
 50
6.4402066724
 51
32.723500707
  0
LINE
  5
DF
330
1F
100
AcDbEntity
  8
0
  6
Continuous
 62
     7
370
    25
100
AcDbLine
 10
6282.01289969
 20
5231.272633575
 30
0.0
 11
6282.01289969
 21
5230.5655267938
 31
0.0
  0
LINE
  5
E0
330
1F
100
AcDbEntity
  8
0
  6
Continuous
 62
     7
370
    25
100
AcDbLine
 10
6265.2927959808
 20
5228.2987361362
 30
0.0
 11
6265.2927959808
 21
5227.591629355
 31
0.0
  0
LINE
  5
E1
330
1F
100
AcDbEntity
  8
0
  6
Continuous
 62
     7
370
    25
100
AcDbLine
 10
6264.8010167358
 20
5227.5041597398
 30
0.0
 11
6265.2927959808
 21
5227.591629355
 31
0.0
  0
ARC
  5
E2
330
1F
100
AcDbEntity
  8
0
  6
Continuous
 62
     7
370
    25
100
AcDbCircle
 10
6270.0644185482
 20
5228.1302434109
 30
0.0
 40
4.801925345778258
100
AcDbArc
 50
186.4402066724
 51
212.7235007071
  0
LINE
  5
E3
330
1F
100
AcDbEntity
  8
0
  6
Continuous
 62
     7
370
    25
100
AcDbLine
 10
6265.5328317372
 20
5225.4469229032
 30
0.0
 11
6266.0246109822
 21
5225.5343925184
 31
0.0
  0
LINE
  5
E4
330
1F
100
AcDbEntity
  8
0
  6
Continuous
 62
     7
370
    25
100
AcDbLine
 10
6266.0246109822
 20
5226.2414992996
 30
0.0
 11
6266.0246109822
 21
5225.5343925184
 31
0.0
  0
LINE
  5
E5
330
1F
100
AcDbEntity
  8
0
  6
Continuous
 62
     7
370
    25
100
AcDbLine
 10
6282.1870361563
 20
5226.5387688419
 30
0.0
 11
6282.1870361563
 21
5225.8316620608
 31
0.0
  0
LINE
  5
E6
330
1F
100
AcDbEntity
  8
0
  6
Continuous
 62
     7
370
    25
100
AcDbLine
 10
6282.1870361563
 20
5225.8316620608
 30
0.0
 11
6282.6222462104
 21
5225.6476227963
 31
0.0
  0
ARC
  5
E7
330
1F
100
AcDbEntity
  8
0
  6
Continuous
 62
     7
370
    25
100
AcDbCircle
 10
6276.7544249445
 20
5228.8648638427
 30
0.0
 40
6.222023595879033
100
AcDbArc
 50
308.7303444163
 51
330.8239703362
  0
LINE
  5
E8
330
1F
100
AcDbEntity
  8
0
  6
Continuous
 62
     7
370
    25
100
AcDbLine
 10
6280.6472706697
 20
5224.0110684424
 30
0.0
 11
6281.0824807238
 21
5223.8270291779
 31
0.0
  0
LINE
  5
E9
330
1F
100
AcDbEntity
  8
0
  6
Continuous
 62
     7
370
    25
100
AcDbLine
 10
6280.6472706697
 20
5224.7181752236
 30
0.0
 11
6280.6472706697
 21
5224.0110684424
 31
0.0
  0
LINE
  5
EA
330
1F
100
AcDbEntity
  8
0
  6
Continuous
 62
     7
370
    25
100
AcDbLine
 10
6268.3069006047
 20
5224.0699982957
 30
0.0
 11
6268.3069006047
 21
5223.3628915145
 31
0.0
  0
LINE
  5
EB
330
1F
100
AcDbEntity
  8
0
  6
Continuous
 62
     7
370
    25
100
AcDbLine
 10
6270.8816087914
 20
5222.9812196787
 30
0.0
 11
6270.8816087914
 21
5222.2741128975
 31
0.0
  0
ARC
  5
EC
330
1F
100
AcDbEntity
  8
0
  6
Continuous
 62
     7
370
    25
100
AcDbCircle
 10
6273.4425310598
 20
5231.9187807186
 30
0.0
 40
9.978874698211618
100
AcDbArc
 50
239.0259192754
 51
255.1295488644
  0
LINE
  5
ED
330
1F
100
AcDbEntity
  8
0
  6
Continuous
 62
     7
370
    25
100
AcDbLine
 10
6268.3069006047
 20
5223.3628915145
 30
0.0
 11
6268.0466297809
 21
5223.055151534
 31
0.0
  0
LINE
  5
EE
330
1F
100
AcDbEntity
  8
0
  6
Continuous
 62
     7
370
    25
100
AcDbLine
 10
6270.8816087914
 20
5222.2741128975
 30
0.0
 11
6270.6213379676
 21
5221.966372917
 31
0.0
  0
LINE
  5
EF
330
1F
100
AcDbEntity
  8
0
  6
Continuous
 62
     7
370
    25
100
AcDbLine
 10
6277.7000052154
 20
5222.0495055347
 30
0.0
 11
6277.5763044993
 21
5222.3972459737
 31
0.0
  0
LINE
  5
F0
330
1F
100
AcDbEntity
  8
0
  6
Continuous
 62
     7
370
    25
100
AcDbLine
 10
6274.79063298
 20
5221.5320341847
 30
0.0
 11
6274.666932264
 21
5221.8797746236
 31
0.0
  0
ARC
  5
F1
330
1F
100
AcDbEntity
  8
0
  6
Continuous
 62
     7
370
    25
100
AcDbCircle
 10
6274.0755245236
 20
5233.6422363718
 30
0.0
 40
11.77732013207008
100
AcDbArc
 50
272.8783648797
 51
287.2923615075
  0
LINE
  5
F2
330
1F
100
AcDbEntity
  8
0
  6
Continuous
 62
     7
370
    25
100
AcDbLine
 10
6277.5763044993
 20
5223.1043527548
 30
0.0
 11
6277.5763044993
 21
5222.3972459737
 31
0.0
  0
LINE
  5
F3
330
1F
100
AcDbEntity
  8
0
  6
Continuous
 62
     7
370
    25
100
AcDbLine
 10
6274.666932264
 20
5222.5868814048
 30
0.0
 11
6274.666932264
 21
5221.8797746236
 31
0.0
  0
LINE
  5
F4
330
1F
100
AcDbEntity
  8
0
  6
Continuous
 62
     7
370
    25
100
AcDbLine
 10
6267.4369622673
 20
5244.5238224293
 30
0.0
 11
6267.4369622673
 21
5244.4991497109
 31
0.0
  0
LINE
  5
F5
330
1F
100
AcDbEntity
  8
0
  6
Continuous
 62
     7
370
    25
100
AcDbLine
 10
6280.6005484049
 20
5244.5223055705
 30
0.0
 11
6280.6005484049
 21
5244.4991497109
 31
0.0
  0
LINE
  5
F6
330
1F
100
AcDbEntity
  8
0
  6
Continuous
 62
     7
370
    25
100
AcDbLine
 10
6281.298350105
 20
5244.0994545927
 30
0.0
 11
6281.3332114594
 21
5244.0994545927
 31
0.0
  0
LINE
  5
F7
330
1F
100
AcDbEntity
  8
0
  6
Continuous
 62
     7
370
    25
100
AcDbLine
 10
6266.7130541336
 20
5244.0994545927
 30
0.0
 11
6266.7391605672
 21
5244.0994545927
 31
0.0
  0
LINE
  5
F8
330
1F
100
AcDbEntity
  8
0
  6
Continuous
 62
     7
370
    25
100
AcDbLine
 10
6249.1187553361
 20
5287.9994545927
 30
0.0
 11
6298.9187553361
 21
5287.9994545927
 31
0.0
  0
LINE
  5
F9
330
1F
100
AcDbEntity
  8
0
  6
Continuous
 62
     7
370
    25
100
AcDbLine
 10
6249.4187553361
 20
5287.6994545927
 30
0.0
 11
6298.6187553361
 21
5287.6994545927
 31
0.0
  0
LINE
  5
FA
330
1F
100
AcDbEntity
  8
0
  6
Continuous
 62
     7
370
    25
100
AcDbLine
 10
6249.1187553361
 20
5289.6994545927
 30
0.0
 11
6298.9187553361
 21
5289.6994545927
 31
0.0
  0
LINE
  5
FB
330
1F
100
AcDbEntity
  8
0
  6
Continuous
 62
     7
370
    25
100
AcDbLine
 10
6250.1187553361
 20
5290.6994545927
 30
0.0
 11
6297.9187553361
 21
5290.6994545927
 31
0.0
  0
ARC
  5
FC
330
1F
100
AcDbEntity
  8
0
  6
Continuous
 62
     7
370
    25
100
AcDbCircle
 10
6274.0187553361
 20
5232.1994545927
 30
0.0
 40
12.95000000000022
100
AcDbArc
 50
26.3603643512
 51
153.6396356488
  0
LINE
  5
FD
330
1F
100
AcDbEntity
  8
0
  6
Continuous
 62
     7
370
    25
100
AcDbLine
 10
6262.4153075726
 20
5237.9494545927
 30
0.0
 11
6260.9023533904
 21
5236.9494545927
 31
0.0
  0
ARC
  5
FE
330
1F
100
AcDbEntity
  8
0
  6
Continuous
 62
     7
370
    25
100
AcDbCircle
 10
6274.0187553361
 20
5232.1994545927
 30
0.0
 40
13.94999999999986
100
AcDbArc
 50
19.9074488975
 51
160.0925511025
  0
LINE
  5
FF
330
1F
100
AcDbEntity
  8
0
  6
Continuous
 62
     7
370
    25
100
AcDbLine
 10
6287.1351572818
 20
5236.9494545927
 30
0.0
 11
6285.6222030996
 21
5237.9494545927
 31
0.0
  0
ARC
  5
100
330
1F
100
AcDbEntity
  8
0
  6
Continuous
 62
     7
370
    25
100
AcDbCircle
 10
6274.0187553361
 20
5232.1994545927
 30
0.0
 40
13.94999999999986
100
AcDbArc
 50
160.0925511025
 51
19.9074488975
  0
LINE
  5
101
330
1F
100
AcDbEntity
  8
0
  6
Continuous
 62
     7
370
    25
100
AcDbLine
 10
6262.4153075726
 20
5237.9494545927
 30
0.0
 11
6285.6222030996
 21
5237.9494545927
 31
0.0
  0
LWPOLYLINE
  5
102
330
1F
100
AcDbEntity
  8
0
  6
Continuous
 62
     7
370
    25
100
AcDbPolyline
 90
       51
 70
   128
 43
0.0
 10
6274.0187553361
 20
5221.012585292
 10
6275.2661155769
 20
5221.0680770908
 10
6276.4938042016
 20
5221.2336773485
 10
6277.6824598271
 20
5221.50677445
 10
6278.8133366442
 20
5221.8830614909
 10
6279.86860005
 20
5222.3566041998
 10
6280.8316079101
 20
5222.9199345253
 10
6281.6871730153
 20
5223.5641684116
 10
6282.4218025928
 20
5224.2791459055
 10
6283.0239110953
 20
5225.0535913849
 10
6283.4840029121
 20
5225.8752913818
 10
6283.7948221203
 20
5226.7312871965
 10
6283.9514669154
 20
5227.6080792637
 10
6283.9514669154
 20
5228.4918400486
 10
6283.7948221203
 20
5229.3686321157
 10
6283.4840029121
 20
5230.2246279304
 10
6283.0239110953
 20
5231.0463279273
 10
6282.4218025928
 20
5231.8207734067
 10
6281.6871730153
 20
5232.5357509006
 10
6280.8316079101
 20
5233.1799847869
 10
6279.86860005
 20
5233.7433151124
 10
6278.8133366442
 20
5234.2168578213
 10
6277.6824598271
 20
5234.5931448622
 10
6276.4938042016
 20
5234.8662419637
 10
6275.2661155769
 20
5235.0318422214
 10
6274.0187553361
 20
5235.0873340202
 10
6272.7713950953
 20
5235.0318422214
 10
6271.5437064706
 20
5234.8662419637
 10
6270.3550508451
 20
5234.5931448622
 10
6269.224174028
 20
5234.2168578213
 10
6268.1689106222
 20
5233.7433151124
 10
6267.2059027621
 20
5233.1799847869
 10
6266.3503376569
 20
5232.5357509006
 10
6265.6157080794
 20
5231.8207734067
 10
6265.0135995769
 20
5231.0463279273
 10
6264.5535077601
 20
5230.2246279304
 10
6264.2426885519
 20
5229.3686321157
 10
6264.0860437568
 20
5228.4918400486
 10
6264.0860437568
 20
5227.6080792637
 10
6264.2426885519
 20
5226.7312871965
 10
6264.5535077601
 20
5225.8752913818
 10
6265.0135995769
 20
5225.0535913849
 10
6265.6157080794
 20
5224.2791459055
 10
6266.3503376569
 20
5223.5641684116
 10
6267.2059027621
 20
5222.9199345253
 10
6268.1689106222
 20
5222.3566041998
 10
6269.224174028
 20
5221.8830614909
 10
6270.3550508451
 20
5221.50677445
 10
6271.5437064706
 20
5221.2336773485
 10
6272.7713950953
 20
5221.0680770908
 10
6274.0187553361
 20
5221.012585292
  0
LINE
  5
103
330
1F
100
AcDbEntity
  8
0
  6
Continuous
 62
     7
370
    25
100
AcDbLine
 10
6274.0187553361
 20
5222.1279403637
 30
0.0
 11
6274.666932264
 21
5222.1438035637
 31
0.0
  0
ARC
  5
104
330
1F
100
AcDbEntity
  8
0
  6
Continuous
 62
     7
370
    25
100
AcDbCircle
 10
6274.87801549
 20
5232.3517006644
 30
0.0
 40
10.09382017029406
100
AcDbArc
 50
286.2348998584
 51
304.8592977743
  0
ARC
  5
105
330
1F
100
AcDbEntity
  8
0
  6
Continuous
 62
     7
370
    25
100
AcDbCircle
 10
6278.327926094
 20
5228.7789631679
 30
0.0
 40
5.048987956662335
100
AcDbArc
 50
328.2694566885
 51
44.9928606436
  0
ARC
  5
106
330
1F
100
AcDbEntity
  8
0
  6
Continuous
 62
     7
370
    25
100
AcDbCircle
 10
6269.7265846433
 20
5228.7620240955
 30
0.0
 40
5.072986556200083
100
AcDbArc
 50
135.0075926863
 51
193.8464785019
  0
ARC
  5
107
330
1F
100
AcDbEntity
  8
0
  6
Continuous
 62
     7
370
    25
100
AcDbCircle
 10
6271.8942528405
 20
5230.4256960459
 30
0.0
 40
7.794492692538515
100
AcDbArc
 50
219.161151365
 51
240.4203149486
  0
ARC
  5
108
330
1F
100
AcDbEntity
  8
0
  6
Continuous
 62
     7
370
    25
100
AcDbCircle
 10
6273.997845158
 20
5235.0234606514
 30
0.0
 40
12.89553724070985
100
AcDbArc
 50
256.0159184105
 51
270.0929054335
  0
LWPOLYLINE
  5
109
330
1F
100
AcDbEntity
  8
0
  6
Continuous
 62
     7
370
    25
100
AcDbPolyline
 90
        3
 70
   128
 43
0.0
 10
6283.2593073826
 20
5229.4061683653
 10
6283.2735845556
 20
5229.4668255647
 10
6283.3100483032
 20
5229.6409499138
  0
LWPOLYLINE
  5
10A
330
1F
100
AcDbEntity
  8
0
  6
Continuous
 62
     7
370
    25
100
AcDbPolyline
 90
        3
 70
   128
 43
0.0
 10
6264.727462369
 20
5229.6409499138
 10
6264.7639261166
 20
5229.4668255647
 10
6264.7782032896
 20
5229.4061683653
  0
LINE
  5
10B
330
1F
100
AcDbEntity
  8
0
  6
Continuous
 62
     7
370
    25
100
AcDbLine
 10
6249.2687553361
 20
5138.8994545927
 30
0.0
 11
6298.7687553361
 21
5138.8994545927
 31
0.0
  0
LINE
  5
10C
330
1F
100
AcDbEntity
  8
0
  6
Continuous
 62
     7
370
    25
100
AcDbLine
 10
6274.0187553361
 20
5287.4994545927
 30
0.0
 11
6249.2687553361
 21
5287.4994545927
 31
0.0
  0
LINE
  5
10D
330
1F
100
AcDbEntity
  8
0
  6
Continuous
 62
     7
370
    25
100
AcDbLine
 10
6298.7687553361
 20
5287.4994545927
 30
0.0
 11
6274.0187553361
 21
5287.4994545927
 31
0.0
  0
SPLINE
  5
10E
330
1F
100
AcDbEntity
  8
0
  6
Continuous
 62
     7
370
    25
100
AcDbSpline
210
0.0
220
0.0
230
1.0
 70
     8
 71
     3
 72
    14
 73
    10
 74
     0
 42
0.00000001
 43
0.00000001
 40
0.0
 40
0.0
 40
0.0
 40
0.0
 40
0.1459520540718362
 40
0.2919515174962974
 40
0.4373810927217076
 40
0.5828849696411942
 40
0.7387904005370698
 40
0.8947187690678957
 40
0.9999999999999999
 40
0.9999999999999999
 40
0.9999999999999999
 40
0.9999999999999999
 10
6274.0187553361
 20
5218.199454592719
 30
0.0
 10
6273.294439909215
 20
5218.232910754833
 30
0.0
 10
6271.84557377732
 20
5218.299833946567
 30
0.0
 10
6269.741417317417
 20
5218.814233843251
 30
0.0
 10
6267.768243999284
 20
5219.614514131882
 30
0.0
 10
6265.915020808387
 20
5220.711632166995
 30
0.0
 10
6264.246240939434
 20
5222.108569791017
 30
0.0
 10
6262.900200666394
 20
5223.569195584192
 30
0.0
 10
6262.274356656232
 20
5224.649709251632
 30
0.0
 10
6262.022108546297
 20
5225.085213188628
 30
0.0
  0
SPLINE
  5
10F
330
1F
100
AcDbEntity
  8
0
  6
Continuous
 62
     7
370
    25
100
AcDbSpline
210
0.0
220
0.0
230
1.0
 70
     8
 71
     3
 72
    17
 73
    13
 74
     0
 42
0.00000001
 43
0.00000001
 40
0.0
 40
0.0
 40
0.0
 40
0.0
 40
0.0506240063493581
 40
0.1563907615902332
 40
0.2621065851952584
 40
0.3679368435026833
 40
0.4738168015696221
 40
0.5794604650441414
 40
0.6851622233510953
 40
0.8075236408760447
 40
0.9298912845082284
 40
0.9999999999999999
 40
0.9999999999999999
 40
0.9999999999999999
 40
0.9999999999999999
 10
6260.939910707451
 20
5227.355185581343
 30
0.0
 10
6260.818099461091
 20
5227.64212430163
 30
0.0
 10
6260.441792744927
 20
5228.528552860562
 30
0.0
 10
6260.135022936669
 20
5230.159712759902
 30
0.0
 10
6259.966235894537
 20
5232.158834677176
 30
0.0
 10
6260.11292331023
 20
5234.169212109926
 30
0.0
 10
6260.529039251572
 20
5236.119588659525
 30
0.0
 10
6261.212343650559
 20
5237.962215351998
 30
0.0
 10
6262.173021726402
 20
5239.763442031061
 30
0.0
 10
6263.454003739324
 20
5241.454548050301
 30
0.0
 10
6264.788047670691
 20
5242.824911683158
 30
0.0
 10
6265.773605856889
 20
5243.46595662974
 30
0.0
 10
6266.13259133849
 20
5243.699454592719
 30
0.0
  0
ARC
  5
110
330
1F
100
AcDbEntity
  8
0
  6
Continuous
 62
     7
370
    25
100
AcDbCircle
 10
6274.0527785417
 20
5232.1798445727
 30
0.0
 40
13.98043138004363
100
AcDbArc
 50
269.8605631002
 51
123.9644062466
  0
LINE
  5
111
330
1F
100
AcDbEntity
  8
0
  6
Continuous
 62
     7
370
    25
100
AcDbLine
 10
6266.0343956248
 20
5243.6994545927
 30
0.0
 11
6266.1223954152
 21
5243.6994545927
 31
0.0
  0
LINE
  5
112
330
1F
100
AcDbEntity
  8
0
  6
Continuous
 62
     7
370
    25
100
AcDbLine
 10
6281.915115257
 20
5243.6994545927
 30
0.0
 11
6282.0031150474
 21
5243.6994545927
 31
0.0
  0
LINE
  5
113
330
1F
100
AcDbEntity
  8
0
  6
Continuous
 62
     7
370
    25
100
AcDbLine
 10
6304.0187553361
 20
5136.7597815263
 30
0.0
 11
6244.0187553361
 21
5136.7597815263
 31
0.0
  0
LINE
  5
114
330
1F
100
AcDbEntity
  8
0
  6
Continuous
 62
     7
370
    25
100
AcDbLine
 10
6303.5143658636
 20
5137.5962978301
 30
0.0
 11
6303.535792423
 21
5137.5962978301
 31
0.0
  0
LINE
  5
115
330
1F
100
AcDbEntity
  8
0
  6
Continuous
 62
     7
370
    25
100
AcDbLine
 10
6244.5017182492
 20
5137.5962978301
 30
0.0
 11
6303.5143658636
 21
5137.5962978301
 31
0.0
  0
LINE
  5
116
330
1F
100
AcDbEntity
  8
0
  6
Continuous
 62
     7
370
    25
100
AcDbLine
 10
6304.0187553361
 20
5134.6994545927
 30
0.0
 11
6244.0187553361
 21
5134.6994545927
 31
0.0
  0
LINE
  5
117
330
1F
100
AcDbEntity
  8
0
  6
Continuous
 62
     7
370
    25
100
AcDbLine
 10
6299.4187553361
 20
5138.6994545927
 30
0.0
 11
6248.6187553361
 21
5138.6994545927
 31
0.0
  0
LINE
  5
118
330
1F
100
AcDbEntity
  8
0
  6
Continuous
 62
     7
370
    25
100
AcDbLine
 10
6449.9155230554
 20
5145.6200025379
 30
0.0
 11
6449.9155230554
 21
5143.6994545927
 31
0.0
  0
LINE
  5
119
330
1F
100
AcDbEntity
  8
0
  6
Continuous
 62
     7
370
    25
100
AcDbLine
 10
6449.9155230554
 20
5148.6994545927
 30
0.0
 11
6449.9155230554
 21
5145.8471914464
 31
0.0
  0
LINE
  5
11A
330
1F
100
AcDbEntity
  8
0
  6
Continuous
 62
     7
370
    25
100
AcDbLine
 10
6489.1655230554
 20
5290.6994545927
 30
0.0
 11
6489.1655230554
 21
5291.1994545927
 31
0.0
  0
LINE
  5
11B
330
1F
100
AcDbEntity
  8
0
  6
Continuous
 62
     7
370
    25
100
AcDbLine
 10
6461.1655230554
 20
5291.1994545927
 30
0.0
 11
6461.1655230554
 21
5290.6994545927
 31
0.0
  0
LINE
  5
11C
330
1F
100
AcDbEntity
  8
0
  6
Continuous
 62
     7
370
    25
100
AcDbLine
 10
6489.1655230554
 20
5291.1994545927
 30
0.0
 11
6487.6655230554
 21
5292.6994545927
 31
0.0
  0
LINE
  5
11D
330
1F
100
AcDbEntity
  8
0
  6
Continuous
 62
     7
370
    25
100
AcDbLine
 10
6462.6655230554
 20
5292.6994545927
 30
0.0
 11
6461.1655230554
 21
5291.1994545927
 31
0.0
  0
LINE
  5
11E
330
1F
100
AcDbEntity
  8
0
  6
Continuous
 62
     7
370
    25
100
AcDbLine
 10
6500.0655230554
 20
5289.6994545927
 30
0.0
 11
6499.0655230554
 21
5290.6994545927
 31
0.0
  0
LINE
  5
11F
330
1F
100
AcDbEntity
  8
0
  6
Continuous
 62
     7
370
    25
100
AcDbLine
 10
6451.2655230554
 20
5290.6994545927
 30
0.0
 11
6450.2655230554
 21
5289.6994545927
 31
0.0
  0
LINE
  5
120
330
1F
100
AcDbEntity
  8
0
  6
Continuous
 62
     7
370
    25
100
AcDbLine
 10
6450.2655230554
 20
5287.9994545927
 30
0.0
 11
6450.5655230554
 21
5287.6994545927
 31
0.0
  0
LINE
  5
121
330
1F
100
AcDbEntity
  8
0
  6
Continuous
 62
     7
370
    25
100
AcDbLine
 10
6499.7655230554
 20
5287.6994545927
 30
0.0
 11
6500.0655230554
 21
5287.9994545927
 31
0.0
  0
LINE
  5
122
330
1F
100
AcDbEntity
  8
0
  6
Continuous
 62
     7
370
    25
100
AcDbLine
 10
6450.2655230554
 20
5289.6994545927
 30
0.0
 11
6450.2655230554
 21
5287.9994545927
 31
0.0
  0
LINE
  5
123
330
1F
100
AcDbEntity
  8
0
  6
Continuous
 62
     7
370
    25
100
AcDbLine
 10
6500.0655230554
 20
5287.9994545927
 30
0.0
 11
6500.0655230554
 21
5289.6994545927
 31
0.0
  0
LINE
  5
124
330
1F
100
AcDbEntity
  8
0
  6
Continuous
 62
     7
370
    25
100
AcDbLine
 10
6499.8873525175
 20
5218.2494545927
 30
0.0
 11
6570.4655230554
 21
5218.2494545927
 31
0.0
  0
LINE
  5
125
330
1F
100
AcDbEntity
  8
0
  6
Continuous
 62
     7
370
    25
100
AcDbLine
 10
6589.1655230554
 20
5246.1494545927
 30
0.0
 11
6499.8873528246
 21
5246.1494545927
 31
0.0
  0
LINE
  5
126
330
1F
100
AcDbEntity
  8
0
  6
Continuous
 62
     7
370
    25
100
AcDbLine
 10
6590.1655230554
 20
5245.1494545927
 30
0.0
 11
6589.1655230554
 21
5246.1494545927
 31
0.0
  0
LINE
  5
127
330
1F
100
AcDbEntity
  8
0
  6
Continuous
 62
     7
370
    25
100
AcDbLine
 10
6450.4155230554
 20
5138.8994545927
 30
0.0
 11
6450.6155230554
 21
5138.6994545927
 31
0.0
  0
LINE
  5
128
330
1F
100
AcDbEntity
  8
0
  6
Continuous
 62
     7
370
    25
100
AcDbLine
 10
6499.7155230554
 20
5138.6994545927
 30
0.0
 11
6499.9155230554
 21
5138.8994545927
 31
0.0
  0
LINE
  5
129
330
1F
100
AcDbEntity
  8
0
  6
Continuous
 62
     7
370
    25
100
AcDbLine
 10
6499.9155230554
 20
5287.4994545927
 30
0.0
 11
6499.7155230554
 21
5287.6994545927
 31
0.0
  0
LINE
  5
12A
330
1F
100
AcDbEntity
  8
0
  6
Continuous
 62
     7
370
    25
100
AcDbLine
 10
6450.6155230554
 20
5287.6994545927
 30
0.0
 11
6450.4155230554
 21
5287.4994545927
 31
0.0
  0
LINE
  5
12B
330
1F
100
AcDbEntity
  8
0
  6
Continuous
 62
     7
370
    25
100
AcDbLine
 10
6450.4155230554
 20
5283.2647952742
 30
0.0
 11
6450.4155230554
 21
5148.6994545927
 31
0.0
  0
LINE
  5
12C
330
1F
100
AcDbEntity
  8
0
  6
Continuous
 62
     7
370
    25
100
AcDbLine
 10
6450.4155230554
 20
5143.6994545927
 30
0.0
 11
6450.4155230554
 21
5138.8994545927
 31
0.0
  0
LINE
  5
12D
330
1F
100
AcDbEntity
  8
0
  6
Continuous
 62
     7
370
    25
100
AcDbLine
 10
6450.4155230554
 20
5287.4994545927
 30
0.0
 11
6450.4155230554
 21
5285.7494545927
 31
0.0
  0
LINE
  5
12E
330
1F
100
AcDbEntity
  8
0
  6
Continuous
 62
     7
370
    25
100
AcDbLine
 10
6499.9155230554
 20
5246.1938442694
 30
0.0
 11
6499.9155230554
 21
5287.4994545927
 31
0.0
  0
LINE
  5
12F
330
1F
100
AcDbEntity
  8
0
  6
Continuous
 62
     7
370
    25
100
AcDbLine
 10
6499.9155230554
 20
5138.8994545927
 30
0.0
 11
6499.9155230554
 21
5218.1994545927
 31
0.0
  0
LINE
  5
130
330
1F
100
AcDbEntity
  8
0
  6
Continuous
 62
     7
370
    25
100
AcDbLine
 10
6505.1655230554
 20
5136.7597815263
 30
0.0
 11
6504.6825601422
 21
5137.5962978301
 31
0.0
  0
LINE
  5
131
330
1F
100
AcDbEntity
  8
0
  6
Continuous
 62
     7
370
    25
100
AcDbLine
 10
6445.6484859685
 20
5137.5962978301
 30
0.0
 11
6445.1655230554
 21
5136.7597815263
 31
0.0
  0
LINE
  5
132
330
1F
100
AcDbEntity
  8
0
  6
Continuous
 62
     7
370
    25
100
AcDbLine
 10
6505.1655230554
 20
5134.6994545927
 30
0.0
 11
6505.1655230554
 21
5136.7597815263
 31
0.0
  0
LINE
  5
133
330
1F
100
AcDbEntity
  8
0
  6
Continuous
 62
     7
370
    25
100
AcDbLine
 10
6445.1655230554
 20
5136.7597815263
 30
0.0
 11
6445.1655230554
 21
5134.6994545927
 31
0.0
  0
LINE
  5
134
330
1F
100
AcDbEntity
  8
0
  6
Continuous
 62
     7
370
    25
100
AcDbLine
 10
6504.6825601422
 20
5137.5962978301
 30
0.0
 11
6500.5655230554
 21
5138.6994545927
 31
0.0
  0
LINE
  5
135
330
1F
100
AcDbEntity
  8
0
  6
Continuous
 62
     7
370
    25
100
AcDbLine
 10
6449.7655230554
 20
5138.6994545927
 30
0.0
 11
6445.6484859685
 21
5137.5962978301
 31
0.0
  0
LINE
  5
136
330
1F
100
AcDbEntity
  8
0
  6
Continuous
 62
     7
370
    25
100
AcDbLine
 10
6452.3599542746
 20
5148.6994545927
 30
0.0
 11
6452.3599542746
 21
5143.6994545927
 31
0.0
  0
LINE
  5
137
330
1F
100
AcDbEntity
  8
0
  6
Continuous
 62
     7
370
    25
100
AcDbLine
 10
6449.9155230554
 20
5143.6994545927
 30
0.0
 11
6452.3599542746
 21
5143.6994545927
 31
0.0
  0
SPLINE
  5
138
330
1F
100
AcDbEntity
  8
0
  6
Continuous
 62
     7
370
    25
100
AcDbSpline
210
0.0
220
0.0
230
1.0
 70
     8
 71
     3
 72
    10
 73
     6
 74
     0
 42
0.00000001
 43
0.00000001
 40
0.0
 40
0.0
 40
0.0
 40
0.0
 40
0.4990665516922463
 40
0.7492735597631919
 40
1.0
 40
1.0
 40
1.0
 40
1.0
 10
6451.538921164873
 20
5147.576166921486
 30
0.0
 10
6451.548325711198
 20
5147.574012237712
 30
0.0
 10
6451.562445226678
 20
5147.570777303261
 30
0.0
 10
6451.578928755515
 20
5147.542762829988
 30
0.0
 10
6451.5847651075
 20
5147.521888754362
 30
0.0
 10
6451.587686309434
 20
5147.511440894089
 30
0.0
  0
SPLINE
  5
139
330
1F
100
AcDbEntity
  8
0
  6
Continuous
 62
     7
370
    25
100
AcDbSpline
210
0.0
220
0.0
230
1.0
 70
     8
 71
     3
 72
    11
 73
     7
 74
     0
 42
0.00000001
 43
0.00000001
 40
0.0
 40
0.0
 40
0.0
 40
0.0
 40
0.2502250740515308
 40
0.5000221176555736
 40
0.7497760287819357
 40
1.0
 40
1.0
 40
1.0
 40
1.0
 10
6451.502753010548
 20
5147.524026510528
 30
0.0
 10
6451.504953046625
 20
5147.531896902209
 30
0.0
 10
6451.509349355436
 20
5147.547624222624
 30
0.0
 10
6451.518279640371
 20
5147.564223641696
 30
0.0
 10
6451.528271727138
 20
5147.575044351631
 30
0.0
 10
6451.535369128061
 20
5147.575792497075
 30
0.0
 10
6451.538921164873
 20
5147.576166921486
 30
0.0
  0
SPLINE
  5
13A
330
1F
100
AcDbEntity
  8
0
  6
Continuous
 62
     7
370
    25
100
AcDbSpline
210
0.0
220
0.0
230
1.0
 70
     8
 71
     3
 72
    10
 73
     6
 74
     0
 42
0.00000001
 43
0.00000001
 40
0.0
 40
0.0
 40
0.0
 40
0.0
 40
0.2558734379475471
 40
0.6629806120860766
 40
1.0
 40
1.0
 40
1.0
 40
1.0
 10
6451.493981137123
 20
5147.45150938724
 30
0.0
 10
6451.494115518761
 20
5147.458161241764
 30
0.0
 10
6451.494463708167
 20
5147.475396522687
 30
0.0
 10
6451.496886587272
 20
5147.501203880195
 30
0.0
 10
6451.500924304274
 20
5147.516912143678
 30
0.0
 10
6451.502753010548
 20
5147.524026510528
 30
0.0
  0
SPLINE
  5
13B
330
1F
100
AcDbEntity
  8
0
  6
Continuous
 62
     7
370
    25
100
AcDbSpline
210
0.0
220
0.0
230
1.0
 70
     8
 71
     3
 72
    10
 73
     6
 74
     0
 42
0.00000001
 43
0.00000001
 40
0.0
 40
0.0
 40
0.0
 40
0.0
 40
0.4205323629123043
 40
0.7090838547940549
 40
1.0
 40
1.0
 40
1.0
 40
1.0
 10
6451.496693727438
 20
5147.404762811897
 30
0.0
 10
6451.496011732229
 20
5147.411153595522
 30
0.0
 10
6451.494861780799
 20
5147.42192946413
 30
0.0
 10
6451.494195851648
 20
5147.437722945765
 30
0.0
 10
6451.494052903076
 20
5147.446901421775
 30
0.0
 10
6451.493981137123
 20
5147.45150938724
 30
0.0
  0
LINE
  5
13C
330
1F
100
AcDbEntity
  8
0
  6
Continuous
 62
     7
370
    25
100
AcDbLine
 10
6451.798090501
 20
5146.1569888393
 30
0.0
 11
6451.4966937274
 21
5147.4047628119
 31
0.0
  0
LINE
  5
13D
330
1F
100
AcDbEntity
  8
0
  6
Continuous
 62
     7
370
    25
100
AcDbLine
 10
6451.5042172759
 20
5144.9427765105
 30
0.0
 11
6451.798090501
 21
5146.1569888393
 31
0.0
  0
SPLINE
  5
13E
330
1F
100
AcDbEntity
  8
0
  6
Continuous
 62
     7
370
    25
100
AcDbSpline
210
0.0
220
0.0
230
1.0
 70
     8
 71
     3
 72
     9
 73
     5
 74
     0
 42
0.00000001
 43
0.00000001
 40
0.0
 40
0.0
 40
0.0
 40
0.0
 40
0.500046113259848
 40
1.0
 40
1.0
 40
1.0
 40
1.0
 10
6451.493981137123
 20
5144.840293633815
 30
0.0
 10
6451.494326929852
 20
5144.858492916511
 30
0.0
 10
6451.495018451531
 20
5144.894888125296
 30
0.0
 10
6451.501151189647
 20
5144.926814696943
 30
0.0
 10
6451.504217275904
 20
5144.942776510527
 30
0.0
  0
SPLINE
  5
13F
330
1F
100
AcDbEntity
  8
0
  6
Continuous
 62
     7
370
    25
100
AcDbSpline
210
0.0
220
0.0
230
1.0
 70
     8
 71
     3
 72
    10
 73
     6
 74
     0
 42
0.00000001
 43
0.00000001
 40
0.0
 40
0.0
 40
0.0
 40
0.0
 40
0.250327941372281
 40
0.4999666459574915
 40
1.0
 40
1.0
 40
1.0
 40
1.0
 10
6451.523943528533
 20
5144.743803907788
 30
0.0
 10
6451.520024114207
 20
5144.746732494699
 30
0.0
 10
6451.51219607702
 20
5144.752581605139
 30
0.0
 10
6451.500335680246
 20
5144.78561709697
 30
0.0
 10
6451.496523723144
 20
5144.818416404326
 30
0.0
 10
6451.493981137123
 20
5144.840293633815
 30
0.0
  0
LINE
  5
140
330
1F
100
AcDbEntity
  8
0
  6
Continuous
 62
     7
370
    25
100
AcDbLine
 10
6451.5387097463
 20
5144.7378107571
 30
0.0
 11
6451.5239435285
 21
5144.7438039078
 31
0.0
  0
SPLINE
  5
141
330
1F
100
AcDbEntity
  8
0
  6
Continuous
 62
     7
370
    25
100
AcDbSpline
210
0.0
220
0.0
230
1.0
 70
     8
 71
     3
 72
    10
 73
     6
 74
     0
 42
0.00000001
 43
0.00000001
 40
0.0
 40
0.0
 40
0.0
 40
0.0
 40
0.2502237850971473
 40
0.5004141625172195
 40
1.0
 40
1.0
 40
1.0
 40
1.0
 10
6451.578904198126
 20
5144.774968291349
 30
0.0
 10
6451.576080473799
 20
5144.768508908962
 30
0.0
 10
6451.570433402146
 20
5144.755591006588
 30
0.0
 10
6451.556664194581
 20
5144.741347168209
 30
0.0
 10
6451.54588924087
 20
5144.73922487153
 30
0.0
 10
6451.538709746288
 20
5144.737810757102
 30
0.0
  0
LINE
  5
142
330
1F
100
AcDbEntity
  8
0
  6
Continuous
 62
     7
370
    25
100
AcDbLine
 10
6451.8584960743
 20
5145.9640093872
 30
0.0
 11
6451.5789041981
 21
5144.7749682913
 31
0.0
  0
LINE
  5
143
330
1F
100
AcDbEntity
  8
0
  6
Continuous
 62
     7
370
    25
100
AcDbLine
 10
6452.1448104856
 20
5144.807331305
 30
0.0
 11
6451.8584960743
 21
5145.9640093872
 31
0.0
  0
SPLINE
  5
144
330
1F
100
AcDbEntity
  8
0
  6
Continuous
 62
     7
370
    25
100
AcDbSpline
210
0.0
220
0.0
230
1.0
 70
     8
 71
     3
 72
     9
 73
     5
 74
     0
 42
0.00000001
 43
0.00000001
 40
0.0
 40
0.0
 40
0.0
 40
0.0
 40
0.4998923417080742
 40
1.0
 40
1.0
 40
1.0
 40
1.0
 10
6452.180400181568
 20
5144.737810757102
 30
0.0
 10
6452.173520824586
 20
5144.746588106567
 30
0.0
 10
6452.159759147503
 20
5144.764146586129
 30
0.0
 10
6452.149794088139
 20
5144.792934332581
 30
0.0
 10
6452.144810485635
 20
5144.807331305047
 30
0.0
  0
SPLINE
  5
145
330
1F
100
AcDbEntity
  8
0
  6
Continuous
 62
     7
370
    25
100
AcDbSpline
210
0.0
220
0.0
230
1.0
 70
     8
 71
     3
 72
    11
 73
     7
 74
     0
 42
0.00000001
 43
0.00000001
 40
0.0
 40
0.0
 40
0.0
 40
0.0
 40
0.2500492632215804
 40
0.4998309992079434
 40
0.74976689178313
 40
1.0
 40
1.0
 40
1.0
 40
1.0
 10
6452.253140160784
 20
5144.804334729705
 30
0.0
 10
6452.24816344067
 20
5144.793488841912
 30
0.0
 10
6452.238215325028
 20
5144.771808670321
 30
0.0
 10
6452.219736861547
 20
5144.751786086341
 30
0.0
 10
6452.200304046875
 20
5144.739752176009
 30
0.0
 10
6452.187037431147
 20
5144.738458153053
 30
0.0
 10
6452.180400181568
 20
5144.737810757102
 30
0.0
  0
SPLINE
  5
146
330
1F
100
AcDbEntity
  8
0
  6
Continuous
 62
     7
370
    25
100
AcDbSpline
210
0.0
220
0.0
230
1.0
 70
     8
 71
     3
 72
    10
 73
     6
 74
     0
 42
0.00000001
 43
0.00000001
 40
0.0
 40
0.0
 40
0.0
 40
0.0
 40
0.304705801472948
 40
0.5762581046432658
 40
1.0
 40
1.0
 40
1.0
 40
1.0
 10
6452.261205830286
 20
5144.866663496829
 30
0.0
 10
6452.260846868269
 20
5144.860046613544
 30
0.0
 10
6452.26016800108
 20
5144.847532796603
 30
0.0
 10
6452.257755211962
 20
5144.826300264634
 30
0.0
 10
6452.25488772777
 20
5144.81265235007
 30
0.0
 10
6452.253140160784
 20
5144.804334729705
 30
0.0
  0
SPLINE
  5
147
330
1F
100
AcDbEntity
  8
0
  6
Continuous
 62
     7
370
    25
100
AcDbSpline
210
0.0
220
0.0
230
1.0
 70
     8
 71
     3
 72
    10
 73
     6
 74
     0
 42
0.00000001
 43
0.00000001
 40
0.0
 40
0.0
 40
0.0
 40
0.0
 40
0.3325154243635751
 40
0.6634226556241084
 40
1.0
 40
1.0
 40
1.0
 40
1.0
 10
6452.251377557356
 20
5144.92180048313
 30
0.0
 10
6452.252809645544
 20
5144.916066329267
 30
0.0
 10
6452.2556668957
 20
5144.904625754469
 30
0.0
 10
6452.259022279099
 20
5144.886134929254
 30
0.0
 10
6452.260473869592
 20
5144.873190627164
 30
0.0
 10
6452.261205830286
 20
5144.866663496829
 30
0.0
  0
LINE
  5
148
330
1F
100
AcDbEntity
  8
0
  6
Continuous
 62
     7
370
    25
100
AcDbLine
 10
6451.9216892371
 20
5146.1521943187
 30
0.0
 11
6452.2513775574
 21
5144.9218004831
 31
0.0
  0
LINE
  5
149
330
1F
100
AcDbEntity
  8
0
  6
Continuous
 62
     7
370
    25
100
AcDbLine
 10
6452.228771878
 20
5147.361612127
 30
0.0
 11
6451.9216892371
 21
5146.1521943187
 31
0.0
  0
SPLINE
  5
14A
330
1F
100
AcDbEntity
  8
0
  6
Continuous
 62
     7
370
    25
100
AcDbSpline
210
0.0
220
0.0
230
1.0
 70
     8
 71
     3
 72
    10
 73
     6
 74
     0
 42
0.00000001
 43
0.00000001
 40
0.0
 40
0.0
 40
0.0
 40
0.0
 40
0.2492904803073617
 40
0.4993112821061945
 40
1.0
 40
1.0
 40
1.0
 40
1.0
 10
6452.261205830286
 20
5147.468290209157
 30
0.0
 10
6452.260345604309
 20
5147.457070275624
 30
0.0
 10
6452.258622632236
 20
5147.434597538634
 30
0.0
 10
6452.246544352904
 20
5147.39844259168
 30
0.0
 10
6452.235882706047
 20
5147.376348121954
 30
0.0
 10
6452.228771878016
 20
5147.361612126966
 30
0.0
  0
SPLINE
  5
14B
330
1F
100
AcDbEntity
  8
0
  6
Continuous
 62
     7
370
    25
100
AcDbSpline
210
0.0
220
0.0
230
1.0
 70
     8
 71
     3
 72
    11
 73
     7
 74
     0
 42
0.00000001
 43
0.00000001
 40
0.0
 40
0.0
 40
0.0
 40
0.0
 40
0.2504737303710377
 40
0.5001199898305628
 40
0.7496164706793966
 40
1.0
 40
1.0
 40
1.0
 40
1.0
 10
6452.219008582117
 20
5147.565978565322
 30
0.0
 10
6452.223999142727
 20
5147.56248217415
 30
0.0
 10
6452.233963777016
 20
5147.555500942567
 30
0.0
 10
6452.2472030134
 20
5147.53463037633
 30
0.0
 10
6452.256716787172
 20
5147.504092205636
 30
0.0
 10
6452.259707713425
 20
5147.480238317739
 30
0.0
 10
6452.261205830286
 20
5147.468290209157
 30
0.0
  0
SPLINE
  5
14C
330
1F
100
AcDbEntity
  8
0
  6
Continuous
 62
     7
370
    25
100
AcDbSpline
210
0.0
220
0.0
230
1.0
 70
     8
 71
     3
 72
     9
 73
     5
 74
     0
 42
0.00000001
 43
0.00000001
 40
0.0
 40
0.0
 40
0.0
 40
0.0
 40
0.500189805949995
 40
1.0
 40
1.0
 40
1.0
 40
1.0
 10
6452.193318025838
 20
5147.576166921486
 30
0.0
 10
6452.197655587131
 20
5147.575381675637
 30
0.0
 10
6452.206327417785
 20
5147.573811779888
 30
0.0
 10
6452.214782597234
 20
5147.568588975964
 30
0.0
 10
6452.219008582116
 20
5147.565978565322
 30
0.0
  0
SPLINE
  5
14D
330
1F
100
AcDbEntity
  8
0
  6
Continuous
 62
     7
370
    25
100
AcDbSpline
210
0.0
220
0.0
230
1.0
 70
     8
 71
     3
 72
     9
 73
     5
 74
     0
 42
0.00000001
 43
0.00000001
 40
0.0
 40
0.0
 40
0.0
 40
0.0
 40
0.5018301460567145
 40
1.0
 40
1.0
 40
1.0
 40
1.0
 10
6452.155656602316
 20
5147.536012811897
 30
0.0
 10
6452.161276962543
 20
5147.54636178159
 30
0.0
 10
6452.172476688724
 20
5147.566984236766
 30
0.0
 10
6452.186387886482
 20
5147.573113504884
 30
0.0
 10
6452.193318025838
 20
5147.576166921486
 30
0.0
  0
LINE
  5
14E
330
1F
100
AcDbEntity
  8
0
  6
Continuous
 62
     7
370
    25
100
AcDbLine
 10
6451.8596489569
 20
5146.3517662366
 30
0.0
 11
6452.1556566023
 21
5147.5360128119
 31
0.0
  0
LINE
  5
14F
330
1F
100
AcDbEntity
  8
0
  6
Continuous
 62
     7
370
    25
100
AcDbLine
 10
6451.5876863094
 20
5147.5114408941
 30
0.0
 11
6451.8596489569
 21
5146.3517662366
 31
0.0
  0
SPLINE
  5
150
330
1F
100
AcDbEntity
  8
0
  6
Continuous
 62
     7
370
    25
100
AcDbSpline
210
0.0
220
0.0
230
1.0
 70
     8
 71
     3
 72
    10
 73
     6
 74
     0
 42
0.00000001
 43
0.00000001
 40
0.0
 40
0.0
 40
0.0
 40
0.0
 40
0.4990665516922249
 40
0.749273559763457
 40
1.0
 40
1.0
 40
1.0
 40
1.0
 10
6450.873790938036
 20
5147.576166921486
 30
0.0
 10
6450.881071302982
 20
5147.574012237712
 30
0.0
 10
6450.892001678781
 20
5147.570777303261
 30
0.0
 10
6450.904795876392
 20
5147.542762829988
 30
0.0
 10
6450.909330488028
 20
5147.521888754362
 30
0.0
 10
6450.911600144881
 20
5147.511440894089
 30
0.0
  0
SPLINE
  5
151
330
1F
100
AcDbEntity
  8
0
  6
Continuous
 62
     7
370
    25
100
AcDbSpline
210
0.0
220
0.0
230
1.0
 70
     8
 71
     3
 72
    11
 73
     7
 74
     0
 42
0.00000001
 43
0.00000001
 40
0.0
 40
0.0
 40
0.0
 40
0.0
 40
0.2502250740515298
 40
0.5000221176560091
 40
0.7497760287822925
 40
1.0
 40
1.0
 40
1.0
 40
1.0
 10
6450.845864637499
 20
5147.524026510528
 30
0.0
 10
6450.847560513656
 20
5147.531896902209
 30
0.0
 10
6450.850949365034
 20
5147.547624222624
 30
0.0
 10
6450.857839706426
 20
5147.564223641696
 30
0.0
 10
6450.865556028052
 20
5147.575044351631
 30
0.0
 10
6450.871044248103
 20
5147.575792497075
 30
0.0
 10
6450.873790938036
 20
5147.576166921486
 30
0.0
  0
SPLINE
  5
152
330
1F
100
AcDbEntity
  8
0
  6
Continuous
 62
     7
370
    25
100
AcDbSpline
210
0.0
220
0.0
230
1.0
 70
     8
 71
     3
 72
    10
 73
     6
 74
     0
 42
0.00000001
 43
0.00000001
 40
0.0
 40
0.0
 40
0.0
 40
0.0
 40
0.2558734379474782
 40
0.6629806120344964
 40
1.0
 40
1.0
 40
1.0
 40
1.0
 10
6450.839106978102
 20
5147.45150938724
 30
0.0
 10
6450.839210467733
 20
5147.458161241764
 30
0.0
 10
6450.839478614437
 20
5147.475396522686
 30
0.0
 10
6450.841344148695
 20
5147.501203880194
 30
0.0
 10
6450.84445549161
 20
5147.516912143677
 30
0.0
 10
6450.845864637499
 20
5147.524026510528
 30
0.0
  0
SPLINE
  5
153
330
1F
100
AcDbEntity
  8
0
  6
Continuous
 62
     7
370
    25
100
AcDbSpline
210
0.0
220
0.0
230
1.0
 70
     8
 71
     3
 72
    10
 73
     6
 74
     0
 42
0.00000001
 43
0.00000001
 40
0.0
 40
0.0
 40
0.0
 40
0.0
 40
0.4205323629123496
 40
0.7090838547939954
 40
0.9999999999999999
 40
0.9999999999999999
 40
0.9999999999999999
 40
0.9999999999999999
 10
6450.841196051581
 20
5147.404762811897
 30
0.0
 10
6450.840670785576
 20
5147.411153595522
 30
0.0
 10
6450.83978510429
 20
5147.42192946413
 30
0.0
 10
6450.839272319305
 20
5147.437722945765
 30
0.0
 10
6450.839162241569
 20
5147.446901421775
 30
0.0
 10
6450.839106978102
 20
5147.45150938724
 30
0.0
  0
LINE
  5
154
330
1F
100
AcDbEntity
  8
0
  6
Continuous
 62
     7
370
    25
100
AcDbLine
 10
6451.076628586
 20
5146.1569888393
 30
0.0
 11
6450.8411960516
 21
5147.4047628119
 31
0.0
  0
LINE
  5
155
330
1F
100
AcDbEntity
  8
0
  6
Continuous
 62
     7
370
    25
100
AcDbLine
 10
6450.8469932639
 20
5144.9427765105
 30
0.0
 11
6451.076628586
 21
5146.1569888393
 31
0.0
  0
SPLINE
  5
156
330
1F
100
AcDbEntity
  8
0
  6
Continuous
 62
     7
370
    25
100
AcDbSpline
210
0.0
220
0.0
230
1.0
 70
     8
 71
     3
 72
     9
 73
     5
 74
     0
 42
0.00000001
 43
0.00000001
 40
0.0
 40
0.0
 40
0.0
 40
0.0
 40
0.5000461132597971
 40
1.0
 40
1.0
 40
1.0
 40
1.0
 10
6450.839106978102
 20
5144.840293633815
 30
0.0
 10
6450.839373019445
 20
5144.858492916511
 30
0.0
 10
6450.839905053063
 20
5144.894888125296
 30
0.0
 10
6450.844630672251
 20
5144.926814696943
 30
0.0
 10
6450.84699326393
 20
5144.942776510527
 30
0.0
  0
SPLINE
  5
157
330
1F
100
AcDbEntity
  8
0
  6
Continuous
 62
     7
370
    25
100
AcDbSpline
210
0.0
220
0.0
230
1.0
 70
     8
 71
     3
 72
    10
 73
     6
 74
     0
 42
0.00000001
 43
0.00000001
 40
0.0
 40
0.0
 40
0.0
 40
0.0
 40
0.2503279413721708
 40
0.4999666459573227
 40
0.9999999999999999
 40
0.9999999999999999
 40
0.9999999999999999
 40
0.9999999999999999
 10
6450.86221412659
 20
5144.743803907788
 30
0.0
 10
6450.859188016784
 20
5144.746732494699
 30
0.0
 10
6450.853144129068
 20
5144.752581605139
 30
0.0
 10
6450.844000455064
 20
5144.78561709697
 30
0.0
 10
6450.841064960898
 20
5144.818416404326
 30
0.0
 10
6450.839106978102
 20
5144.840293633815
 30
0.0
  0
LINE
  5
158
330
1F
100
AcDbEntity
  8
0
  6
Continuous
 62
     7
370
    25
100
AcDbLine
 10
6450.8736274053
 20
5144.7378107571
 30
0.0
 11
6450.8622141266
 21
5144.7438039078
 31
0.0
  0
SPLINE
  5
159
330
1F
100
AcDbEntity
  8
0
  6
Continuous
 62
     7
370
    25
100
AcDbSpline
210
0.0
220
0.0
230
1.0
 70
     8
 71
     3
 72
    10
 73
     6
 74
     0
 42
0.00000001
 43
0.00000001
 40
0.0
 40
0.0
 40
0.0
 40
0.0
 40
0.2502237850967984
 40
0.5004141625172555
 40
1.0
 40
1.0
 40
1.0
 40
1.0
 10
6450.904778118434
 20
5144.774968291349
 30
0.0
 10
6450.902586016477
 20
5144.768508908962
 30
0.0
 10
6450.898202105233
 20
5144.755591006588
 30
0.0
 10
6450.887523329557
 20
5144.741347168209
 30
0.0
 10
6450.879184006723
 20
5144.73922487153
 30
0.0
 10
6450.873627405301
 20
5144.737810757102
 30
0.0
  0
LINE
  5
15A
330
1F
100
AcDbEntity
  8
0
  6
Continuous
 62
     7
370
    25
100
AcDbLine
 10
6451.1245284767
 20
5145.9640093872
 30
0.0
 11
6450.9047781184
 21
5144.7749682913
 31
0.0
  0
LINE
  5
15B
330
1F
100
AcDbEntity
  8
0
  6
Continuous
 62
     7
370
    25
100
AcDbLine
 10
6451.3543225699
 20
5144.807331305
 30
0.0
 11
6451.1245284767
 21
5145.9640093872
 31
0.0
  0
SPLINE
  5
15C
330
1F
100
AcDbEntity
  8
0
  6
Continuous
 62
     7
370
    25
100
AcDbSpline
210
0.0
220
0.0
230
1.0
 70
     8
 71
     3
 72
     9
 73
     5
 74
     0
 42
0.00000001
 43
0.00000001
 40
0.0
 40
0.0
 40
0.0
 40
0.0
 40
0.4998923417080097
 40
1.0
 40
1.0
 40
1.0
 40
1.0
 10
6451.38317769865
 20
5144.737810757102
 30
0.0
 10
6451.377596392644
 20
5144.746588106567
 30
0.0
 10
6451.36643137662
 20
5144.764146586129
 30
0.0
 10
6451.358359418135
 20
5144.792934332581
 30
0.0
 10
6451.35432256988
 20
5144.807331305047
 30
0.0
  0
SPLINE
  5
15D
330
1F
100
AcDbEntity
  8
0
  6
Continuous
 62
     7
370
    25
100
AcDbSpline
210
0.0
220
0.0
230
1.0
 70
     8
 71
     3
 72
    11
 73
     7
 74
     0
 42
0.00000001
 43
0.00000001
 40
0.0
 40
0.0
 40
0.0
 40
0.0
 40
0.2500492632218044
 40
0.4998309992075887
 40
0.7497668917829234
 40
1.0
 40
1.0
 40
1.0
 40
1.0
 10
6451.442336747865
 20
5144.804334729705
 30
0.0
 10
6451.438281783418
 20
5144.793488841912
 30
0.0
 10
6451.430176192921
 20
5144.771808670321
 30
0.0
 10
6451.415137380342
 20
5144.751786086341
 30
0.0
 10
6451.399337346862
 20
5144.739752176009
 30
0.0
 10
6451.388566381532
 20
5144.738458153053
 30
0.0
 10
6451.38317769865
 20
5144.737810757102
 30
0.0
  0
SPLINE
  5
15E
330
1F
100
AcDbEntity
  8
0
  6
Continuous
 62
     7
370
    25
100
AcDbSpline
210
0.0
220
0.0
230
1.0
 70
     8
 71
     3
 72
    10
 73
     6
 74
     0
 42
0.00000001
 43
0.00000001
 40
0.0
 40
0.0
 40
0.0
 40
0.0
 40
0.3047058014730085
 40
0.5762581046499246
 40
1.0
 40
1.0
 40
1.0
 40
1.0
 10
6451.448911330662
 20
5144.866663496829
 30
0.0
 10
6451.44861867087
 20
5144.860046613544
 30
0.0
 10
6451.448065194121
 20
5144.847532796603
 30
0.0
 10
6451.44609814781
 20
5144.826300264634
 30
0.0
 10
6451.44376106541
 20
5144.81265235007
 30
0.0
 10
6451.442336747865
 20
5144.804334729705
 30
0.0
  0
SPLINE
  5
15F
330
1F
100
AcDbEntity
  8
0
  6
Continuous
 62
     7
370
    25
100
AcDbSpline
210
0.0
220
0.0
230
1.0
 70
     8
 71
     3
 72
    10
 73
     6
 74
     0
 42
0.00000001
 43
0.00000001
 40
0.0
 40
0.0
 40
0.0
 40
0.0
 40
0.3325154243638357
 40
0.6634226556243702
 40
1.0
 40
1.0
 40
1.0
 40
1.0
 10
6451.440900382036
 20
5144.92180048313
 30
0.0
 10
6451.442067437583
 20
5144.916066329267
 30
0.0
 10
6451.444395904279
 20
5144.904625754469
 30
0.0
 10
6451.447131111644
 20
5144.886134929254
 30
0.0
 10
6451.448314573254
 20
5144.873190627164
 30
0.0
 10
6451.448911330662
 20
5144.866663496829
 30
0.0
  0
LINE
  5
160
330
1F
100
AcDbEntity
  8
0
  6
Continuous
 62
     7
370
    25
100
AcDbLine
 10
6451.1748671437
 20
5146.1521943187
 30
0.0
 11
6451.440900382
 21
5144.9218004831
 31
0.0
  0
LINE
  5
161
330
1F
100
AcDbEntity
  8
0
  6
Continuous
 62
     7
370
    25
100
AcDbLine
 10
6451.4224911759
 20
5147.361612127
 30
0.0
 11
6451.1748671437
 21
5146.1521943187
 31
0.0
  0
SPLINE
  5
162
330
1F
100
AcDbEntity
  8
0
  6
Continuous
 62
     7
370
    25
100
AcDbSpline
210
0.0
220
0.0
230
1.0
 70
     8
 71
     3
 72
    10
 73
     6
 74
     0
 42
0.00000001
 43
0.00000001
 40
0.0
 40
0.0
 40
0.0
 40
0.0
 40
0.2492904803073272
 40
0.4993112821062603
 40
1.0
 40
1.0
 40
1.0
 40
1.0
 10
6451.448911330662
 20
5147.468290209157
 30
0.0
 10
6451.448209966045
 20
5147.457070275624
 30
0.0
 10
6451.446805182095
 20
5147.434597538634
 30
0.0
 10
6451.436960254665
 20
5147.39844259168
 30
0.0
 10
6451.428280303857
 20
5147.376348121954
 30
0.0
 10
6451.422491175934
 20
5147.361612126966
 30
0.0
  0
SPLINE
  5
163
330
1F
100
AcDbEntity
  8
0
  6
Continuous
 62
     7
370
    25
100
AcDbSpline
210
0.0
220
0.0
230
1.0
 70
     8
 71
     3
 72
    11
 73
     7
 74
     0
 42
0.00000001
 43
0.00000001
 40
0.0
 40
0.0
 40
0.0
 40
0.0
 40
0.2504737303712323
 40
0.5001199898304621
 40
0.7496164706793018
 40
1.0
 40
1.0
 40
1.0
 40
1.0
 10
6451.414547495505
 20
5147.565978565322
 30
0.0
 10
6451.418607859408
 20
5147.56248217415
 30
0.0
 10
6451.426715173297
 20
5147.555500942567
 30
0.0
 10
6451.437498176304
 20
5147.53463037633
 30
0.0
 10
6451.445251433072
 20
5147.504092205636
 30
0.0
 10
6451.447689922414
 20
5147.480238317739
 30
0.0
 10
6451.448911330662
 20
5147.468290209157
 30
0.0
  0
SPLINE
  5
164
330
1F
100
AcDbEntity
  8
0
  6
Continuous
 62
     7
370
    25
100
AcDbSpline
210
0.0
220
0.0
230
1.0
 70
     8
 71
     3
 72
     9
 73
     5
 74
     0
 42
0.00000001
 43
0.00000001
 40
0.0
 40
0.0
 40
0.0
 40
0.0
 40
0.5001898059498866
 40
1.0
 40
1.0
 40
1.0
 40
1.0
 10
6451.393665900511
 20
5147.576166921486
 30
0.0
 10
6451.397189617536
 20
5147.575381675637
 30
0.0
 10
6451.404234377311
 20
5147.573811779888
 30
0.0
 10
6451.411110659546
 20
5147.568588975964
 30
0.0
 10
6451.414547495505
 20
5147.565978565322
 30
0.0
  0
SPLINE
  5
165
330
1F
100
AcDbEntity
  8
0
  6
Continuous
 62
     7
370
    25
100
AcDbSpline
210
0.0
220
0.0
230
1.0
 70
     8
 71
     3
 72
     9
 73
     5
 74
     0
 42
0.00000001
 43
0.00000001
 40
0.0
 40
0.0
 40
0.0
 40
0.0
 40
0.5018301460573817
 40
1.0
 40
1.0
 40
1.0
 40
1.0
 10
6451.363109918789
 20
5147.536012811897
 30
0.0
 10
6451.367665738325
 20
5147.54636178159
 30
0.0
 10
6451.376744147768
 20
5147.566984236766
 30
0.0
 10
6451.388039097202
 20
5147.573113504884
 30
0.0
 10
6451.393665900511
 20
5147.576166921486
 30
0.0
  0
LINE
  5
166
330
1F
100
AcDbEntity
  8
0
  6
Continuous
 62
     7
370
    25
100
AcDbLine
 10
6451.1254447858
 20
5146.3517662366
 30
0.0
 11
6451.3631099188
 21
5147.5360128119
 31
0.0
  0
LINE
  5
167
330
1F
100
AcDbEntity
  8
0
  6
Continuous
 62
     7
370
    25
100
AcDbLine
 10
6450.9116001449
 20
5147.5114408941
 30
0.0
 11
6451.1254447858
 21
5146.3517662366
 31
0.0
  0
SPLINE
  5
168
330
1F
100
AcDbEntity
  8
0
  6
Continuous
 62
     7
370
    25
100
AcDbSpline
210
0.0
220
0.0
230
1.0
 70
     8
 71
     3
 72
    10
 73
     6
 74
     0
 42
0.00000001
 43
0.00000001
 40
0.0
 40
0.0
 40
0.0
 40
0.0
 40
0.4990665516922887
 40
0.7492735597631714
 40
1.0
 40
1.0
 40
1.0
 40
1.0
 10
6450.380597678554
 20
5147.576166921486
 30
0.0
 10
6450.38570233167
 20
5147.574012237712
 30
0.0
 10
6450.393366202547
 20
5147.570777303261
 30
0.0
 10
6450.402380511557
 20
5147.542762829988
 30
0.0
 10
6450.405581286848
 20
5147.521888754362
 30
0.0
 10
6450.40718333398
 20
5147.511440894089
 30
0.0
  0
SPLINE
  5
169
330
1F
100
AcDbEntity
  8
0
  6
Continuous
 62
     7
370
    25
100
AcDbSpline
210
0.0
220
0.0
230
1.0
 70
     8
 71
     3
 72
    11
 73
     7
 74
     0
 42
0.00000001
 43
0.00000001
 40
0.0
 40
0.0
 40
0.0
 40
0.0
 40
0.2502250740513963
 40
0.5000221176556823
 40
0.7497760287821593
 40
1.0
 40
1.0
 40
1.0
 40
1.0
 10
6450.36111089426
 20
5147.524026510528
 30
0.0
 10
6450.36229060708
 20
5147.531896902209
 30
0.0
 10
6450.364648014723
 20
5147.547624222624
 30
0.0
 10
6450.36944964271
 20
5147.564223641696
 30
0.0
 10
6450.374835583041
 20
5147.575044351631
 30
0.0
 10
6450.378675776582
 20
5147.575792497075
 30
0.0
 10
6450.380597678554
 20
5147.576166921486
 30
0.0
  0
SPLINE
  5
16A
330
1F
100
AcDbEntity
  8
0
  6
Continuous
 62
     7
370
    25
100
AcDbSpline
210
0.0
220
0.0
230
1.0
 70
     8
 71
     3
 72
    10
 73
     6
 74
     0
 42
0.00000001
 43
0.00000001
 40
0.0
 40
0.0
 40
0.0
 40
0.0
 40
0.2558734379474394
 40
0.6629806120352179
 40
1.0
 40
1.0
 40
1.0
 40
1.0
 10
6450.356415279629
 20
5147.45150938724
 30
0.0
 10
6450.356487144754
 20
5147.458161241764
 30
0.0
 10
6450.356673350812
 20
5147.475396522686
 30
0.0
 10
6450.357968335965
 20
5147.501203880194
 30
0.0
 10
6450.360131282699
 20
5147.516912143677
 30
0.0
 10
6450.36111089426
 20
5147.524026510528
 30
0.0
  0
SPLINE
  5
16B
330
1F
100
AcDbEntity
  8
0
  6
Continuous
 62
     7
370
    25
100
AcDbSpline
210
0.0
220
0.0
230
1.0
 70
     8
 71
     3
 72
    10
 73
     6
 74
     0
 42
0.00000001
 43
0.00000001
 40
0.0
 40
0.0
 40
0.0
 40
0.0
 40
0.4205323629124376
 40
0.7090838547939863
 40
1.0
 40
1.0
 40
1.0
 40
1.0
 10
6450.357866049803
 20
5147.404762811897
 30
0.0
 10
6450.357501230837
 20
5147.411153595522
 30
0.0
 10
6450.35688608855
 20
5147.42192946413
 30
0.0
 10
6450.356530077224
 20
5147.437722945765
 30
0.0
 10
6450.356453649455
 20
5147.446901421775
 30
0.0
 10
6450.356415279629
 20
5147.45150938724
 30
0.0
  0
LINE
  5
16C
330
1F
100
AcDbEntity
  8
0
  6
Continuous
 62
     7
370
    25
100
AcDbLine
 10
6450.5256679527
 20
5146.1569888393
 30
0.0
 11
6450.3578660498
 21
5147.4047628119
 31
0.0
  0
LINE
  5
16D
330
1F
100
AcDbEntity
  8
0
  6
Continuous
 62
     7
370
    25
100
AcDbLine
 10
6450.3618958933
 20
5144.9427765105
 30
0.0
 11
6450.5256679527
 21
5146.1569888393
 31
0.0
  0
SPLINE
  5
16E
330
1F
100
AcDbEntity
  8
0
  6
Continuous
 62
     7
370
    25
100
AcDbSpline
210
0.0
220
0.0
230
1.0
 70
     8
 71
     3
 72
     9
 73
     5
 74
     0
 42
0.00000001
 43
0.00000001
 40
0.0
 40
0.0
 40
0.0
 40
0.0
 40
0.5000461132599507
 40
1.0
 40
1.0
 40
1.0
 40
1.0
 10
6450.356415279629
 20
5144.840293633815
 30
0.0
 10
6450.356599686545
 20
5144.858492916511
 30
0.0
 10
6450.356968466366
 20
5144.894888125296
 30
0.0
 10
6450.360253518675
 20
5144.926814696943
 30
0.0
 10
6450.361895893344
 20
5144.942776510527
 30
0.0
  0
SPLINE
  5
16F
330
1F
100
AcDbEntity
  8
0
  6
Continuous
 62
     7
370
    25
100
AcDbSpline
210
0.0
220
0.0
230
1.0
 70
     8
 71
     3
 72
    10
 73
     6
 74
     0
 42
0.00000001
 43
0.00000001
 40
0.0
 40
0.0
 40
0.0
 40
0.0
 40
0.2503279413722466
 40
0.49996664595731
 40
1.0
 40
1.0
 40
1.0
 40
1.0
 10
6450.372503632713
 20
5144.743803907788
 30
0.0
 10
6450.370392246243
 20
5144.746732494699
 30
0.0
 10
6450.366175286658
 20
5144.752581605139
 30
0.0
 10
6450.359813054381
 20
5144.78561709697
 30
0.0
 10
6450.357774800592
 20
5144.818416404326
 30
0.0
 10
6450.356415279629
 20
5144.840293633815
 30
0.0
  0
LINE
  5
170
330
1F
100
AcDbEntity
  8
0
  6
Continuous
 62
     7
370
    25
100
AcDbLine
 10
6450.3804831892
 20
5144.7378107571
 30
0.0
 11
6450.3725036327
 21
5144.7438039078
 31
0.0
  0
SPLINE
  5
171
330
1F
100
AcDbEntity
  8
0
  6
Continuous
 62
     7
370
    25
100
AcDbSpline
210
0.0
220
0.0
230
1.0
 70
     8
 71
     3
 72
    10
 73
     6
 74
     0
 42
0.00000001
 43
0.00000001
 40
0.0
 40
0.0
 40
0.0
 40
0.0
 40
0.2502237850972012
 40
0.5004141625174584
 40
1.0
 40
1.0
 40
1.0
 40
1.0
 10
6450.402369678724
 20
5144.774968291349
 30
0.0
 10
6450.400824714841
 20
5144.768508908962
 30
0.0
 10
6450.397734993347
 20
5144.755591006588
 30
0.0
 10
6450.39022223397
 20
5144.741347168209
 30
0.0
 10
6450.384377567771
 20
5144.73922487153
 30
0.0
 10
6450.380483189154
 20
5144.737810757102
 30
0.0
  0
LINE
  5
172
330
1F
100
AcDbEntity
  8
0
  6
Continuous
 62
     7
370
    25
100
AcDbLine
 10
6450.5607231252
 20
5145.9640093872
 30
0.0
 11
6450.4023696787
 21
5144.7749682913
 31
0.0
  0
LINE
  5
173
330
1F
100
AcDbEntity
  8
0
  6
Continuous
 62
     7
370
    25
100
AcDbLine
 10
6450.7323704169
 20
5144.807331305
 30
0.0
 11
6450.5607231252
 21
5145.9640093872
 31
0.0
  0
SPLINE
  5
174
330
1F
100
AcDbEntity
  8
0
  6
Continuous
 62
     7
370
    25
100
AcDbSpline
210
0.0
220
0.0
230
1.0
 70
     8
 71
     3
 72
     9
 73
     5
 74
     0
 42
0.00000001
 43
0.00000001
 40
0.0
 40
0.0
 40
0.0
 40
0.0
 40
0.4998923417080138
 40
1.0
 40
1.0
 40
1.0
 40
1.0
 10
6450.754286741759
 20
5144.737810757102
 30
0.0
 10
6450.750042991235
 20
5144.746588106567
 30
0.0
 10
6450.741553662293
 20
5144.764146586129
 30
0.0
 10
6450.73543193804
 20
5144.792934332581
 30
0.0
 10
6450.732370416858
 20
5144.807331305047
 30
0.0
  0
SPLINE
  5
175
330
1F
100
AcDbEntity
  8
0
  6
Continuous
 62
     7
370
    25
100
AcDbSpline
210
0.0
220
0.0
230
1.0
 70
     8
 71
     3
 72
    11
 73
     7
 74
     0
 42
0.00000001
 43
0.00000001
 40
0.0
 40
0.0
 40
0.0
 40
0.0
 40
0.2500492632217657
 40
0.4998309992076985
 40
0.7497668917830539
 40
1.0
 40
1.0
 40
1.0
 40
1.0
 10
6450.799446133014
 20
5144.804334729705
 30
0.0
 10
6450.796341625283
 20
5144.793488841912
 30
0.0
 10
6450.790135931331
 20
5144.771808670321
 30
0.0
 10
6450.778643214424
 20
5144.751786086341
 30
0.0
 10
6450.766587794829
 20
5144.739752176009
 30
0.0
 10
6450.75838871683
 20
5144.738458153053
 30
0.0
 10
6450.754286741759
 20
5144.737810757102
 30
0.0
  0
SPLINE
  5
176
330
1F
100
AcDbEntity
  8
0
  6
Continuous
 62
     7
370
    25
100
AcDbSpline
210
0.0
220
0.0
230
1.0
 70
     8
 71
     3
 72
    10
 73
     6
 74
     0
 42
0.00000001
 43
0.00000001
 40
0.0
 40
0.0
 40
0.0
 40
0.0
 40
0.3047058014727364
 40
0.5762581046498431
 40
1.0
 40
1.0
 40
1.0
 40
1.0
 10
6450.804483094184
 20
5144.866663496829
 30
0.0
 10
6450.804258808063
 20
5144.860046613544
 30
0.0
 10
6450.803834639265
 20
5144.847532796603
 30
0.0
 10
6450.802327258522
 20
5144.826300264634
 30
0.0
 10
6450.800537119793
 20
5144.81265235007
 30
0.0
 10
6450.799446133014
 20
5144.804334729705
 30
0.0
  0
SPLINE
  5
177
330
1F
100
AcDbEntity
  8
0
  6
Continuous
 62
     7
370
    25
100
AcDbSpline
210
0.0
220
0.0
230
1.0
 70
     8
 71
     3
 72
    10
 73
     6
 74
     0
 42
0.00000001
 43
0.00000001
 40
0.0
 40
0.0
 40
0.0
 40
0.0
 40
0.3325154243634386
 40
0.6634226556240458
 40
1.0
 40
1.0
 40
1.0
 40
1.0
 10
6450.798346171382
 20
5144.92180048313
 30
0.0
 10
6450.79923993387
 20
5144.916066329267
 30
0.0
 10
6450.80102313621
 20
5144.904625754469
 30
0.0
 10
6450.803118807732
 20
5144.886134929254
 30
0.0
 10
6450.804025763911
 20
5144.873190627164
 30
0.0
 10
6450.804483094184
 20
5144.866663496829
 30
0.0
  0
LINE
  5
178
330
1F
100
AcDbEntity
  8
0
  6
Continuous
 62
     7
370
    25
100
AcDbLine
 10
6450.5978509991
 20
5146.1521943187
 30
0.0
 11
6450.7983461714
 21
5144.9218004831
 31
0.0
  0
LINE
  5
179
330
1F
100
AcDbEntity
  8
0
  6
Continuous
 62
     7
370
    25
100
AcDbLine
 10
6450.7842637389
 20
5147.361612127
 30
0.0
 11
6450.5978509991
 21
5146.1521943187
 31
0.0
  0
SPLINE
  5
17A
330
1F
100
AcDbEntity
  8
0
  6
Continuous
 62
     7
370
    25
100
AcDbSpline
210
0.0
220
0.0
230
1.0
 70
     8
 71
     3
 72
    10
 73
     6
 74
     0
 42
0.00000001
 43
0.00000001
 40
0.0
 40
0.0
 40
0.0
 40
0.0
 40
0.2492904803073596
 40
0.4993112821061574
 40
1.0
 40
1.0
 40
1.0
 40
1.0
 10
6450.804483094184
 20
5147.468290209157
 30
0.0
 10
6450.803945555189
 20
5147.457070275624
 30
0.0
 10
6450.802868902426
 20
5147.434597538634
 30
0.0
 10
6450.795327009333
 20
5147.39844259168
 30
0.0
 10
6450.788690191293
 20
5147.376348121954
 30
0.0
 10
6450.784263738948
 20
5147.361612126966
 30
0.0
  0
SPLINE
  5
17B
330
1F
100
AcDbEntity
  8
0
  6
Continuous
 62
     7
370
    25
100
AcDbSpline
210
0.0
220
0.0
230
1.0
 70
     8
 71
     3
 72
    11
 73
     7
 74
     0
 42
0.00000001
 43
0.00000001
 40
0.0
 40
0.0
 40
0.0
 40
0.0
 40
0.2504737303714804
 40
0.5001199898305949
 40
0.7496164706792972
 40
1.0
 40
1.0
 40
1.0
 40
1.0
 10
6450.778195899388
 20
5147.565978565322
 30
0.0
 10
6450.78129732731
 20
5147.56248217415
 30
0.0
 10
6450.787489937205
 20
5147.555500942567
 30
0.0
 10
6450.795740384701
 20
5147.53463037633
 30
0.0
 10
6450.801678246886
 20
5147.504092205636
 30
0.0
 10
6450.803547039678
 20
5147.480238317739
 30
0.0
 10
6450.804483094184
 20
5147.468290209157
 30
0.0
  0
SPLINE
  5
17C
330
1F
100
AcDbEntity
  8
0
  6
Continuous
 62
     7
370
    25
100
AcDbSpline
210
0.0
220
0.0
230
1.0
 70
     8
 71
     3
 72
     9
 73
     5
 74
     0
 42
0.00000001
 43
0.00000001
 40
0.0
 40
0.0
 40
0.0
 40
0.0
 40
0.5001898058910704
 40
1.0
 40
1.0
 40
1.0
 40
1.0
 10
6450.762271065685
 20
5147.576166921486
 30
0.0
 10
6450.764955997559
 20
5147.575381675637
 30
0.0
 10
6450.770323823617
 20
5147.573811779888
 30
0.0
 10
6450.775572538289
 20
5147.568588975964
 30
0.0
 10
6450.778195899387
 20
5147.565978565322
 30
0.0
  0
SPLINE
  5
17D
330
1F
100
AcDbEntity
  8
0
  6
Continuous
 62
     7
370
    25
100
AcDbSpline
210
0.0
220
0.0
230
1.0
 70
     8
 71
     3
 72
     9
 73
     5
 74
     0
 42
0.00000001
 43
0.00000001
 40
0.0
 40
0.0
 40
0.0
 40
0.0
 40
0.5018301460565084
 40
1.0
 40
1.0
 40
1.0
 40
1.0
 10
6450.739036801107
 20
5147.536012811897
 30
0.0
 10
6450.742495833848
 20
5147.54636178159
 30
0.0
 10
6450.749388669536
 20
5147.566984236767
 30
0.0
 10
6450.757987424954
 20
5147.573113504884
 30
0.0
 10
6450.762271065685
 20
5147.576166921486
 30
0.0
  0
LINE
  5
17E
330
1F
100
AcDbEntity
  8
0
  6
Continuous
 62
     7
370
    25
100
AcDbLine
 10
6450.5613963751
 20
5146.3517662366
 30
0.0
 11
6450.7390368011
 21
5147.5360128119
 31
0.0
  0
LINE
  5
17F
330
1F
100
AcDbEntity
  8
0
  6
Continuous
 62
     7
370
    25
100
AcDbLine
 10
6450.407183334
 20
5147.5114408941
 30
0.0
 11
6450.5613963751
 21
5146.3517662366
 31
0.0
  0
SPLINE
  5
180
330
1F
100
AcDbEntity
  8
0
  6
Continuous
 62
     7
370
    25
100
AcDbSpline
210
0.0
220
0.0
230
1.0
 70
     8
 71
     3
 72
    10
 73
     6
 74
     0
 42
0.00000001
 43
0.00000001
 40
0.0
 40
0.0
 40
0.0
 40
0.0
 40
0.4990665516923494
 40
0.7492735597632537
 40
1.0
 40
1.0
 40
1.0
 40
1.0
 10
6450.062832210092
 20
5147.576166921486
 30
0.0
 10
6450.065725020626
 20
5147.574012237712
 30
0.0
 10
6450.070068141677
 20
5147.570777303261
 30
0.0
 10
6450.075238758772
 20
5147.542762829988
 30
0.0
 10
6450.077083042616
 20
5147.521888754362
 30
0.0
 10
6450.078006140735
 20
5147.511440894089
 30
0.0
  0
SPLINE
  5
181
330
1F
100
AcDbEntity
  8
0
  6
Continuous
 62
     7
370
    25
100
AcDbSpline
210
0.0
220
0.0
230
1.0
 70
     8
 71
     3
 72
    11
 73
     7
 74
     0
 42
0.00000001
 43
0.00000001
 40
0.0
 40
0.0
 40
0.0
 40
0.0
 40
0.2502250740515236
 40
0.5000221176555042
 40
0.7497760287822737
 40
0.9999999999999999
 40
0.9999999999999999
 40
0.9999999999999999
 40
0.9999999999999999
 10
6450.051922869571
 20
5147.524026510528
 30
0.0
 10
6450.052578069041
 20
5147.531896902209
 30
0.0
 10
6450.053887347208
 20
5147.547624222624
 30
0.0
 10
6450.056566275852
 20
5147.564223641696
 30
0.0
 10
6450.059583713184
 20
5147.575044351631
 30
0.0
 10
6450.061748699311
 20
5147.575792497075
 30
0.0
 10
6450.062832210092
 20
5147.576166921486
 30
0.0
  0
SPLINE
  5
182
330
1F
100
AcDbEntity
  8
0
  6
Continuous
 62
     7
370
    25
100
AcDbSpline
210
0.0
220
0.0
230
1.0
 70
     8
 71
     3
 72
    10
 73
     6
 74
     0
 42
0.00000001
 43
0.00000001
 40
0.0
 40
0.0
 40
0.0
 40
0.0
 40
0.2558734379473929
 40
0.6629806120358913
 40
1.0
 40
1.0
 40
1.0
 40
1.0
 10
6450.049322535282
 20
5147.45150938724
 30
0.0
 10
6450.049362267239
 20
5147.458161241764
 30
0.0
 10
6450.049465214685
 20
5147.475396522686
 30
0.0
 10
6450.050180484821
 20
5147.501203880194
 30
0.0
 10
6450.051379726028
 20
5147.516912143677
 30
0.0
 10
6450.051922869571
 20
5147.524026510528
 30
0.0
  0
SPLINE
  5
183
330
1F
100
AcDbEntity
  8
0
  6
Continuous
 62
     7
370
    25
100
AcDbSpline
210
0.0
220
0.0
230
1.0
 70
     8
 71
     3
 72
    10
 73
     6
 74
     0
 42
0.00000001
 43
0.00000001
 40
0.0
 40
0.0
 40
0.0
 40
0.0
 40
0.4205323629124315
 40
0.7090838547940119
 40
0.9999999999999999
 40
0.9999999999999999
 40
0.9999999999999999
 40
0.9999999999999999
 10
6450.050124733594
 20
5147.404762811897
 30
0.0
 10
6450.049922943856
 20
5147.411153595522
 30
0.0
 10
6450.049582694547
 20
5147.42192946413
 30
0.0
 10
6450.049385976733
 20
5147.437722945765
 30
0.0
 10
6450.049343739885
 20
5147.446901421775
 30
0.0
 10
6450.049322535282
 20
5147.45150938724
 30
0.0
  0
LINE
  5
184
330
1F
100
AcDbEntity
  8
0
  6
Continuous
 62
     7
370
    25
100
AcDbLine
 10
6450.1491083025
 20
5146.1569888393
 30
0.0
 11
6450.0501247336
 21
5147.4047628119
 31
0.0
  0
LINE
  5
185
330
1F
100
AcDbEntity
  8
0
  6
Continuous
 62
     7
370
    25
100
AcDbLine
 10
6450.0523586851
 20
5144.9427765105
 30
0.0
 11
6450.1491083025
 21
5146.1569888393
 31
0.0
  0
SPLINE
  5
186
330
1F
100
AcDbEntity
  8
0
  6
Continuous
 62
     7
370
    25
100
AcDbSpline
210
0.0
220
0.0
230
1.0
 70
     8
 71
     3
 72
     9
 73
     5
 74
     0
 42
0.00000001
 43
0.00000001
 40
0.0
 40
0.0
 40
0.0
 40
0.0
 40
0.5000461132599276
 40
1.0
 40
1.0
 40
1.0
 40
1.0
 10
6450.049322535282
 20
5144.840293633815
 30
0.0
 10
6450.04942400254
 20
5144.858492916511
 30
0.0
 10
6450.049626918338
 20
5144.894888125296
 30
0.0
 10
6450.051448152155
 20
5144.926814696943
 30
0.0
 10
6450.05235868508
 20
5144.942776510527
 30
0.0
  0
SPLINE
  5
187
330
1F
100
AcDbEntity
  8
0
  6
Continuous
 62
     7
370
    25
100
AcDbSpline
210
0.0
220
0.0
230
1.0
 70
     8
 71
     3
 72
    10
 73
     6
 74
     0
 42
0.00000001
 43
0.00000001
 40
0.0
 40
0.0
 40
0.0
 40
0.0
 40
0.2503279413721825
 40
0.4999666459573391
 40
1.0
 40
1.0
 40
1.0
 40
1.0
 10
6450.058278219542
 20
5144.743803907788
 30
0.0
 10
6450.057096500808
 20
5144.746732494699
 30
0.0
 10
6450.054736317009
 20
5144.752581605139
 30
0.0
 10
6450.051200558362
 20
5144.78561709697
 30
0.0
 10
6450.050073971717
 20
5144.818416404326
 30
0.0
 10
6450.049322535282
 20
5144.840293633815
 30
0.0
  0
LINE
  5
188
330
1F
100
AcDbEntity
  8
0
  6
Continuous
 62
     7
370
    25
100
AcDbLine
 10
6450.0627675744
 20
5144.7378107571
 30
0.0
 11
6450.0582782195
 21
5144.7438039078
 31
0.0
  0
SPLINE
  5
189
330
1F
100
AcDbEntity
  8
0
  6
Continuous
 62
     7
370
    25
100
AcDbSpline
210
0.0
220
0.0
230
1.0
 70
     8
 71
     3
 72
    10
 73
     6
 74
     0
 42
0.00000001
 43
0.00000001
 40
0.0
 40
0.0
 40
0.0
 40
0.0
 40
0.2502237850968822
 40
0.5004141625175469
 40
1.0
 40
1.0
 40
1.0
 40
1.0
 10
6450.075234927737
 20
5144.774968291349
 30
0.0
 10
6450.074348037189
 20
5144.768508908962
 30
0.0
 10
6450.072574374503
 20
5144.755591006588
 30
0.0
 10
6450.068280806768
 20
5144.741347168209
 30
0.0
 10
6450.064972165767
 20
5144.73922487153
 30
0.0
 10
6450.062767574383
 20
5144.737810757102
 30
0.0
  0
LINE
  5
18A
330
1F
100
AcDbEntity
  8
0
  6
Continuous
 62
     7
370
    25
100
AcDbLine
 10
6450.1710706363
 20
5145.9640093872
 30
0.0
 11
6450.0752349277
 21
5144.7749682913
 31
0.0
  0
LINE
  5
18B
330
1F
100
AcDbEntity
  8
0
  6
Continuous
 62
     7
370
    25
100
AcDbLine
 10
6450.2833562061
 20
5144.807331305
 30
0.0
 11
6450.1710706363
 21
5145.9640093872
 31
0.0
  0
SPLINE
  5
18C
330
1F
100
AcDbEntity
  8
0
  6
Continuous
 62
     7
370
    25
100
AcDbSpline
210
0.0
220
0.0
230
1.0
 70
     8
 71
     3
 72
     9
 73
     5
 74
     0
 42
0.00000001
 43
0.00000001
 40
0.0
 40
0.0
 40
0.0
 40
0.0
 40
0.4998923417079671
 40
1.0
 40
1.0
 40
1.0
 40
1.0
 10
6450.298178603355
 20
5144.737810757102
 30
0.0
 10
6450.295302445594
 20
5144.746588106567
 30
0.0
 10
6450.289548891235
 20
5144.764146586129
 30
0.0
 10
6450.285420730798
 20
5144.792934332581
 30
0.0
 10
6450.28335620615
 20
5144.807331305047
 30
0.0
  0
SPLINE
  5
18D
330
1F
100
AcDbEntity
  8
0
  6
Continuous
 62
     7
370
    25
100
AcDbSpline
210
0.0
220
0.0
230
1.0
 70
     8
 71
     3
 72
    11
 73
     7
 74
     0
 42
0.00000001
 43
0.00000001
 40
0.0
 40
0.0
 40
0.0
 40
0.0
 40
0.2500492632218598
 40
0.4998309992077721
 40
0.7497668917828321
 40
1.0
 40
1.0
 40
1.0
 40
1.0
 10
6450.329018698314
 20
5144.804334729705
 30
0.0
 10
6450.326886621019
 20
5144.793488841912
 30
0.0
 10
6450.322624747533
 20
5144.771808670321
 30
0.0
 10
6450.314759471789
 20
5144.751786086341
 30
0.0
 10
6450.306533994385
 20
5144.739752176009
 30
0.0
 10
6450.300964836819
 20
5144.738458153053
 30
0.0
 10
6450.298178603355
 20
5144.737810757102
 30
0.0
  0
SPLINE
  5
18E
330
1F
100
AcDbEntity
  8
0
  6
Continuous
 62
     7
370
    25
100
AcDbSpline
210
0.0
220
0.0
230
1.0
 70
     8
 71
     3
 72
    10
 73
     6
 74
     0
 42
0.00000001
 43
0.00000001
 40
0.0
 40
0.0
 40
0.0
 40
0.0
 40
0.3047058014729814
 40
0.576258104645855
 40
1.0
 40
1.0
 40
1.0
 40
1.0
 10
6450.332482386227
 20
5144.866663496829
 30
0.0
 10
6450.332328061279
 20
5144.860046613544
 30
0.0
 10
6450.332036202697
 20
5144.847532796603
 30
0.0
 10
6450.330999156769
 20
5144.826300264634
 30
0.0
 10
6450.329768632318
 20
5144.81265235007
 30
0.0
 10
6450.329018698314
 20
5144.804334729705
 30
0.0
  0
SPLINE
  5
18F
330
1F
100
AcDbEntity
  8
0
  6
Continuous
 62
     7
370
    25
100
AcDbSpline
210
0.0
220
0.0
230
1.0
 70
     8
 71
     3
 72
    10
 73
     6
 74
     0
 42
0.00000001
 43
0.00000001
 40
0.0
 40
0.0
 40
0.0
 40
0.0
 40
0.3325154243637373
 40
0.6634226556244398
 40
1.0
 40
1.0
 40
1.0
 40
1.0
 10
6450.328262926414
 20
5144.92180048313
 30
0.0
 10
6450.328877069785
 20
5144.916066329267
 30
0.0
 10
6450.330102386257
 20
5144.904625754469
 30
0.0
 10
6450.331543688768
 20
5144.886134929254
 30
0.0
 10
6450.332167720077
 20
5144.873190627164
 30
0.0
 10
6450.332482386227
 20
5144.866663496829
 30
0.0
  0
LINE
  5
190
330
1F
100
AcDbEntity
  8
0
  6
Continuous
 62
     7
370
    25
100
AcDbLine
 10
6450.1947249257
 20
5146.1521943187
 30
0.0
 11
6450.3282629264
 21
5144.9218004831
 31
0.0
  0
LINE
  5
191
330
1F
100
AcDbEntity
  8
0
  6
Continuous
 62
     7
370
    25
100
AcDbLine
 10
6450.3186069432
 20
5147.361612127
 30
0.0
 11
6450.1947249257
 21
5146.1521943187
 31
0.0
  0
SPLINE
  5
192
330
1F
100
AcDbEntity
  8
0
  6
Continuous
 62
     7
370
    25
100
AcDbSpline
210
0.0
220
0.0
230
1.0
 70
     8
 71
     3
 72
    10
 73
     6
 74
     0
 42
0.00000001
 43
0.00000001
 40
0.0
 40
0.0
 40
0.0
 40
0.0
 40
0.2492904803073137
 40
0.499311282106247
 40
1.0
 40
1.0
 40
1.0
 40
1.0
 10
6450.332482386227
 20
5147.468290209157
 30
0.0
 10
6450.332112477557
 20
5147.457070275624
 30
0.0
 10
6450.331371576534
 20
5147.434597538634
 30
0.0
 10
6450.326186099323
 20
5147.398442591681
 30
0.0
 10
6450.321639389476
 20
5147.376348121954
 30
0.0
 10
6450.318606943152
 20
5147.361612126966
 30
0.0
  0
SPLINE
  5
193
330
1F
100
AcDbEntity
  8
0
  6
Continuous
 62
     7
370
    25
100
AcDbSpline
210
0.0
220
0.0
230
1.0
 70
     8
 71
     3
 72
    11
 73
     7
 74
     0
 42
0.00000001
 43
0.00000001
 40
0.0
 40
0.0
 40
0.0
 40
0.0
 40
0.2504737303715101
 40
0.5001199898305102
 40
0.7496164706793691
 40
1.0
 40
1.0
 40
1.0
 40
1.0
 10
6450.314457892652
 20
5147.565978565322
 30
0.0
 10
6450.316578432677
 20
5147.56248217415
 30
0.0
 10
6450.320812507262
 20
5147.555500942567
 30
0.0
 10
6450.326472002549
 20
5147.53463037633
 30
0.0
 10
6450.330552441942
 20
5147.504092205636
 30
0.0
 10
6450.331838310864
 20
5147.480238317739
 30
0.0
 10
6450.332482386227
 20
5147.468290209157
 30
0.0
  0
SPLINE
  5
194
330
1F
100
AcDbEntity
  8
0
  6
Continuous
 62
     7
370
    25
100
AcDbSpline
210
0.0
220
0.0
230
1.0
 70
     8
 71
     3
 72
     9
 73
     5
 74
     0
 42
0.00000001
 43
0.00000001
 40
0.0
 40
0.0
 40
0.0
 40
0.0
 40
0.5001898059386075
 40
1.0
 40
1.0
 40
1.0
 40
1.0
 10
6450.30360253627
 20
5147.576166921486
 30
0.0
 10
6450.305429679037
 20
5147.575381675637
 30
0.0
 10
6450.309082577888
 20
5147.573811779888
 30
0.0
 10
6450.312666574574
 20
5147.568588975964
 30
0.0
 10
6450.314457892652
 20
5147.565978565322
 30
0.0
  0
SPLINE
  5
195
330
1F
100
AcDbEntity
  8
0
  6
Continuous
 62
     7
370
    25
100
AcDbSpline
210
0.0
220
0.0
230
1.0
 70
     8
 71
     3
 72
     9
 73
     5
 74
     0
 42
0.00000001
 43
0.00000001
 40
0.0
 40
0.0
 40
0.0
 40
0.0
 40
0.501830146056758
 40
1.0
 40
1.0
 40
1.0
 40
1.0
 10
6450.287854441047
 20
5147.536012811897
 30
0.0
 10
6450.290192203945
 20
5147.54636178159
 30
0.0
 10
6450.294850678364
 20
5147.566984236766
 30
0.0
 10
6450.300692377743
 20
5147.573113504884
 30
0.0
 10
6450.30360253627
 20
5147.576166921486
 30
0.0
  0
LINE
  5
196
330
1F
100
AcDbEntity
  8
0
  6
Continuous
 62
     7
370
    25
100
AcDbLine
 10
6450.1714960617
 20
5146.3517662366
 30
0.0
 11
6450.287854441
 21
5147.5360128119
 31
0.0
  0
LINE
  5
197
330
1F
100
AcDbEntity
  8
0
  6
Continuous
 62
     7
370
    25
100
AcDbLine
 10
6450.0780061407
 20
5147.5114408941
 30
0.0
 11
6450.1714960617
 21
5146.3517662366
 31
0.0
  0
SPLINE
  5
198
330
1F
100
AcDbEntity
  8
0
  6
Continuous
 62
     7
370
    25
100
AcDbSpline
210
0.0
220
0.0
230
1.0
 70
     8
 71
     3
 72
    10
 73
     6
 74
     0
 42
0.00000001
 43
0.00000001
 40
0.0
 40
0.0
 40
0.0
 40
0.0
 40
0.4990665516922619
 40
0.7492735597632674
 40
1.0
 40
1.0
 40
1.0
 40
1.0
 10
6449.922743677778
 20
5147.576166921486
 30
0.0
 10
6449.923404170408
 20
5147.574012237712
 30
0.0
 10
6449.924395801006
 20
5147.570777303261
 30
0.0
 10
6449.92568612854
 20
5147.542762829988
 30
0.0
 10
6449.926160867091
 20
5147.521888754362
 30
0.0
 10
6449.926398482503
 20
5147.511440894089
 30
0.0
  0
SPLINE
  5
199
330
1F
100
AcDbEntity
  8
0
  6
Continuous
 62
     7
370
    25
100
AcDbSpline
210
0.0
220
0.0
230
1.0
 70
     8
 71
     3
 72
    11
 73
     7
 74
     0
 42
0.00000001
 43
0.00000001
 40
0.0
 40
0.0
 40
0.0
 40
0.0
 40
0.2502250740514369
 40
0.500022117655584
 40
0.7497760287821579
 40
1.0
 40
1.0
 40
1.0
 40
1.0
 10
6449.920488997383
 20
5147.524026510528
 30
0.0
 10
6449.920615046
 20
5147.531896902209
 30
0.0
 10
6449.920866927616
 20
5147.547624222624
 30
0.0
 10
6449.921404195449
 20
5147.564223641696
 30
0.0
 10
6449.922031772348
 20
5147.575044351631
 30
0.0
 10
6449.922506227281
 20
5147.575792497075
 30
0.0
 10
6449.922743677778
 20
5147.576166921486
 30
0.0
  0
SPLINE
  5
19A
330
1F
100
AcDbEntity
  8
0
  6
Continuous
 62
     7
370
    25
100
AcDbSpline
210
0.0
220
0.0
230
1.0
 70
     8
 71
     3
 72
    10
 73
     6
 74
     0
 42
0.00000001
 43
0.00000001
 40
0.0
 40
0.0
 40
0.0
 40
0.0
 40
0.2558734379475263
 40
0.6629806120875117
 40
1.0
 40
1.0
 40
1.0
 40
1.0
 10
6449.920002348613
 20
5147.45150938724
 30
0.0
 10
6449.920009666178
 20
5147.458161241764
 30
0.0
 10
6449.920028626349
 20
5147.475396522687
 30
0.0
 10
6449.920159118787
 20
5147.501203880195
 30
0.0
 10
6449.920386166232
 20
5147.516912143678
 30
0.0
 10
6449.920488997383
 20
5147.524026510528
 30
0.0
  0
SPLINE
  5
19B
330
1F
100
AcDbEntity
  8
0
  6
Continuous
 62
     7
370
    25
100
AcDbSpline
210
0.0
220
0.0
230
1.0
 70
     8
 71
     3
 72
    10
 73
     6
 74
     0
 42
0.00000001
 43
0.00000001
 40
0.0
 40
0.0
 40
0.0
 40
0.0
 40
0.4205323629124291
 40
0.7090838547940008
 40
1.0
 40
1.0
 40
1.0
 40
1.0
 10
6449.920150297099
 20
5147.404762811897
 30
0.0
 10
6449.920112964857
 20
5147.411153595522
 30
0.0
 10
6449.920050016813
 20
5147.42192946413
 30
0.0
 10
6449.920013984879
 20
5147.437722945765
 30
0.0
 10
6449.920006237906
 20
5147.446901421775
 30
0.0
 10
6449.920002348613
 20
5147.45150938724
 30
0.0
  0
LINE
  5
19C
330
1F
100
AcDbEntity
  8
0
  6
Continuous
 62
     7
370
    25
100
AcDbLine
 10
6449.949614926
 20
5146.1569888393
 30
0.0
 11
6449.9201502971
 21
5147.4047628119
 31
0.0
  0
LINE
  5
19D
330
1F
100
AcDbEntity
  8
0
  6
Continuous
 62
     7
370
    25
100
AcDbLine
 10
6449.9205725446
 20
5144.9427765105
 30
0.0
 11
6449.949614926
 21
5146.1569888393
 31
0.0
  0
SPLINE
  5
19E
330
1F
100
AcDbEntity
  8
0
  6
Continuous
 62
     7
370
    25
100
AcDbSpline
210
0.0
220
0.0
230
1.0
 70
     8
 71
     3
 72
     9
 73
     5
 74
     0
 42
0.00000001
 43
0.00000001
 40
0.0
 40
0.0
 40
0.0
 40
0.0
 40
0.5000461132598952
 40
0.9999999999999999
 40
0.9999999999999999
 40
0.9999999999999999
 40
0.9999999999999999
 10
6449.920002348613
 20
5144.840293633815
 30
0.0
 10
6449.920020158023
 20
5144.858492916511
 30
0.0
 10
6449.920055773561
 20
5144.894888125296
 30
0.0
 10
6449.920400298188
 20
5144.926814696943
 30
0.0
 10
6449.920572544614
 20
5144.942776510527
 30
0.0
  0
SPLINE
  5
19F
330
1F
100
AcDbEntity
  8
0
  6
Continuous
 62
     7
370
    25
100
AcDbSpline
210
0.0
220
0.0
230
1.0
 70
     8
 71
     3
 72
    10
 73
     6
 74
     0
 42
0.00000001
 43
0.00000001
 40
0.0
 40
0.0
 40
0.0
 40
0.0
 40
0.2503279413722235
 40
0.4999666459572479
 40
1.0
 40
1.0
 40
1.0
 40
1.0
 10
6449.921761975683
 20
5144.743803907788
 30
0.0
 10
6449.921518288896
 20
5144.746732494699
 30
0.0
 10
6449.92103158627
 20
5144.752581605139
 30
0.0
 10
6449.920347327366
 20
5144.78561709697
 30
0.0
 10
6449.920140381849
 20
5144.818416404326
 30
0.0
 10
6449.920002348613
 20
5144.840293633815
 30
0.0
  0
LINE
  5
1A0
330
1F
100
AcDbEntity
  8
0
  6
Continuous
 62
     7
370
    25
100
AcDbLine
 10
6449.9227293533
 20
5144.7378107571
 30
0.0
 11
6449.9217619757
 21
5144.7438039078
 31
0.0
  0
SPLINE
  5
1A1
330
1F
100
AcDbEntity
  8
0
  6
Continuous
 62
     7
370
    25
100
AcDbSpline
210
0.0
220
0.0
230
1.0
 70
     8
 71
     3
 72
    10
 73
     6
 74
     0
 42
0.00000001
 43
0.00000001
 40
0.0
 40
0.0
 40
0.0
 40
0.0
 40
0.2502237850968987
 40
0.5004141625175067
 40
1.0
 40
1.0
 40
1.0
 40
1.0
 10
6449.925689326419
 20
5144.774968291349
 30
0.0
 10
6449.925466786622
 20
5144.768508908962
 30
0.0
 10
6449.925021736736
 20
5144.755591006588
 30
0.0
 10
6449.923977750525
 20
5144.741347168209
 30
0.0
 10
6449.923228553301
 20
5144.73922487153
 30
0.0
 10
6449.922729353252
 20
5144.737810757102
 30
0.0
  0
LINE
  5
1A2
330
1F
100
AcDbEntity
  8
0
  6
Continuous
 62
     7
370
    25
100
AcDbLine
 10
6449.9583289714
 20
5145.9640093872
 30
0.0
 11
6449.9256893264
 21
5144.7749682913
 31
0.0
  0
LINE
  5
1A3
330
1F
100
AcDbEntity
  8
0
  6
Continuous
 62
     7
370
    25
100
AcDbLine
 10
6450.010458062
 20
5144.807331305
 30
0.0
 11
6449.9583289714
 21
5145.9640093872
 31
0.0
  0
SPLINE
  5
1A4
330
1F
100
AcDbEntity
  8
0
  6
Continuous
 62
     7
370
    25
100
AcDbSpline
210
0.0
220
0.0
230
1.0
 70
     8
 71
     3
 72
     9
 73
     5
 74
     0
 42
0.00000001
 43
0.00000001
 40
0.0
 40
0.0
 40
0.0
 40
0.0
 40
0.4998923417081672
 40
1.0
 40
1.0
 40
1.0
 40
1.0
 10
6450.018081618482
 20
5144.737810757102
 30
0.0
 10
6450.016593410938
 20
5144.746588106567
 30
0.0
 10
6450.01361635484
 20
5144.764146586129
 30
0.0
 10
6450.011510977355
 20
5144.792934332581
 30
0.0
 10
6450.010458061952
 20
5144.807331305047
 30
0.0
  0
SPLINE
  5
1A5
330
1F
100
AcDbEntity
  8
0
  6
Continuous
 62
     7
370
    25
100
AcDbSpline
210
0.0
220
0.0
230
1.0
 70
     8
 71
     3
 72
    11
 73
     7
 74
     0
 42
0.00000001
 43
0.00000001
 40
0.0
 40
0.0
 40
0.0
 40
0.0
 40
0.2500492632217298
 40
0.4998309992078896
 40
0.7497668917829514
 40
1.0
 40
1.0
 40
1.0
 40
1.0
 10
6450.034384130841
 20
5144.804334729705
 30
0.0
 10
6450.033239574831
 20
5144.793488841912
 30
0.0
 10
6450.03095168737
 20
5144.771808670321
 30
0.0
 10
6450.026769523239
 20
5144.751786086341
 30
0.0
 10
6450.022432207984
 20
5144.739752176009
 30
0.0
 10
6450.019532389369
 20
5144.738458153053
 30
0.0
 10
6450.018081618482
 20
5144.737810757102
 30
0.0
  0
SPLINE
  5
1A6
330
1F
100
AcDbEntity
  8
0
  6
Continuous
 62
     7
370
    25
100
AcDbSpline
210
0.0
220
0.0
230
1.0
 70
     8
 71
     3
 72
    10
 73
     6
 74
     0
 42
0.00000001
 43
0.00000001
 40
0.0
 40
0.0
 40
0.0
 40
0.0
 40
0.3047058014729424
 40
0.5762581046422762
 40
1.0
 40
1.0
 40
1.0
 40
1.0
 10
6450.036250029503
 20
5144.866663496829
 30
0.0
 10
6450.036166758036
 20
5144.860046613544
 30
0.0
 10
6450.036009275452
 20
5144.847532796603
 30
0.0
 10
6450.035449904552
 20
5144.826300264634
 30
0.0
 10
6450.034787704036
 20
5144.81265235007
 30
0.0
 10
6450.03438413084
 20
5144.804334729705
 30
0.0
  0
SPLINE
  5
1A7
330
1F
100
AcDbEntity
  8
0
  6
Continuous
 62
     7
370
    25
100
AcDbSpline
210
0.0
220
0.0
230
1.0
 70
     8
 71
     3
 72
    10
 73
     6
 74
     0
 42
0.00000001
 43
0.00000001
 40
0.0
 40
0.0
 40
0.0
 40
0.0
 40
0.3325154243639104
 40
0.663422655624572
 40
1.0
 40
1.0
 40
1.0
 40
1.0
 10
6450.033977898029
 20
5144.92180048313
 30
0.0
 10
6450.034308075376
 20
5144.916066329267
 30
0.0
 10
6450.034966833184
 20
5144.904625754469
 30
0.0
 10
6450.035743565139
 20
5144.886134929254
 30
0.0
 10
6450.036080254684
 20
5144.873190627164
 30
0.0
 10
6450.036250029503
 20
5144.866663496829
 30
0.0
  0
LINE
  5
1A8
330
1F
100
AcDbEntity
  8
0
  6
Continuous
 62
     7
370
    25
100
AcDbLine
 10
6449.9683422514
 20
5146.1521943187
 30
0.0
 11
6450.033977898
 21
5144.9218004831
 31
0.0
  0
LINE
  5
1A9
330
1F
100
AcDbEntity
  8
0
  6
Continuous
 62
     7
370
    25
100
AcDbLine
 10
6450.028816709
 20
5147.361612127
 30
0.0
 11
6449.9683422514
 21
5146.1521943187
 31
0.0
  0
SPLINE
  5
1AA
330
1F
100
AcDbEntity
  8
0
  6
Continuous
 62
     7
370
    25
100
AcDbSpline
210
0.0
220
0.0
230
1.0
 70
     8
 71
     3
 72
    10
 73
     6
 74
     0
 42
0.00000001
 43
0.00000001
 40
0.0
 40
0.0
 40
0.0
 40
0.0
 40
0.2492904803073857
 40
0.4993112821062557
 40
1.0
 40
1.0
 40
1.0
 40
1.0
 10
6450.036250029503
 20
5147.468290209157
 30
0.0
 10
6450.036050369374
 20
5147.457070275624
 30
0.0
 10
6450.03565046419
 20
5147.434597538634
 30
0.0
 10
6450.032858105686
 20
5147.398442591681
 30
0.0
 10
6450.030433685661
 20
5147.376348121954
 30
0.0
 10
6450.028816709026
 20
5147.361612126966
 30
0.0
  0
SPLINE
  5
1AB
330
1F
100
AcDbEntity
  8
0
  6
Continuous
 62
     7
370
    25
100
AcDbSpline
210
0.0
220
0.0
230
1.0
 70
     8
 71
     3
 72
    11
 73
     7
 74
     0
 42
0.00000001
 43
0.00000001
 40
0.0
 40
0.0
 40
0.0
 40
0.0
 40
0.2504737303714594
 40
0.5001199898305121
 40
0.7496164706793546
 40
1.0
 40
1.0
 40
1.0
 40
1.0
 10
6450.026615814579
 20
5147.565978565322
 30
0.0
 10
6450.027740457518
 20
5147.56248217415
 30
0.0
 10
6450.029986027997
 20
5147.555500942567
 30
0.0
 10
6450.033014513146
 20
5147.53463037633
 30
0.0
 10
6450.035208648383
 20
5147.504092205636
 30
0.0
 10
6450.035902492049
 20
5147.480238317739
 30
0.0
 10
6450.036250029503
 20
5147.468290209157
 30
0.0
  0
SPLINE
  5
1AC
330
1F
100
AcDbEntity
  8
0
  6
Continuous
 62
     7
370
    25
100
AcDbSpline
210
0.0
220
0.0
230
1.0
 70
     8
 71
     3
 72
     9
 73
     5
 74
     0
 42
0.00000001
 43
0.00000001
 40
0.0
 40
0.0
 40
0.0
 40
0.0
 40
0.5001898059141883
 40
1.0
 40
1.0
 40
1.0
 40
1.0
 10
6450.020906769768
 20
5147.576166921486
 30
0.0
 10
6450.021863190905
 20
5147.575381675637
 30
0.0
 10
6450.023775307318
 20
5147.573811779888
 30
0.0
 10
6450.025669218477
 20
5147.568588975964
 30
0.0
 10
6450.026615814579
 20
5147.565978565322
 30
0.0
  0
SPLINE
  5
1AD
330
1F
100
AcDbEntity
  8
0
  6
Continuous
 62
     7
370
    25
100
AcDbSpline
210
0.0
220
0.0
230
1.0
 70
     8
 71
     3
 72
     9
 73
     5
 74
     0
 42
0.00000001
 43
0.00000001
 40
0.0
 40
0.0
 40
0.0
 40
0.0
 40
0.5018301460567296
 40
1.0
 40
1.0
 40
1.0
 40
1.0
 10
6450.012756308975
 20
5147.536012811897
 30
0.0
 10
6450.013956255337
 20
5147.54636178159
 30
0.0
 10
6450.016347395787
 20
5147.566984236766
 30
0.0
 10
6450.019390691558
 20
5147.573113504884
 30
0.0
 10
6450.020906769768
 20
5147.576166921486
 30
0.0
  0
LINE
  5
1AE
330
1F
100
AcDbEntity
  8
0
  6
Continuous
 62
     7
370
    25
100
AcDbLine
 10
6449.9585035613
 20
5146.3517662366
 30
0.0
 11
6450.012756309
 21
5147.5360128119
 31
0.0
  0
LINE
  5
1AF
330
1F
100
AcDbEntity
  8
0
  6
Continuous
 62
     7
370
    25
100
AcDbLine
 10
6449.9263984825
 20
5147.5114408941
 30
0.0
 11
6449.9585035613
 21
5146.3517662366
 31
0.0
  0
LINE
  5
1B0
330
1F
100
AcDbEntity
  8
0
  6
Continuous
 62
     7
370
    25
100
AcDbLine
 10
6449.9196701635
 20
5145.8471914464
 30
0.0
 11
6449.9164346095
 21
5145.8465436338
 31
0.0
  0
LINE
  5
1B1
330
1F
100
AcDbEntity
  8
0
  6
Continuous
 62
     7
370
    25
100
AcDbLine
 10
6449.9164093251
 20
5145.6200025379
 30
0.0
 11
6449.9155230554
 21
5145.6200025379
 31
0.0
  0
SPLINE
  5
1B2
330
1F
100
AcDbEntity
  8
0
  6
Continuous
 62
     7
370
    25
100
AcDbSpline
210
0.0
220
0.0
230
1.0
 70
     8
 71
     3
 72
    11
 73
     7
 74
     0
 42
0.00000001
 43
0.00000001
 40
0.0
 40
0.0
 40
0.0
 40
0.0
 40
0.1247652896758542
 40
0.4996017925282017
 40
0.749209663893555
 40
0.9999999999999999
 40
0.9999999999999999
 40
0.9999999999999999
 40
0.9999999999999999
 10
6449.917882757698
 20
5145.735071031076
 30
0.0
 10
6449.917856540398
 20
5145.727465389455
 30
0.0
 10
6449.917751557593
 20
5145.697009866155
 30
0.0
 10
6449.917376501579
 20
5145.656234042312
 30
0.0
 10
6449.916826853293
 20
5145.628333677861
 30
0.0
 10
6449.916548720213
 20
5145.622783955989
 30
0.0
 10
6449.916409325051
 20
5145.620002537925
 30
0.0
  0
SPLINE
  5
1B3
330
1F
100
AcDbEntity
  8
0
  6
Continuous
 62
     7
370
    25
100
AcDbSpline
210
0.0
220
0.0
230
1.0
 70
     8
 71
     3
 72
    12
 73
     8
 74
     0
 42
0.00000001
 43
0.00000001
 40
0.0
 40
0.0
 40
0.0
 40
0.0
 40
0.498878145304097
 40
0.6196312873304671
 40
0.74690643494257
 40
0.8663109629863337
 40
1.0
 40
1.0
 40
1.0
 40
1.0
 10
6449.916434609499
 20
5145.846543633815
 30
0.0
 10
6449.916736430891
 20
5145.839838517583
 30
0.0
 10
6449.917111307962
 20
5145.831510432175
 30
0.0
 10
6449.917569218341
 20
5145.801042691321
 30
0.0
 10
6449.917738989927
 20
5145.781819617931
 30
0.0
 10
6449.91786685081
 20
5145.759511651818
 30
0.0
 10
6449.91787725958
 20
5145.743518781914
 30
0.0
 10
6449.917882757698
 20
5145.735071031076
 30
0.0
  0
LINE
  5
1B4
330
1F
100
AcDbEntity
  8
0
  6
Continuous
 62
     7
370
    25
100
AcDbLine
 10
6449.9155230554
 20
5148.6994545927
 30
0.0
 11
6452.3599542746
 21
5148.6994545927
 31
0.0
  0
LINE
  5
1B5
330
1F
100
AcDbEntity
  8
0
  6
Continuous
 62
     7
370
    25
100
AcDbLine
 10
6452.5857519853
 20
5148.6994545927
 30
0.0
 11
6452.5857519853
 21
5143.6994545927
 31
0.0
  0
LINE
  5
1B6
330
1F
100
AcDbEntity
  8
0
  6
Continuous
 62
     7
370
    25
100
AcDbLine
 10
6452.3599542746
 20
5143.6994545927
 30
0.0
 11
6452.5857519853
 21
5143.6994545927
 31
0.0
  0
LINE
  5
1B7
330
1F
100
AcDbEntity
  8
0
  6
Continuous
 62
     7
370
    25
100
AcDbLine
 10
6452.3599542746
 20
5148.6994545927
 30
0.0
 11
6452.5857519853
 21
5148.6994545927
 31
0.0
  0
LINE
  5
1B8
330
1F
100
AcDbEntity
  8
0
  6
Continuous
 62
     7
370
    25
100
AcDbLine
 10
6451.868879006
 20
5146.3517662366
 30
0.0
 11
6452.1647694207
 21
5147.5360128119
 31
0.0
  0
SPLINE
  5
1B9
330
1F
100
AcDbEntity
  8
0
  6
Continuous
 62
     7
370
    25
100
AcDbSpline
210
0.0
220
0.0
230
1.0
 70
     8
 71
     3
 72
     9
 73
     5
 74
     0
 42
0.00000001
 43
0.00000001
 40
0.0
 40
0.0
 40
0.0
 40
0.0
 40
0.5018528075883423
 40
0.9999999999999999
 40
0.9999999999999999
 40
0.9999999999999999
 40
0.9999999999999999
 10
6452.164769420714
 20
5147.536012811897
 30
0.0
 10
6452.170387391184
 20
5147.546361739092
 30
0.0
 10
6452.181581849767
 20
5147.566983178363
 30
0.0
 10
6452.19548841326
 20
5147.573113245669
 30
0.0
 10
6452.202415928819
 20
5147.576166921486
 30
0.0
  0
SPLINE
  5
1BA
330
1F
100
AcDbEntity
  8
0
  6
Continuous
 62
     7
370
    25
100
AcDbSpline
210
0.0
220
0.0
230
1.0
 70
     8
 71
     3
 72
     9
 73
     5
 74
     0
 42
0.00000001
 43
0.00000001
 40
0.0
 40
0.0
 40
0.0
 40
0.0
 40
0.4998675798210157
 40
0.9999999999999999
 40
0.9999999999999999
 40
0.9999999999999999
 40
0.9999999999999999
 10
6452.189503200528
 20
5144.737810757102
 30
0.0
 10
6452.182626452612
 20
5144.746588485968
 30
0.0
 10
6452.168869313331
 20
5144.764148594321
 30
0.0
 10
6452.158909050087
 20
5144.792934526913
 30
0.0
 10
6452.153927599526
 20
5144.807331305047
 30
0.0
  0
LINE
  5
1BB
330
1F
100
AcDbEntity
  8
0
  6
Continuous
 62
     7
370
    25
100
AcDbLine
 10
6452.1539275995
 20
5144.807331305
 30
0.0
 11
6451.86772658
 21
5145.9640093872
 31
0.0
  0
LINE
  5
1BC
330
1F
100
AcDbEntity
  8
0
  6
Continuous
 62
     7
370
    25
100
AcDbLine
 10
6451.5480669001
 20
5144.7378107571
 30
0.0
 11
6451.5333065303
 21
5144.7438039078
 31
0.0
  0
SPLINE
  5
1BD
330
1F
100
AcDbEntity
  8
0
  6
Continuous
 62
     7
370
    25
100
AcDbSpline
210
0.0
220
0.0
230
1.0
 70
     8
 71
     3
 72
    10
 73
     6
 74
     0
 42
0.00000001
 43
0.00000001
 40
0.0
 40
0.0
 40
0.0
 40
0.0
 40
0.250284038022651
 40
0.4999128011859422
 40
0.9999999999999999
 40
0.9999999999999999
 40
0.9999999999999999
 40
0.9999999999999999
 10
6451.533306530326
 20
5144.743803907788
 30
0.0
 10
6451.529388572638
 20
5144.746732734457
 30
0.0
 10
6451.521562914966
 20
5144.752582719761
 30
0.0
 10
6451.509707299647
 20
5144.785620668986
 30
0.0
 10
6451.505897366236
 20
5144.818417189035
 30
0.0
 10
6451.50335600521
 20
5144.840293633815
 30
0.0
  0
SPLINE
  5
1BE
330
1F
100
AcDbEntity
  8
0
  6
Continuous
 62
     7
370
    25
100
AcDbSpline
210
0.0
220
0.0
230
1.0
 70
     8
 71
     3
 72
     9
 73
     5
 74
     0
 42
0.00000001
 43
0.00000001
 40
0.0
 40
0.0
 40
0.0
 40
0.0
 40
0.5000617086091496
 40
1.0
 40
1.0
 40
1.0
 40
1.0
 10
6451.50335600521
 20
5144.840293633815
 30
0.0
 10
6451.503701606107
 20
5144.858492673303
 30
0.0
 10
6451.504392722607
 20
5144.894886260684
 30
0.0
 10
6451.510523219788
 20
5144.926814407408
 30
0.0
 10
6451.513588090074
 20
5144.942776510527
 30
0.0
  0
LINE
  5
1BF
330
1F
100
AcDbEntity
  8
0
  6
Continuous
 62
     7
370
    25
100
AcDbLine
 10
6451.5135880901
 20
5144.9427765105
 30
0.0
 11
6451.8073449297
 21
5146.1569888393
 31
0.0
  0
LINE
  5
1C0
330
1F
100
AcDbEntity
  8
0
  6
Continuous
 62
     7
370
    25
100
AcDbLine
 10
6451.8073449297
 20
5146.1569888393
 30
0.0
 11
6451.5060675212
 21
5147.4047628119
 31
0.0
  0
SPLINE
  5
1C1
330
1F
100
AcDbEntity
  8
0
  6
Continuous
 62
     7
370
    25
100
AcDbSpline
210
0.0
220
0.0
230
1.0
 70
     8
 71
     3
 72
     9
 73
     5
 74
     0
 42
0.00000001
 43
0.00000001
 40
0.0
 40
0.0
 40
0.0
 40
0.0
 40
0.499939915500571
 40
0.9999999999999999
 40
0.9999999999999999
 40
0.9999999999999999
 40
0.9999999999999999
 10
6451.506067521232
 20
5147.404762811897
 30
0.0
 10
6451.50529315563
 20
5147.41239869485
 30
0.0
 10
6451.503744238295
 20
5147.427672296167
 30
0.0
 10
6451.503485426605
 20
5147.44356305369
 30
0.0
 10
6451.50335600521
 20
5147.45150938724
 30
0.0
  0
SPLINE
  5
1C2
330
1F
100
AcDbEntity
  8
0
  6
Continuous
 62
     7
370
    25
100
AcDbSpline
210
0.0
220
0.0
230
1.0
 70
     8
 71
     3
 72
     9
 73
     5
 74
     0
 42
0.00000001
 43
0.00000001
 40
0.0
 40
0.0
 40
0.0
 40
0.0
 40
0.5003682129158251
 40
1.0
 40
1.0
 40
1.0
 40
1.0
 10
6451.50335600521
 20
5147.45150938724
 30
0.0
 10
6451.503573544082
 20
5147.464843574647
 30
0.0
 10
6451.504008301658
 20
5147.491492324632
 30
0.0
 10
6451.509420365498
 20
5147.513187107428
 30
0.0
 10
6451.512124404625
 20
5147.524026510528
 30
0.0
  0
SPLINE
  5
1C3
330
1F
100
AcDbEntity
  8
0
  6
Continuous
 62
     7
370
    25
100
AcDbSpline
210
0.0
220
0.0
230
1.0
 70
     8
 71
     3
 72
    11
 73
     7
 74
     0
 42
0.00000001
 43
0.00000001
 40
0.0
 40
0.0
 40
0.0
 40
0.0
 40
0.2502556926832449
 40
0.5000591285676074
 40
0.7497998166589701
 40
1.0
 40
1.0
 40
1.0
 40
1.0
 10
6451.512124404625
 20
5147.524026510528
 30
0.0
 10
6451.514323506726
 20
5147.531896782688
 30
0.0
 10
6451.518717736757
 20
5147.54762310402
 30
0.0
 10
6451.527644500859
 20
5147.564223144857
 30
0.0
 10
6451.537632792134
 20
5147.575044258263
 30
0.0
 10
6451.544727580393
 20
5147.575792471184
 30
0.0
 10
6451.548278234929
 20
5147.576166921486
 30
0.0
  0
LINE
  5
1C4
330
1F
100
AcDbEntity
  8
0
  6
Continuous
 62
     7
370
    25
100
AcDbLine
 10
6452.1556566023
 20
5147.5360128119
 30
0.0
 11
6452.1647694207
 21
5147.5360128119
 31
0.0
  0
LINE
  5
1C5
330
1F
100
AcDbEntity
  8
0
  6
Continuous
 62
     7
370
    25
100
AcDbLine
 10
6452.1933180258
 20
5147.5761669215
 30
0.0
 11
6452.2024159288
 21
5147.5761669215
 31
0.0
  0
LINE
  5
1C6
330
1F
100
AcDbEntity
  8
0
  6
Continuous
 62
     7
370
    25
100
AcDbLine
 10
6452.1448104856
 20
5144.807331305
 30
0.0
 11
6452.1539275995
 21
5144.807331305
 31
0.0
  0
LINE
  5
1C7
330
1F
100
AcDbEntity
  8
0
  6
Continuous
 62
     7
370
    25
100
AcDbLine
 10
6451.8596489569
 20
5146.3517662366
 30
0.0
 11
6451.868879006
 21
5146.3517662366
 31
0.0
  0
LINE
  5
1C8
330
1F
100
AcDbEntity
  8
0
  6
Continuous
 62
     7
370
    25
100
AcDbLine
 10
6451.8584960743
 20
5145.9640093872
 30
0.0
 11
6451.86772658
 21
5145.9640093872
 31
0.0
  0
LINE
  5
1C9
330
1F
100
AcDbEntity
  8
0
  6
Continuous
 62
     7
370
    25
100
AcDbLine
 10
6451.798090501
 20
5146.1569888393
 30
0.0
 11
6451.8073449297
 21
5146.1569888393
 31
0.0
  0
LINE
  5
1CA
330
1F
100
AcDbEntity
  8
0
  6
Continuous
 62
     7
370
    25
100
AcDbLine
 10
6451.5042172759
 20
5144.9427765105
 30
0.0
 11
6451.5135880901
 21
5144.9427765105
 31
0.0
  0
LINE
  5
1CB
330
1F
100
AcDbEntity
  8
0
  6
Continuous
 62
     7
370
    25
100
AcDbLine
 10
6451.4966937274
 20
5147.4047628119
 30
0.0
 11
6451.5060675212
 21
5147.4047628119
 31
0.0
  0
LINE
  5
1CC
330
1F
100
AcDbEntity
  8
0
  6
Continuous
 62
     7
370
    25
100
AcDbLine
 10
6451.5027530105
 20
5147.5240265105
 30
0.0
 11
6451.5121244046
 21
5147.5240265105
 31
0.0
  0
LINE
  5
1CD
330
1F
100
AcDbEntity
  8
0
  6
Continuous
 62
     7
370
    25
100
AcDbLine
 10
6451.5389211649
 20
5147.5761669215
 30
0.0
 11
6451.5482782349
 21
5147.5761669215
 31
0.0
  0
LINE
  5
1CE
330
1F
100
AcDbEntity
  8
0
  6
Continuous
 62
     7
370
    25
100
AcDbLine
 10
6451.5239435285
 20
5144.7438039078
 30
0.0
 11
6451.5333065303
 21
5144.7438039078
 31
0.0
  0
LINE
  5
1CF
330
1F
100
AcDbEntity
  8
0
  6
Continuous
 62
     7
370
    25
100
AcDbLine
 10
6451.5387097463
 20
5144.7378107571
 30
0.0
 11
6451.5480669001
 21
5144.7378107571
 31
0.0
  0
LINE
  5
1D0
330
1F
100
AcDbEntity
  8
0
  6
Continuous
 62
     7
370
    25
100
AcDbLine
 10
6451.4939811371
 20
5144.8402936338
 30
0.0
 11
6451.5033560052
 21
5144.8402936338
 31
0.0
  0
LINE
  5
1D1
330
1F
100
AcDbEntity
  8
0
  6
Continuous
 62
     7
370
    25
100
AcDbLine
 10
6451.4939811371
 20
5147.4515093872
 30
0.0
 11
6451.5033560052
 21
5147.4515093872
 31
0.0
  0
LINE
  5
1D2
330
1F
100
AcDbEntity
  8
0
  6
Continuous
 62
     7
370
    25
100
AcDbLine
 10
6451.1349656088
 20
5146.3517662366
 30
0.0
 11
6451.3725366171
 21
5147.5360128119
 31
0.0
  0
SPLINE
  5
1D3
330
1F
100
AcDbEntity
  8
0
  6
Continuous
 62
     7
370
    25
100
AcDbSpline
210
0.0
220
0.0
230
1.0
 70
     8
 71
     3
 72
     9
 73
     5
 74
     0
 42
0.00000001
 43
0.00000001
 40
0.0
 40
0.0
 40
0.0
 40
0.0
 40
0.5018528075875502
 40
1.0
 40
1.0
 40
1.0
 40
1.0
 10
6451.372536617061
 20
5147.536012811897
 30
0.0
 10
6451.377090499232
 20
5147.546361739092
 30
0.0
 10
6451.386164638306
 20
5147.566983178363
 30
0.0
 10
6451.397455824635
 20
5147.573113245669
 30
0.0
 10
6451.403080497405
 20
5147.576166921486
 30
0.0
  0
SPLINE
  5
1D4
330
1F
100
AcDbEntity
  8
0
  6
Continuous
 62
     7
370
    25
100
AcDbSpline
210
0.0
220
0.0
230
1.0
 70
     8
 71
     3
 72
     9
 73
     5
 74
     0
 42
0.00000001
 43
0.00000001
 40
0.0
 40
0.0
 40
0.0
 40
0.0
 40
0.4998675798208156
 40
0.9999999999999999
 40
0.9999999999999999
 40
0.9999999999999999
 40
0.9999999999999999
 10
6451.392596449286
 20
5144.737810757102
 30
0.0
 10
6451.387017260232
 20
5144.746588485968
 30
0.0
 10
6451.375855926151
 20
5144.764148594321
 30
0.0
 10
6451.367787853161
 20
5144.792934526913
 30
0.0
 10
6451.36375274829
 20
5144.807331305047
 30
0.0
  0
LINE
  5
1D5
330
1F
100
AcDbEntity
  8
0
  6
Continuous
 62
     7
370
    25
100
AcDbLine
 10
6451.3637527483
 20
5144.807331305
 30
0.0
 11
6451.1340496627
 21
5145.9640093872
 31
0.0
  0
LINE
  5
1D6
330
1F
100
AcDbEntity
  8
0
  6
Continuous
 62
     7
370
    25
100
AcDbLine
 10
6450.883247958
 20
5144.7378107571
 30
0.0
 11
6450.8718391994
 21
5144.7438039078
 31
0.0
  0
SPLINE
  5
1D7
330
1F
100
AcDbEntity
  8
0
  6
Continuous
 62
     7
370
    25
100
AcDbSpline
210
0.0
220
0.0
230
1.0
 70
     8
 71
     3
 72
    10
 73
     6
 74
     0
 42
0.00000001
 43
0.00000001
 40
0.0
 40
0.0
 40
0.0
 40
0.0
 40
0.2502840380222929
 40
0.4999128011859738
 40
1.0
 40
1.0
 40
1.0
 40
1.0
 10
6450.871839199433
 20
5144.743803907788
 30
0.0
 10
6450.868814214388
 20
5144.746732734457
 30
0.0
 10
6450.862772164089
 20
5144.752582719762
 30
0.0
 10
6450.853632177338
 20
5144.785620668986
 30
0.0
 10
6450.850698241677
 20
5144.818417189035
 30
0.0
 10
6450.848741202291
 20
5144.840293633815
 30
0.0
  0
SPLINE
  5
1D8
330
1F
100
AcDbEntity
  8
0
  6
Continuous
 62
     7
370
    25
100
AcDbSpline
210
0.0
220
0.0
230
1.0
 70
     8
 71
     3
 72
     9
 73
     5
 74
     0
 42
0.00000001
 43
0.00000001
 40
0.0
 40
0.0
 40
0.0
 40
0.0
 40
0.5000617086091894
 40
1.0
 40
1.0
 40
1.0
 40
1.0
 10
6450.848741202291
 20
5144.840293633815
 30
0.0
 10
6450.849007095981
 20
5144.858492673303
 30
0.0
 10
6450.849538817734
 20
5144.894886260684
 30
0.0
 10
6450.85426271014
 20
5144.926814407408
 30
0.0
 10
6450.856624364837
 20
5144.942776510527
 30
0.0
  0
LINE
  5
1D9
330
1F
100
AcDbEntity
  8
0
  6
Continuous
 62
     7
370
    25
100
AcDbLine
 10
6450.8566243648
 20
5144.9427765105
 30
0.0
 11
6451.0861687422
 21
5146.1569888393
 31
0.0
  0
LINE
  5
1DA
330
1F
100
AcDbEntity
  8
0
  6
Continuous
 62
     7
370
    25
100
AcDbLine
 10
6451.0861687422
 20
5146.1569888393
 30
0.0
 11
6450.8508294484
 21
5147.4047628119
 31
0.0
  0
SPLINE
  5
1DB
330
1F
100
AcDbEntity
  8
0
  6
Continuous
 62
     7
370
    25
100
AcDbSpline
210
0.0
220
0.0
230
1.0
 70
     8
 71
     3
 72
     9
 73
     5
 74
     0
 42
0.00000001
 43
0.00000001
 40
0.0
 40
0.0
 40
0.0
 40
0.0
 40
0.4999399155006888
 40
0.9999999999999999
 40
0.9999999999999999
 40
0.9999999999999999
 40
0.9999999999999999
 10
6450.850829448415
 20
5147.404762811897
 30
0.0
 10
6450.850233050668
 20
5147.41239869485
 30
0.0
 10
6450.849040111818
 20
5147.427672296167
 30
0.0
 10
6450.848840846781
 20
5147.44356305369
 30
0.0
 10
6450.848741202291
 20
5147.45150938724
 30
0.0
  0
SPLINE
  5
1DC
330
1F
100
AcDbEntity
  8
0
  6
Continuous
 62
     7
370
    25
100
AcDbSpline
210
0.0
220
0.0
230
1.0
 70
     8
 71
     3
 72
     9
 73
     5
 74
     0
 42
0.00000001
 43
0.00000001
 40
0.0
 40
0.0
 40
0.0
 40
0.0
 40
0.5003682129157873
 40
1.0
 40
1.0
 40
1.0
 40
1.0
 10
6450.848741202291
 20
5147.45150938724
 30
0.0
 10
6450.848908532554
 20
5147.464843574647
 30
0.0
 10
6450.849242946806
 20
5147.491492324632
 30
0.0
 10
6450.853412796122
 20
5147.513187107428
 30
0.0
 10
6450.855496185388
 20
5147.524026510528
 30
0.0
  0
SPLINE
  5
1DD
330
1F
100
AcDbEntity
  8
0
  6
Continuous
 62
     7
370
    25
100
AcDbSpline
210
0.0
220
0.0
230
1.0
 70
     8
 71
     3
 72
    11
 73
     7
 74
     0
 42
0.00000001
 43
0.00000001
 40
0.0
 40
0.0
 40
0.0
 40
0.0
 40
0.2502556926832345
 40
0.5000591285672005
 40
0.7497998166588302
 40
0.9999999999999999
 40
0.9999999999999999
 40
0.9999999999999999
 40
0.9999999999999999
 10
6450.855496185388
 20
5147.524026510528
 30
0.0
 10
6450.857191341558
 20
5147.531896782688
 30
0.0
 10
6450.860578590448
 20
5147.54762310402
 30
0.0
 10
6450.867466214957
 20
5147.564223144857
 30
0.0
 10
6450.875179605259
 20
5147.575044258263
 30
0.0
 10
6450.880665804969
 20
5147.575792471184
 30
0.0
 10
6450.883411426003
 20
5147.576166921486
 30
0.0
  0
LINE
  5
1DE
330
1F
100
AcDbEntity
  8
0
  6
Continuous
 62
     7
370
    25
100
AcDbLine
 10
6451.3631099188
 20
5147.5360128119
 30
0.0
 11
6451.3725366171
 21
5147.5360128119
 31
0.0
  0
LINE
  5
1DF
330
1F
100
AcDbEntity
  8
0
  6
Continuous
 62
     7
370
    25
100
AcDbLine
 10
6451.3936659005
 20
5147.5761669215
 30
0.0
 11
6451.4030804974
 21
5147.5761669215
 31
0.0
  0
LINE
  5
1E0
330
1F
100
AcDbEntity
  8
0
  6
Continuous
 62
     7
370
    25
100
AcDbLine
 10
6451.3543225699
 20
5144.807331305
 30
0.0
 11
6451.3637527483
 21
5144.807331305
 31
0.0
  0
LINE
  5
1E1
330
1F
100
AcDbEntity
  8
0
  6
Continuous
 62
     7
370
    25
100
AcDbLine
 10
6451.1254447858
 20
5146.3517662366
 30
0.0
 11
6451.1349656088
 21
5146.3517662366
 31
0.0
  0
LINE
  5
1E2
330
1F
100
AcDbEntity
  8
0
  6
Continuous
 62
     7
370
    25
100
AcDbLine
 10
6451.1245284767
 20
5145.9640093872
 30
0.0
 11
6451.1340496627
 21
5145.9640093872
 31
0.0
  0
LINE
  5
1E3
330
1F
100
AcDbEntity
  8
0
  6
Continuous
 62
     7
370
    25
100
AcDbLine
 10
6451.076628586
 20
5146.1569888393
 30
0.0
 11
6451.0861687422
 21
5146.1569888393
 31
0.0
  0
LINE
  5
1E4
330
1F
100
AcDbEntity
  8
0
  6
Continuous
 62
     7
370
    25
100
AcDbLine
 10
6450.8469932639
 20
5144.9427765105
 30
0.0
 11
6450.8566243648
 21
5144.9427765105
 31
0.0
  0
LINE
  5
1E5
330
1F
100
AcDbEntity
  8
0
  6
Continuous
 62
     7
370
    25
100
AcDbLine
 10
6450.8411960516
 20
5147.4047628119
 30
0.0
 11
6450.8508294484
 21
5147.4047628119
 31
0.0
  0
LINE
  5
1E6
330
1F
100
AcDbEntity
  8
0
  6
Continuous
 62
     7
370
    25
100
AcDbLine
 10
6450.8458646375
 20
5147.5240265105
 30
0.0
 11
6450.8554961854
 21
5147.5240265105
 31
0.0
  0
LINE
  5
1E7
330
1F
100
AcDbEntity
  8
0
  6
Continuous
 62
     7
370
    25
100
AcDbLine
 10
6450.873790938
 20
5147.5761669215
 30
0.0
 11
6450.883411426
 21
5147.5761669215
 31
0.0
  0
LINE
  5
1E8
330
1F
100
AcDbEntity
  8
0
  6
Continuous
 62
     7
370
    25
100
AcDbLine
 10
6450.8622141266
 20
5144.7438039078
 30
0.0
 11
6450.8718391994
 21
5144.7438039078
 31
0.0
  0
LINE
  5
1E9
330
1F
100
AcDbEntity
  8
0
  6
Continuous
 62
     7
370
    25
100
AcDbLine
 10
6450.8736274053
 20
5144.7378107571
 30
0.0
 11
6450.883247958
 21
5144.7378107571
 31
0.0
  0
LINE
  5
1EA
330
1F
100
AcDbEntity
  8
0
  6
Continuous
 62
     7
370
    25
100
AcDbLine
 10
6450.8391069781
 20
5144.8402936338
 30
0.0
 11
6450.8487412023
 21
5144.8402936338
 31
0.0
  0
LINE
  5
1EB
330
1F
100
AcDbEntity
  8
0
  6
Continuous
 62
     7
370
    25
100
AcDbLine
 10
6450.8391069781
 20
5147.4515093872
 30
0.0
 11
6450.8487412023
 21
5147.4515093872
 31
0.0
  0
LINE
  5
1EC
330
1F
100
AcDbEntity
  8
0
  6
Continuous
 62
     7
370
    25
100
AcDbLine
 10
6450.5711405837
 20
5146.3517662366
 30
0.0
 11
6450.7487106571
 21
5147.5360128119
 31
0.0
  0
SPLINE
  5
1ED
330
1F
100
AcDbEntity
  8
0
  6
Continuous
 62
     7
370
    25
100
AcDbSpline
210
0.0
220
0.0
230
1.0
 70
     8
 71
     3
 72
     9
 73
     5
 74
     0
 42
0.00000001
 43
0.00000001
 40
0.0
 40
0.0
 40
0.0
 40
0.0
 40
0.5018528075873676
 40
1.0
 40
1.0
 40
1.0
 40
1.0
 10
6450.748710657051
 20
5147.536012811897
 30
0.0
 10
6450.752168218529
 20
5147.546361739092
 30
0.0
 10
6450.759057811304
 20
5147.566983178363
 30
0.0
 10
6450.767653701414
 20
5147.573113245669
 30
0.0
 10
6450.771935719938
 20
5147.576166921486
 30
0.0
  0
SPLINE
  5
1EE
330
1F
100
AcDbEntity
  8
0
  6
Continuous
 62
     7
370
    25
100
AcDbSpline
210
0.0
220
0.0
230
1.0
 70
     8
 71
     3
 72
     9
 73
     5
 74
     0
 42
0.00000001
 43
0.00000001
 40
0.0
 40
0.0
 40
0.0
 40
0.0
 40
0.4998675798204288
 40
0.9999999999999999
 40
0.9999999999999999
 40
0.9999999999999999
 40
0.9999999999999999
 10
6450.763954558121
 20
5144.737810757102
 30
0.0
 10
6450.759712417451
 20
5144.746588485968
 30
0.0
 10
6450.751225888534
 20
5144.764148594321
 30
0.0
 10
6450.745107111647
 20
5144.792934526913
 30
0.0
 10
6450.742046912954
 20
5144.807331305047
 30
0.0
  0
LINE
  5
1EF
330
1F
100
AcDbEntity
  8
0
  6
Continuous
 62
     7
370
    25
100
AcDbLine
 10
6450.742046913
 20
5144.807331305
 30
0.0
 11
6450.5704676005
 21
5145.9640093872
 31
0.0
  0
LINE
  5
1F0
330
1F
100
AcDbEntity
  8
0
  6
Continuous
 62
     7
370
    25
100
AcDbLine
 10
6450.3902990465
 20
5144.7378107571
 30
0.0
 11
6450.3823226503
 21
5144.7438039078
 31
0.0
  0
SPLINE
  5
1F1
330
1F
100
AcDbEntity
  8
0
  6
Continuous
 62
     7
370
    25
100
AcDbSpline
210
0.0
220
0.0
230
1.0
 70
     8
 71
     3
 72
    10
 73
     6
 74
     0
 42
0.00000001
 43
0.00000001
 40
0.0
 40
0.0
 40
0.0
 40
0.0
 40
0.2502840380224827
 40
0.4999128011860501
 40
1.0
 40
1.0
 40
1.0
 40
1.0
 10
6450.382322650306
 20
5144.743803907788
 30
0.0
 10
6450.380212048762
 20
5144.746732734457
 30
0.0
 10
6450.375996371488
 20
5144.752582719761
 30
0.0
 10
6450.369636706165
 20
5144.785620668986
 30
0.0
 10
6450.367599534661
 20
5144.818417189035
 30
0.0
 10
6450.366240668847
 20
5144.840293633815
 30
0.0
  0
SPLINE
  5
1F2
330
1F
100
AcDbEntity
  8
0
  6
Continuous
 62
     7
370
    25
100
AcDbSpline
210
0.0
220
0.0
230
1.0
 70
     8
 71
     3
 72
     9
 73
     5
 74
     0
 42
0.00000001
 43
0.00000001
 40
0.0
 40
0.0
 40
0.0
 40
0.0
 40
0.5000617086092632
 40
1.0
 40
1.0
 40
1.0
 40
1.0
 10
6450.366240668847
 20
5144.840293633815
 30
0.0
 10
6450.36642497333
 20
5144.858492673303
 30
0.0
 10
6450.366793536809
 20
5144.894886260684
 30
0.0
 10
6450.370077388712
 20
5144.926814407408
 30
0.0
 10
6450.371719112021
 20
5144.942776510527
 30
0.0
  0
LINE
  5
1F3
330
1F
100
AcDbEntity
  8
0
  6
Continuous
 62
     7
370
    25
100
AcDbLine
 10
6450.371719112
 20
5144.9427765105
 30
0.0
 11
6450.5354263112
 21
5146.1569888393
 31
0.0
  0
LINE
  5
1F4
330
1F
100
AcDbEntity
  8
0
  6
Continuous
 62
     7
370
    25
100
AcDbLine
 10
6450.5354263112
 20
5146.1569888393
 30
0.0
 11
6450.3676908645
 21
5147.4047628119
 31
0.0
  0
SPLINE
  5
1F5
330
1F
100
AcDbEntity
  8
0
  6
Continuous
 62
     7
370
    25
100
AcDbSpline
210
0.0
220
0.0
230
1.0
 70
     8
 71
     3
 72
     9
 73
     5
 74
     0
 42
0.00000001
 43
0.00000001
 40
0.0
 40
0.0
 40
0.0
 40
0.0
 40
0.4999399155005524
 40
1.0
 40
1.0
 40
1.0
 40
1.0
 10
6450.367690864459
 20
5147.404762811897
 30
0.0
 10
6450.367276655869
 20
5147.41239869485
 30
0.0
 10
6450.366448139132
 20
5147.427672296167
 30
0.0
 10
6450.366309831148
 20
5147.44356305369
 30
0.0
 10
6450.366240668847
 20
5147.45150938724
 30
0.0
  0
SPLINE
  5
1F6
330
1F
100
AcDbEntity
  8
0
  6
Continuous
 62
     7
370
    25
100
AcDbSpline
210
0.0
220
0.0
230
1.0
 70
     8
 71
     3
 72
     9
 73
     5
 74
     0
 42
0.00000001
 43
0.00000001
 40
0.0
 40
0.0
 40
0.0
 40
0.0
 40
0.5003682129157824
 40
1.0
 40
1.0
 40
1.0
 40
1.0
 10
6450.366240668847
 20
5147.45150938724
 30
0.0
 10
6450.366356606136
 20
5147.464843574647
 30
0.0
 10
6450.366588310078
 20
5147.491492324632
 30
0.0
 10
6450.369486430664
 20
5147.513187107428
 30
0.0
 10
6450.37093442383
 20
5147.524026510528
 30
0.0
  0
SPLINE
  5
1F7
330
1F
100
AcDbEntity
  8
0
  6
Continuous
 62
     7
370
    25
100
AcDbSpline
210
0.0
220
0.0
230
1.0
 70
     8
 71
     3
 72
    11
 73
     7
 74
     0
 42
0.00000001
 43
0.00000001
 40
0.0
 40
0.0
 40
0.0
 40
0.0
 40
0.2502556926832045
 40
0.5000591285672848
 40
0.7497998166586385
 40
1.0
 40
1.0
 40
1.0
 40
1.0
 10
6450.37093442383
 20
5147.524026510528
 30
0.0
 10
6450.372113635748
 20
5147.531896782688
 30
0.0
 10
6450.374469928537
 20
5147.54762310402
 30
0.0
 10
6450.379269662822
 20
5147.564223144857
 30
0.0
 10
6450.384653556746
 20
5147.575044258263
 30
0.0
 10
6450.388492336565
 20
5147.575792471184
 30
0.0
 10
6450.390413490584
 20
5147.576166921486
 30
0.0
  0
LINE
  5
1F8
330
1F
100
AcDbEntity
  8
0
  6
Continuous
 62
     7
370
    25
100
AcDbLine
 10
6450.7390368011
 20
5147.5360128119
 30
0.0
 11
6450.7487106571
 21
5147.5360128119
 31
0.0
  0
LINE
  5
1F9
330
1F
100
AcDbEntity
  8
0
  6
Continuous
 62
     7
370
    25
100
AcDbLine
 10
6450.7622710657
 20
5147.5761669215
 30
0.0
 11
6450.7719357199
 21
5147.5761669215
 31
0.0
  0
LINE
  5
1FA
330
1F
100
AcDbEntity
  8
0
  6
Continuous
 62
     7
370
    25
100
AcDbLine
 10
6450.7323704169
 20
5144.807331305
 30
0.0
 11
6450.742046913
 21
5144.807331305
 31
0.0
  0
LINE
  5
1FB
330
1F
100
AcDbEntity
  8
0
  6
Continuous
 62
     7
370
    25
100
AcDbLine
 10
6450.5613963751
 20
5146.3517662366
 30
0.0
 11
6450.5711405837
 21
5146.3517662366
 31
0.0
  0
LINE
  5
1FC
330
1F
100
AcDbEntity
  8
0
  6
Continuous
 62
     7
370
    25
100
AcDbLine
 10
6450.5607231252
 20
5145.9640093872
 30
0.0
 11
6450.5704676005
 21
5145.9640093872
 31
0.0
  0
LINE
  5
1FD
330
1F
100
AcDbEntity
  8
0
  6
Continuous
 62
     7
370
    25
100
AcDbLine
 10
6450.5256679527
 20
5146.1569888393
 30
0.0
 11
6450.5354263112
 21
5146.1569888393
 31
0.0
  0
LINE
  5
1FE
330
1F
100
AcDbEntity
  8
0
  6
Continuous
 62
     7
370
    25
100
AcDbLine
 10
6450.3618958933
 20
5144.9427765105
 30
0.0
 11
6450.371719112
 21
5144.9427765105
 31
0.0
  0
LINE
  5
1FF
330
1F
100
AcDbEntity
  8
0
  6
Continuous
 62
     7
370
    25
100
AcDbLine
 10
6450.3578660498
 20
5147.4047628119
 30
0.0
 11
6450.3676908645
 21
5147.4047628119
 31
0.0
  0
LINE
  5
200
330
1F
100
AcDbEntity
  8
0
  6
Continuous
 62
     7
370
    25
100
AcDbLine
 10
6450.3611108943
 20
5147.5240265105
 30
0.0
 11
6450.3709344238
 21
5147.5240265105
 31
0.0
  0
LINE
  5
201
330
1F
100
AcDbEntity
  8
0
  6
Continuous
 62
     7
370
    25
100
AcDbLine
 10
6450.3805976786
 20
5147.5761669215
 30
0.0
 11
6450.3904134906
 21
5147.5761669215
 31
0.0
  0
LINE
  5
202
330
1F
100
AcDbEntity
  8
0
  6
Continuous
 62
     7
370
    25
100
AcDbLine
 10
6450.3725036327
 20
5144.7438039078
 30
0.0
 11
6450.3823226503
 21
5144.7438039078
 31
0.0
  0
LINE
  5
203
330
1F
100
AcDbEntity
  8
0
  6
Continuous
 62
     7
370
    25
100
AcDbLine
 10
6450.3804831892
 20
5144.7378107571
 30
0.0
 11
6450.3902990465
 21
5144.7378107571
 31
0.0
  0
LINE
  5
204
330
1F
100
AcDbEntity
  8
0
  6
Continuous
 62
     7
370
    25
100
AcDbLine
 10
6450.3564152796
 20
5144.8402936338
 30
0.0
 11
6450.3662406688
 21
5144.8402936338
 31
0.0
  0
LINE
  5
205
330
1F
100
AcDbEntity
  8
0
  6
Continuous
 62
     7
370
    25
100
AcDbLine
 10
6450.3564152796
 20
5147.4515093872
 30
0.0
 11
6450.3662406688
 21
5147.4515093872
 31
0.0
  0
LINE
  5
206
330
1F
100
AcDbEntity
  8
0
  6
Continuous
 62
     7
370
    25
100
AcDbLine
 10
6450.1813946863
 20
5146.3517662366
 30
0.0
 11
6450.2977069831
 21
5147.5360128119
 31
0.0
  0
SPLINE
  5
207
330
1F
100
AcDbEntity
  8
0
  6
Continuous
 62
     7
370
    25
100
AcDbSpline
210
0.0
220
0.0
230
1.0
 70
     8
 71
     3
 72
     9
 73
     5
 74
     0
 42
0.00000001
 43
0.00000001
 40
0.0
 40
0.0
 40
0.0
 40
0.0
 40
0.5018528075877338
 40
1.0
 40
1.0
 40
1.0
 40
1.0
 10
6450.297706983072
 20
5147.536012811897
 30
0.0
 10
6450.300043751226
 20
5147.546361739092
 30
0.0
 10
6450.304700033143
 20
5147.566983178363
 30
0.0
 10
6450.310539785289
 20
5147.573113245669
 30
0.0
 10
6450.313448841426
 20
5147.576166921486
 30
0.0
  0
SPLINE
  5
208
330
1F
100
AcDbEntity
  8
0
  6
Continuous
 62
     7
370
    25
100
AcDbSpline
210
0.0
220
0.0
230
1.0
 70
     8
 71
     3
 72
     9
 73
     5
 74
     0
 42
0.00000001
 43
0.00000001
 40
0.0
 40
0.0
 40
0.0
 40
0.0
 40
0.4998675798204376
 40
1.0
 40
1.0
 40
1.0
 40
1.0
 10
6450.308027056603
 20
5144.737810757102
 30
0.0
 10
6450.305151990203
 20
5144.746588485968
 30
0.0
 10
6450.299400334132
 20
5144.764148594321
 30
0.0
 10
6450.295274162072
 20
5144.792934526913
 30
0.0
 10
6450.293210529654
 20
5144.807331305047
 30
0.0
  0
LINE
  5
209
330
1F
100
AcDbEntity
  8
0
  6
Continuous
 62
     7
370
    25
100
AcDbLine
 10
6450.2932105297
 20
5144.807331305
 30
0.0
 11
6450.1809694293
 21
5145.9640093872
 31
0.0
  0
LINE
  5
20A
330
1F
100
AcDbEntity
  8
0
  6
Continuous
 62
     7
370
    25
100
AcDbLine
 10
6450.0727092597
 20
5144.7378107571
 30
0.0
 11
6450.0682216828
 21
5144.7438039078
 31
0.0
  0
SPLINE
  5
20B
330
1F
100
AcDbEntity
  8
0
  6
Continuous
 62
     7
370
    25
100
AcDbSpline
210
0.0
220
0.0
230
1.0
 70
     8
 71
     3
 72
    10
 73
     6
 74
     0
 42
0.00000001
 43
0.00000001
 40
0.0
 40
0.0
 40
0.0
 40
0.0
 40
0.2502840380224724
 40
0.4999128011860317
 40
1.0
 40
1.0
 40
1.0
 40
1.0
 10
6450.068221682845
 20
5144.743803907788
 30
0.0
 10
6450.067040403643
 20
5144.746732734457
 30
0.0
 10
6450.064680937977
 20
5144.752582719761
 30
0.0
 10
6450.061146607813
 20
5144.785620668986
 30
0.0
 10
6450.060020619574
 20
5144.818417189035
 30
0.0
 10
6450.059269545389
 20
5144.840293633815
 30
0.0
  0
SPLINE
  5
20C
330
1F
100
AcDbEntity
  8
0
  6
Continuous
 62
     7
370
    25
100
AcDbSpline
210
0.0
220
0.0
230
1.0
 70
     8
 71
     3
 72
     9
 73
     5
 74
     0
 42
0.00000001
 43
0.00000001
 40
0.0
 40
0.0
 40
0.0
 40
0.0
 40
0.5000617086092588
 40
1.0
 40
1.0
 40
1.0
 40
1.0
 10
6450.059269545389
 20
5144.840293633815
 30
0.0
 10
6450.059370956159
 20
5144.858492673303
 30
0.0
 10
6450.05957375267
 20
5144.894886260684
 30
0.0
 10
6450.061394320955
 20
5144.926814407408
 30
0.0
 10
6450.062304492752
 20
5144.942776510527
 30
0.0
  0
LINE
  5
20D
330
1F
100
AcDbEntity
  8
0
  6
Continuous
 62
     7
370
    25
100
AcDbLine
 10
6450.0623044928
 20
5144.9427765105
 30
0.0
 11
6450.1590157935
 21
5146.1569888393
 31
0.0
  0
LINE
  5
20E
330
1F
100
AcDbEntity
  8
0
  6
Continuous
 62
     7
370
    25
100
AcDbLine
 10
6450.1590157935
 20
5146.1569888393
 30
0.0
 11
6450.060071426
 21
5147.4047628119
 31
0.0
  0
SPLINE
  5
20F
330
1F
100
AcDbEntity
  8
0
  6
Continuous
 62
     7
370
    25
100
AcDbSpline
210
0.0
220
0.0
230
1.0
 70
     8
 71
     3
 72
     9
 73
     5
 74
     0
 42
0.00000001
 43
0.00000001
 40
0.0
 40
0.0
 40
0.0
 40
0.0
 40
0.499939915500579
 40
1.0
 40
1.0
 40
1.0
 40
1.0
 10
6450.060071425999
 20
5147.404762811897
 30
0.0
 10
6450.059842338339
 20
5147.41239869485
 30
0.0
 10
6450.059384107955
 20
5147.427672296167
 30
0.0
 10
6450.059307735971
 20
5147.44356305369
 30
0.0
 10
6450.059269545389
 20
5147.45150938724
 30
0.0
  0
SPLINE
  5
210
330
1F
100
AcDbEntity
  8
0
  6
Continuous
 62
     7
370
    25
100
AcDbSpline
210
0.0
220
0.0
230
1.0
 70
     8
 71
     3
 72
     9
 73
     5
 74
     0
 42
0.00000001
 43
0.00000001
 40
0.0
 40
0.0
 40
0.0
 40
0.0
 40
0.5003682129158804
 40
0.9999999999999999
 40
0.9999999999999999
 40
0.9999999999999999
 40
0.9999999999999999
 10
6450.059269545389
 20
5147.45150938724
 30
0.0
 10
6450.059333269099
 20
5147.464843574647
 30
0.0
 10
6450.059460622732
 20
5147.491492324632
 30
0.0
 10
6450.061066501677
 20
5147.513187107428
 30
0.0
 10
6450.061868849843
 20
5147.524026510528
 30
0.0
  0
SPLINE
  5
211
330
1F
100
AcDbEntity
  8
0
  6
Continuous
 62
     7
370
    25
100
AcDbSpline
210
0.0
220
0.0
230
1.0
 70
     8
 71
     3
 72
    11
 73
     7
 74
     0
 42
0.00000001
 43
0.00000001
 40
0.0
 40
0.0
 40
0.0
 40
0.0
 40
0.25025569268308
 40
0.5000591285672921
 40
0.7497998166587738
 40
1.0
 40
1.0
 40
1.0
 40
1.0
 10
6450.061868849843
 20
5147.524026510528
 30
0.0
 10
6450.062523771043
 20
5147.531896782688
 30
0.0
 10
6450.063832429882
 20
5147.54762310402
 30
0.0
 10
6450.066510301408
 20
5147.564223144857
 30
0.0
 10
6450.069526591733
 20
5147.575044258263
 30
0.0
 10
6450.071690780765
 20
5147.575792471184
 30
0.0
 10
6450.072773869832
 20
5147.576166921486
 30
0.0
  0
LINE
  5
212
330
1F
100
AcDbEntity
  8
0
  6
Continuous
 62
     7
370
    25
100
AcDbLine
 10
6450.287854441
 20
5147.5360128119
 30
0.0
 11
6450.2977069831
 21
5147.5360128119
 31
0.0
  0
LINE
  5
213
330
1F
100
AcDbEntity
  8
0
  6
Continuous
 62
     7
370
    25
100
AcDbLine
 10
6450.3036025363
 20
5147.5761669215
 30
0.0
 11
6450.3134488414
 21
5147.5761669215
 31
0.0
  0
LINE
  5
214
330
1F
100
AcDbEntity
  8
0
  6
Continuous
 62
     7
370
    25
100
AcDbLine
 10
6450.2833562061
 20
5144.807331305
 30
0.0
 11
6450.2932105297
 21
5144.807331305
 31
0.0
  0
LINE
  5
215
330
1F
100
AcDbEntity
  8
0
  6
Continuous
 62
     7
370
    25
100
AcDbLine
 10
6450.1714960617
 20
5146.3517662366
 30
0.0
 11
6450.1813946863
 21
5146.3517662366
 31
0.0
  0
LINE
  5
216
330
1F
100
AcDbEntity
  8
0
  6
Continuous
 62
     7
370
    25
100
AcDbLine
 10
6450.1710706363
 20
5145.9640093872
 30
0.0
 11
6450.1809694293
 21
5145.9640093872
 31
0.0
  0
LINE
  5
217
330
1F
100
AcDbEntity
  8
0
  6
Continuous
 62
     7
370
    25
100
AcDbLine
 10
6450.0501247336
 20
5147.4047628119
 30
0.0
 11
6450.060071426
 21
5147.4047628119
 31
0.0
  0
LINE
  5
218
330
1F
100
AcDbEntity
  8
0
  6
Continuous
 62
     7
370
    25
100
AcDbLine
 10
6450.1491083025
 20
5146.1569888393
 30
0.0
 11
6450.1590157935
 21
5146.1569888393
 31
0.0
  0
LINE
  5
219
330
1F
100
AcDbEntity
  8
0
  6
Continuous
 62
     7
370
    25
100
AcDbLine
 10
6450.0523586851
 20
5144.9427765105
 30
0.0
 11
6450.0623044928
 21
5144.9427765105
 31
0.0
  0
LINE
  5
21A
330
1F
100
AcDbEntity
  8
0
  6
Continuous
 62
     7
370
    25
100
AcDbLine
 10
6450.0519228696
 20
5147.5240265105
 30
0.0
 11
6450.0618688498
 21
5147.5240265105
 31
0.0
  0
LINE
  5
21B
330
1F
100
AcDbEntity
  8
0
  6
Continuous
 62
     7
370
    25
100
AcDbLine
 10
6450.0628322101
 20
5147.5761669215
 30
0.0
 11
6450.0727738698
 21
5147.5761669215
 31
0.0
  0
LINE
  5
21C
330
1F
100
AcDbEntity
  8
0
  6
Continuous
 62
     7
370
    25
100
AcDbLine
 10
6450.0582782195
 20
5144.7438039078
 30
0.0
 11
6450.0682216828
 21
5144.7438039078
 31
0.0
  0
LINE
  5
21D
330
1F
100
AcDbEntity
  8
0
  6
Continuous
 62
     7
370
    25
100
AcDbLine
 10
6450.0627675744
 20
5144.7378107571
 30
0.0
 11
6450.0727092597
 21
5144.7378107571
 31
0.0
  0
LINE
  5
21E
330
1F
100
AcDbEntity
  8
0
  6
Continuous
 62
     7
370
    25
100
AcDbLine
 10
6450.0493225353
 20
5144.8402936338
 30
0.0
 11
6450.0592695454
 21
5144.8402936338
 31
0.0
  0
LINE
  5
21F
330
1F
100
AcDbEntity
  8
0
  6
Continuous
 62
     7
370
    25
100
AcDbLine
 10
6450.0493225353
 20
5147.4515093872
 30
0.0
 11
6450.0592695454
 21
5147.4515093872
 31
0.0
  0
LINE
  5
220
330
1F
100
AcDbEntity
  8
0
  6
Continuous
 62
     7
370
    25
100
AcDbLine
 10
6449.9684865393
 20
5146.3517662366
 30
0.0
 11
6450.0227178008
 21
5147.5360128119
 31
0.0
  0
SPLINE
  5
221
330
1F
100
AcDbEntity
  8
0
  6
Continuous
 62
     7
370
    25
100
AcDbSpline
210
0.0
220
0.0
230
1.0
 70
     8
 71
     3
 72
     9
 73
     5
 74
     0
 42
0.00000001
 43
0.00000001
 40
0.0
 40
0.0
 40
0.0
 40
0.0
 40
0.5018528075876526
 40
0.9999999999999999
 40
0.9999999999999999
 40
0.9999999999999999
 40
0.9999999999999999
 10
6450.022717800756
 20
5147.536012811897
 30
0.0
 10
6450.023917235931
 20
5147.546361739092
 30
0.0
 10
6450.026307249807
 20
5147.566983178363
 30
0.0
 10
6450.029349530205
 20
5147.573113245669
 30
0.0
 10
6450.030865033644
 20
5147.576166921486
 30
0.0
  0
SPLINE
  5
222
330
1F
100
AcDbEntity
  8
0
  6
Continuous
 62
     7
370
    25
100
AcDbSpline
210
0.0
220
0.0
230
1.0
 70
     8
 71
     3
 72
     9
 73
     5
 74
     0
 42
0.00000001
 43
0.00000001
 40
0.0
 40
0.0
 40
0.0
 40
0.0
 40
0.499867579820701
 40
1.0
 40
1.0
 40
1.0
 40
1.0
 10
6450.028041001228
 20
5144.737810757102
 30
0.0
 10
6450.026553358829
 20
5144.746588485968
 30
0.0
 10
6450.023577285846
 20
5144.764148594321
 30
0.0
 10
6450.021472923675
 20
5144.792934526913
 30
0.0
 10
6450.020420463929
 20
5144.807331305047
 30
0.0
  0
LINE
  5
223
330
1F
100
AcDbEntity
  8
0
  6
Continuous
 62
     7
370
    25
100
AcDbLine
 10
6450.0204204639
 20
5144.807331305
 30
0.0
 11
6449.9683120186
 21
5145.9640093872
 31
0.0
  0
LINE
  5
224
330
1F
100
AcDbEntity
  8
0
  6
Continuous
 62
     7
370
    25
100
AcDbLine
 10
6449.9324260529
 20
5145.0203828668
 30
0.0
 11
6449.9596014243
 21
5146.1569888393
 31
0.0
  0
LINE
  5
225
330
1F
100
AcDbEntity
  8
0
  6
Continuous
 62
     7
370
    25
100
AcDbLine
 10
6449.9596014243
 20
5146.1569888393
 30
0.0
 11
6449.9347572047
 21
5147.2095136412
 31
0.0
  0
LINE
  5
226
330
1F
100
AcDbEntity
  8
0
  6
Continuous
 62
     7
370
    25
100
AcDbLine
 10
6450.012756309
 20
5147.5360128119
 30
0.0
 11
6450.0227178008
 21
5147.5360128119
 31
0.0
  0
LINE
  5
227
330
1F
100
AcDbEntity
  8
0
  6
Continuous
 62
     7
370
    25
100
AcDbLine
 10
6450.0209067698
 20
5147.5761669215
 30
0.0
 11
6450.0308650336
 21
5147.5761669215
 31
0.0
  0
LINE
  5
228
330
1F
100
AcDbEntity
  8
0
  6
Continuous
 62
     7
370
    25
100
AcDbLine
 10
6450.010458062
 20
5144.807331305
 30
0.0
 11
6450.0204204639
 21
5144.807331305
 31
0.0
  0
LINE
  5
229
330
1F
100
AcDbEntity
  8
0
  6
Continuous
 62
     7
370
    25
100
AcDbLine
 10
6449.9585035613
 20
5146.3517662366
 30
0.0
 11
6449.9684865393
 21
5146.3517662366
 31
0.0
  0
LINE
  5
22A
330
1F
100
AcDbEntity
  8
0
  6
Continuous
 62
     7
370
    25
100
AcDbLine
 10
6449.9583289714
 20
5145.9640093872
 30
0.0
 11
6449.9683120186
 21
5145.9640093872
 31
0.0
  0
LINE
  5
22B
330
1F
100
AcDbEntity
  8
0
  6
Continuous
 62
     7
370
    25
100
AcDbLine
 10
6449.949614926
 20
5146.1569888393
 30
0.0
 11
6449.9596014243
 21
5146.1569888393
 31
0.0
  0
LINE
  5
22C
330
1F
100
AcDbEntity
  8
0
  6
Continuous
 62
     7
370
    25
100
AcDbLine
 10
6449.9205725446
 20
5144.9427765105
 30
0.0
 11
6449.9305705448
 21
5144.9427765105
 31
0.0
  0
LINE
  5
22D
330
1F
100
AcDbEntity
  8
0
  6
Continuous
 62
     7
370
    25
100
AcDbLine
 10
6449.9201502971
 20
5147.4047628119
 30
0.0
 11
6449.9301484645
 21
5147.4047628119
 31
0.0
  0
LINE
  5
22E
330
1F
100
AcDbEntity
  8
0
  6
Continuous
 62
     7
370
    25
100
AcDbLine
 10
6449.9200023486
 20
5144.8402936338
 30
0.0
 11
6449.9300005746
 21
5144.8402936338
 31
0.0
  0
LINE
  5
22F
330
1F
100
AcDbEntity
  8
0
  6
Continuous
 62
     7
370
    25
100
AcDbLine
 10
6449.9200023486
 20
5147.4515093872
 30
0.0
 11
6449.9300005746
 21
5147.4515093872
 31
0.0
  0
LINE
  5
230
330
1F
100
AcDbEntity
  8
0
  6
Continuous
 62
     7
370
    25
100
AcDbLine
 10
6489.1655230554
 20
5291.1994545927
 30
0.0
 11
6461.1655230554
 21
5291.1994545927
 31
0.0
  0
LINE
  5
231
330
1F
100
AcDbEntity
  8
0
  6
Continuous
 62
     7
370
    25
100
AcDbLine
 10
6462.6655230554
 20
5292.6994545927
 30
0.0
 11
6487.6655230554
 21
5292.6994545927
 31
0.0
  0
LINE
  5
232
330
1F
100
AcDbEntity
  8
0
  6
Continuous
 62
     7
370
    25
100
AcDbLine
 10
6450.4155230554
 20
5283.4994545927
 30
0.0
 11
6450.4155230554
 21
5285.4994545927
 31
0.0
  0
LINE
  5
233
330
1F
100
AcDbEntity
  8
0
  6
Continuous
 62
     7
370
    25
100
AcDbLine
 10
6451.2655230554
 20
5290.6994545927
 30
0.0
 11
6499.0655230554
 21
5290.6994545927
 31
0.0
  0
LINE
  5
234
330
1F
100
AcDbEntity
  8
0
  6
Continuous
 62
     7
370
    25
100
AcDbLine
 10
6450.2655230554
 20
5289.6994545927
 30
0.0
 11
6500.0655230554
 21
5289.6994545927
 31
0.0
  0
LINE
  5
235
330
1F
100
AcDbEntity
  8
0
  6
Continuous
 62
     7
370
    25
100
AcDbLine
 10
6450.2655230554
 20
5287.9994545927
 30
0.0
 11
6500.0655230554
 21
5287.9994545927
 31
0.0
  0
LINE
  5
236
330
1F
100
AcDbEntity
  8
0
  6
Continuous
 62
     7
370
    25
100
AcDbLine
 10
6450.5655230554
 20
5287.6994545927
 30
0.0
 11
6499.7655230554
 21
5287.6994545927
 31
0.0
  0
LINE
  5
237
330
1F
100
AcDbEntity
  8
0
  6
Continuous
 62
     7
370
    25
100
AcDbLine
 10
6589.1655230554
 20
5236.9494545927
 30
0.0
 11
6589.1655230554
 21
5246.1494545927
 31
0.0
  0
LINE
  5
238
330
1F
100
AcDbEntity
  8
0
  6
Continuous
 62
     7
370
    25
100
AcDbLine
 10
6589.1655230554
 20
5236.9494545927
 30
0.0
 11
6570.4655230554
 21
5218.2494545927
 31
0.0
  0
LINE
  5
239
330
1F
100
AcDbEntity
  8
0
  6
Continuous
 62
     7
370
    25
100
AcDbLine
 10
6590.1655230554
 20
5237.9494545927
 30
0.0
 11
6590.1655230554
 21
5245.1494545927
 31
0.0
  0
LINE
  5
23A
330
1F
100
AcDbEntity
  8
0
  6
Continuous
 62
     7
370
    25
100
AcDbLine
 10
6590.1655230554
 20
5237.9494545927
 30
0.0
 11
6589.1655230554
 21
5236.9494545927
 31
0.0
  0
LINE
  5
23B
330
1F
100
AcDbEntity
  8
0
  6
Continuous
 62
     7
370
    25
100
AcDbLine
 10
6450.4155230554
 20
5138.8994545927
 30
0.0
 11
6499.9155230554
 21
5138.8994545927
 31
0.0
  0
LINE
  5
23C
330
1F
100
AcDbEntity
  8
0
  6
Continuous
 62
     7
370
    25
100
AcDbLine
 10
6499.9155230554
 20
5287.4994545927
 30
0.0
 11
6450.4155230554
 21
5287.4994545927
 31
0.0
  0
SPLINE
  5
23D
330
1F
100
AcDbEntity
  8
0
  6
Continuous
 62
     7
370
    25
100
AcDbSpline
210
0.0
220
0.0
230
1.0
 70
     8
 71
     3
 72
    27
 73
    23
 74
     0
 42
0.00000001
 43
0.00000001
 40
0.0
 40
0.0
 40
0.0
 40
0.0
 40
0.0475337751126741
 40
0.0965656081295085
 40
0.1440719887547782
 40
0.1927908245965392
 40
0.243753313647903
 40
0.2959268402600557
 40
0.3520357617643199
 40
0.4099711667104021
 40
0.4539311484559626
 40
0.4991322305290173
 40
0.5431134955888871
 40
0.5883896962736468
 40
0.6324571080730822
 40
0.6774886864854175
 40
0.7284753325410412
 40
0.7806608686821502
 40
0.836952657510372
 40
0.8951108421685668
 40
0.9473218758986992
 40
1.0
 40
1.0
 40
1.0
 40
1.0
 10
6499.915523055382
 20
5218.199454592719
 30
0.0
 10
6499.897530949273
 20
5218.231138360721
 30
0.0
 10
6499.860979704102
 20
5218.295504431325
 30
0.0
 10
6499.573793045244
 20
5218.809101102884
 30
0.0
 10
6499.142248734719
 20
5219.608704097064
 30
0.0
 10
6498.581932371028
 20
5220.703750730159
 30
0.0
 10
6497.925457160516
 20
5222.095789414069
 30
0.0
 10
6497.209894099686
 20
5223.810364519026
 30
0.0
 10
6496.505604444582
 20
5225.848944715758
 30
0.0
 10
6495.965116914786
 20
5228.004916002609
 30
0.0
 10
6495.646955546308
 20
5230.143734674565
 30
0.0
 10
6495.542127499697
 20
5232.141428217324
 30
0.0
 10
6495.637321018104
 20
5234.159678687732
 30
0.0
 10
6495.917319772655
 20
5236.103634748285
 30
0.0
 10
6496.348858902791
 20
5237.956967639832
 30
0.0
 10
6496.905532502703
 20
5239.747900430803
 30
0.0
 10
6497.560132843346
 20
5241.458322345457
 30
0.0
 10
6498.271596878034
 20
5243.058179345108
 30
0.0
 10
6498.955305641573
 20
5244.437120967313
 30
0.0
 10
6499.495889303253
 20
5245.449196830988
 30
0.0
 10
6499.850153597799
 20
5246.084473515187
 30
0.0
 10
6499.891566130324
 20
5246.157279278942
 30
0.0
 10
6499.912364605332
 20
5246.19384426943
 30
0.0
  0
ARC
  5
23E
330
1F
100
AcDbEntity
  8
0
  6
Continuous
 62
     7
370
    25
100
AcDbCircle
 10
6425.6836509184
 20
5284.4994893749
 30
0.0
 40
24.76343902703405
100
AcDbArc
 50
357.1420728552
 51
2.8933048532
  0
LINE
  5
23F
330
1F
100
AcDbEntity
  8
0
  6
Continuous
 62
     7
370
    25
100
AcDbLine
 10
6505.1655230554
 20
5136.7597815263
 30
0.0
 11
6445.1655230554
 21
5136.7597815263
 31
0.0
  0
LINE
  5
240
330
1F
100
AcDbEntity
  8
0
  6
Continuous
 62
     7
370
    25
100
AcDbLine
 10
6445.6484859685
 20
5137.5962978301
 30
0.0
 11
6504.6825601422
 21
5137.5962978301
 31
0.0
  0
LINE
  5
241
330
1F
100
AcDbEntity
  8
0
  6
Continuous
 62
     7
370
    25
100
AcDbLine
 10
6474.0226519225
 20
5134.6994545927
 30
0.0
 11
6445.1655230554
 21
5134.6994545927
 31
0.0
  0
LINE
  5
242
330
1F
100
AcDbEntity
  8
0
  6
Continuous
 62
     7
370
    25
100
AcDbLine
 10
6505.1655230554
 20
5134.6994545927
 30
0.0
 11
6474.0226519225
 21
5134.6994545927
 31
0.0
  0
LINE
  5
243
330
1F
100
AcDbEntity
  8
0
  6
Continuous
 62
     7
370
    25
100
AcDbLine
 10
6474.1978921629
 20
5138.6994545927
 30
0.0
 11
6449.7655230554
 21
5138.6994545927
 31
0.0
  0
LINE
  5
244
330
1F
100
AcDbEntity
  8
0
  6
Continuous
 62
     7
370
    25
100
AcDbLine
 10
6500.5655230554
 20
5138.6994545927
 30
0.0
 11
6474.1978921629
 21
5138.6994545927
 31
0.0
  0
LINE
  5
245
330
1F
100
AcDbEntity
  8
0
  6
Continuous
 62
     7
370
    25
100
AcDbLine
 10
6260.0687553361
 20
4954.515854016
 30
0.0
 11
6260.0687553361
 21
4865.8912631028
 31
0.0
  0
LINE
  5
246
330
1F
100
AcDbEntity
  8
0
  6
Continuous
 62
     7
370
    25
100
AcDbLine
 10
6287.9687553361
 20
4865.8912631028
 30
0.0
 11
6287.9687553361
 21
4954.515854016
 31
0.0
  0
LINE
  5
247
330
1F
100
AcDbEntity
  8
0
  6
Continuous
 62
     7
370
    25
100
AcDbLine
 10
6263.1804652225
 20
4997.9468318836
 30
0.0
 11
6263.2877750256
 21
4997.7210341729
 31
0.0
  0
ARC
  5
248
330
1F
100
AcDbEntity
  8
0
  6
Continuous
 62
     7
370
    25
100
AcDbCircle
 10
6274.0187553361
 20
4975.1412631028
 30
0.0
 40
25.24999999999916
100
AcDbArc
 50
64.5807116611
 51
115.4192883389
  0
LINE
  5
249
330
1F
100
AcDbEntity
  8
0
  6
Continuous
 62
     7
370
    25
100
AcDbLine
 10
6284.7497356466
 20
4997.7210341729
 30
0.0
 11
6284.8570454497
 21
4997.9468318836
 31
0.0
  0
ARC
  5
24A
330
1F
100
AcDbEntity
  8
0
  6
Continuous
 62
     7
370
    25
100
AcDbCircle
 10
6274.0187553361
 20
4975.1412631028
 30
0.0
 40
24.99999999999918
100
AcDbArc
 50
64.5807116611
 51
115.4192883389
  0
LINE
  5
24B
330
1F
100
AcDbEntity
  8
0
  6
Continuous
 62
     7
370
    25
100
AcDbLine
 10
6271.6295098366
 20
5000.2779694492
 30
0.0
 11
6271.6304560724
 21
5000.2680143179
 31
0.0
  0
SPLINE
  5
24C
330
1F
100
AcDbEntity
  8
0
  6
Continuous
 62
     7
370
    25
100
AcDbSpline
210
0.0
220
0.0
230
1.0
 70
     8
 71
     3
 72
    12
 73
     8
 74
     0
 42
0.00000001
 43
0.00000001
 40
0.0
 40
0.0
 40
0.0
 40
0.0
 40
0.125381508214972
 40
0.2506859940730946
 40
0.5008455041432531
 40
0.7508581249193897
 40
1.0
 40
1.0
 40
1.0
 40
1.0
 10
6275.532675574921
 20
5000.34583700341
 30
0.0
 10
6275.542693480997
 20
5000.345232484914
 30
0.0
 10
6275.562723139109
 20
5000.344023819281
 30
0.0
 10
6275.6210716506
 20
5000.340408393496
 30
0.0
 10
6275.715681377881
 20
5000.334266638271
 30
0.0
 10
6275.852858193569
 20
5000.32476805024
 30
0.0
 10
6275.962308245778
 20
5000.316301030416
 30
0.0
 10
6276.01693780729
 20
5000.312074905613
 30
0.0
  0
LINE
  5
24D
330
1F
100
AcDbEntity
  8
0
  6
Continuous
 62
     7
370
    25
100
AcDbLine
 10
6276.0161464479
 20
5000.3021062673
 30
0.0
 11
6276.0169378073
 21
5000.3120749056
 31
0.0
  0
LINE
  5
24E
330
1F
100
AcDbEntity
  8
0
  6
Continuous
 62
     7
370
    25
100
AcDbLine
 10
6284.1205170685
 20
4998.2825013995
 30
0.0
 11
6284.1165163708
 21
4998.2733365526
 31
0.0
  0
CIRCLE
  5
24F
330
1F
100
AcDbEntity
  8
0
  6
Continuous
 62
     7
370
    25
100
AcDbCircle
 10
6274.0187553361
 20
4975.1412631028
 30
0.0
 40
12.5
  0
LINE
  5
250
330
1F
100
AcDbEntity
  8
0
  6
Continuous
 62
     7
370
    25
100
AcDbLine
 10
6273.6288291007
 20
4980.3376569158
 30
0.0
 11
6273.6288291007
 21
4983.8833765603
 31
0.0
  0
LINE
  5
251
330
1F
100
AcDbEntity
  8
0
  6
Continuous
 62
     7
370
    25
100
AcDbLine
 10
6270.3947433102
 20
4983.8833765603
 30
0.0
 11
6270.3947433102
 21
4976.3449249747
 31
0.0
  0
ARC
  5
252
330
1F
100
AcDbEntity
  8
0
  6
Continuous
 62
     7
370
    25
100
AcDbCircle
 10
6268.549693047
 20
4974.5572961726
 30
0.0
 40
2.56901288587183
100
AcDbArc
 50
44.0944057145
 51
105.4941474424
  0
LINE
  5
253
330
1F
100
AcDbEntity
  8
0
  6
Continuous
 62
     7
370
    25
100
AcDbLine
 10
6267.8634070904
 20
4977.0329453386
 30
0.0
 11
6267.8634070904
 21
4971.6118307732
 31
0.0
  0
ARC
  5
254
330
1F
100
AcDbEntity
  8
0
  6
Continuous
 62
     7
370
    25
100
AcDbCircle
 10
6274.1859374181
 20
4971.6118307732
 30
0.0
 40
6.322530327734057
100
AcDbArc
 50
180.0
 51
270.0
  0
LINE
  5
255
330
1F
100
AcDbEntity
  8
0
  6
Continuous
 62
     7
370
    25
100
AcDbLine
 10
6274.1859374181
 20
4965.2893004455
 30
0.0
 11
6276.5531618251
 21
4965.2893004455
 31
0.0
  0
ARC
  5
256
330
1F
100
AcDbEntity
  8
0
  6
Continuous
 62
     7
370
    25
100
AcDbCircle
 10
6276.5531618251
 20
4969.8449009961
 30
0.0
 40
4.555600550638701
100
AcDbArc
 50
270.0
 51
0.0
  0
LINE
  5
257
330
1F
100
AcDbEntity
  8
0
  6
Continuous
 62
     7
370
    25
100
AcDbLine
 10
6281.1087623757
 20
4969.8449009961
 30
0.0
 11
6281.1087623757
 21
4977.6816715244
 31
0.0
  0
ARC
  5
258
330
1F
100
AcDbEntity
  8
0
  6
Continuous
 62
     7
370
    25
100
AcDbCircle
 10
6279.7551511295
 20
4977.6816715244
 30
0.0
 40
1.353611246208857
100
AcDbArc
 50
0.0
 51
90.0
  0
LINE
  5
259
330
1F
100
AcDbEntity
  8
0
  6
Continuous
 62
     7
370
    25
100
AcDbLine
 10
6279.7551511295
 20
4979.0352827706
 30
0.0
 11
6279.2609256648
 21
4979.0352827706
 31
0.0
  0
ARC
  5
25A
330
1F
100
AcDbEntity
  8
0
  6
Continuous
 62
     7
370
    25
100
AcDbCircle
 10
6279.2609256648
 20
4977.6816715244
 30
0.0
 40
1.353611246208857
100
AcDbArc
 50
90.0
 51
118.7365577358
  0
ARC
  5
25B
330
1F
100
AcDbEntity
  8
0
  6
Continuous
 62
     7
370
    25
100
AcDbCircle
 10
6277.2776657951
 20
4978.6302514478
 30
0.0
 40
1.353611246209233
100
AcDbArc
 50
10.1404867648
 51
90.0
  0
LINE
  5
25C
330
1F
100
AcDbEntity
  8
0
  6
Continuous
 62
     7
370
    25
100
AcDbLine
 10
6277.2776657951
 20
4979.983862694
 30
0.0
 11
6276.698348513
 21
4979.983862694
 31
0.0
  0
ARC
  5
25D
330
1F
100
AcDbEntity
  8
0
  6
Continuous
 62
     7
370
    25
100
AcDbCircle
 10
6276.698348513
 20
4978.6302514478
 30
0.0
 40
1.353611246208256
100
AcDbArc
 50
90.0
 51
124.7440022271
  0
ARC
  5
25E
330
1F
100
AcDbEntity
  8
0
  6
Continuous
 62
     7
370
    25
100
AcDbCircle
 10
6274.7150886433
 20
4979.139405683
 30
0.0
 40
1.353611246207947
100
AcDbArc
 50
26.4592691593
 51
90.0
  0
LINE
  5
25F
330
1F
100
AcDbEntity
  8
0
  6
Continuous
 62
     7
370
    25
100
AcDbLine
 10
6274.7150886433
 20
4980.4930169292
 30
0.0
 11
6274.2584777242
 21
4980.4930169292
 31
0.0
  0
ARC
  5
260
330
1F
100
AcDbEntity
  8
0
  6
Continuous
 62
     7
370
    25
100
AcDbCircle
 10
6274.2584777242
 20
4979.139405683
 30
0.0
 40
1.353611246208857
100
AcDbArc
 50
90.0
 51
117.7207121261
  0
ARC
  5
261
330
1F
100
AcDbEntity
  8
0
  6
Continuous
 62
     7
370
    25
100
AcDbCircle
 10
6272.0117862055
 20
4983.8833765603
 30
0.0
 40
1.617042895244595
100
AcDbArc
 50
0.0
 51
180.0
  0
ARC
  5
262
330
1F
100
AcDbEntity
  8
0
  6
Continuous
 62
     7
370
    25
100
AcDbCircle
 10
6273.2668477894
 20
4976.2125362862
 30
0.0
 40
0.6676186886570576
100
AcDbArc
 50
180.0
 51
0.0
  0
LINE
  5
263
330
1F
100
AcDbEntity
  8
0
  6
Continuous
 62
     7
370
    25
100
AcDbLine
 10
6273.934466478
 20
4979.1535678208
 30
0.0
 11
6273.934466478
 21
4976.2125362862
 31
0.0
  0
ARC
  5
264
330
1F
100
AcDbEntity
  8
0
  6
Continuous
 62
     7
370
    25
100
AcDbCircle
 10
6274.1745765943
 20
4979.1535678208
 30
0.0
 40
0.2401101162877239
100
AcDbArc
 50
90.0
 51
180.0
  0
LINE
  5
265
330
1F
100
AcDbEntity
  8
0
  6
Continuous
 62
     7
370
    25
100
AcDbLine
 10
6274.7989897732
 20
4979.393677937
 30
0.0
 11
6274.1745765943
 21
4979.393677937
 31
0.0
  0
ARC
  5
266
330
1F
100
AcDbEntity
  8
0
  6
Continuous
 62
     7
370
    25
100
AcDbCircle
 10
6274.7989897732
 20
4979.1535678208
 30
0.0
 40
0.2401101162877239
100
AcDbArc
 50
0.0
 51
90.0
  0
LINE
  5
267
330
1F
100
AcDbEntity
  8
0
  6
Continuous
 62
     7
370
    25
100
AcDbLine
 10
6275.0390998895
 20
4976.2125362862
 30
0.0
 11
6275.0390998895
 21
4979.1535678208
 31
0.0
  0
ARC
  5
268
330
1F
100
AcDbEntity
  8
0
  6
Continuous
 62
     7
370
    25
100
AcDbCircle
 10
6275.7067185782
 20
4976.2125362862
 30
0.0
 40
0.6676186886570576
100
AcDbArc
 50
180.0
 51
0.0
  0
LINE
  5
269
330
1F
100
AcDbEntity
  8
0
  6
Continuous
 62
     7
370
    25
100
AcDbLine
 10
6276.3743372668
 20
4978.6444135856
 30
0.0
 11
6276.3743372668
 21
4976.2125362862
 31
0.0
  0
ARC
  5
26A
330
1F
100
AcDbEntity
  8
0
  6
Continuous
 62
     7
370
    25
100
AcDbCircle
 10
6276.6144473831
 20
4978.6444135856
 30
0.0
 40
0.2401101162877239
100
AcDbArc
 50
90.0
 51
180.0
  0
LINE
  5
26B
330
1F
100
AcDbEntity
  8
0
  6
Continuous
 62
     7
370
    25
100
AcDbLine
 10
6277.361566925
 20
4978.8845237019
 30
0.0
 11
6276.6144473831
 21
4978.8845237019
 31
0.0
  0
ARC
  5
26C
330
1F
100
AcDbEntity
  8
0
  6
Continuous
 62
     7
370
    25
100
AcDbCircle
 10
6277.361566925
 20
4978.6444135856
 30
0.0
 40
0.2401101162877239
100
AcDbArc
 50
0.0
 51
90.0
  0
LINE
  5
26D
330
1F
100
AcDbEntity
  8
0
  6
Continuous
 62
     7
370
    25
100
AcDbLine
 10
6277.6016770413
 20
4976.2125362862
 30
0.0
 11
6277.6016770413
 21
4978.6444135856
 31
0.0
  0
ARC
  5
26E
330
1F
100
AcDbEntity
  8
0
  6
Continuous
 62
     7
370
    25
100
AcDbCircle
 10
6278.2692957299
 20
4976.2125362862
 30
0.0
 40
0.6676186886570576
100
AcDbArc
 50
180.0
 51
0.0
  0
LINE
  5
26F
330
1F
100
AcDbEntity
  8
0
  6
Continuous
 62
     7
370
    25
100
AcDbLine
 10
6278.9369144186
 20
4977.7280632769
 30
0.0
 11
6278.9369144186
 21
4976.2125362862
 31
0.0
  0
ARC
  5
270
330
1F
100
AcDbEntity
  8
0
  6
Continuous
 62
     7
370
    25
100
AcDbCircle
 10
6279.1770245349
 20
4977.7280632769
 30
0.0
 40
0.2401101162877239
100
AcDbArc
 50
90.0
 51
180.0
  0
LINE
  5
271
330
1F
100
AcDbEntity
  8
0
  6
Continuous
 62
     7
370
    25
100
AcDbLine
 10
6279.8390522594
 20
4977.9681733932
 30
0.0
 11
6279.1770245349
 21
4977.9681733932
 31
0.0
  0
ARC
  5
272
330
1F
100
AcDbEntity
  8
0
  6
Continuous
 62
     7
370
    25
100
AcDbCircle
 10
6279.8390522594
 20
4977.7280632769
 30
0.0
 40
0.2401101162877239
100
AcDbArc
 50
0.0
 51
90.0
  0
LINE
  5
273
330
1F
100
AcDbEntity
  8
0
  6
Continuous
 62
     7
370
    25
100
AcDbLine
 10
6280.0791623757
 20
4969.8449009961
 30
0.0
 11
6280.0791623757
 21
4977.7280632769
 31
0.0
  0
ARC
  5
274
330
1F
100
AcDbEntity
  8
0
  6
Continuous
 62
     7
370
    25
100
AcDbCircle
 10
6276.5531618251
 20
4969.8449009961
 30
0.0
 40
3.526000550638855
100
AcDbArc
 50
270.0
 51
0.0
  0
LINE
  5
275
330
1F
100
AcDbEntity
  8
0
  6
Continuous
 62
     7
370
    25
100
AcDbLine
 10
6274.1859374181
 20
4966.3189004455
 30
0.0
 11
6276.5531618251
 21
4966.3189004455
 31
0.0
  0
ARC
  5
276
330
1F
100
AcDbEntity
  8
0
  6
Continuous
 62
     7
370
    25
100
AcDbCircle
 10
6274.1859374181
 20
4971.6118307732
 30
0.0
 40
5.292930327734211
100
AcDbArc
 50
180.0
 51
270.0
  0
LINE
  5
277
330
1F
100
AcDbEntity
  8
0
  6
Continuous
 62
     7
370
    25
100
AcDbLine
 10
6268.8930070904
 20
4976.0579385353
 30
0.0
 11
6268.8930070904
 21
4971.6118307732
 31
0.0
  0
ARC
  5
278
330
1F
100
AcDbEntity
  8
0
  6
Continuous
 62
     7
370
    25
100
AcDbCircle
 10
6268.549693047
 20
4974.5572961726
 30
0.0
 40
1.53941288587157
100
AcDbArc
 50
0.0
 51
77.1137478469
  0
LINE
  5
279
330
1F
100
AcDbEntity
  8
0
  6
Continuous
 62
     7
370
    25
100
AcDbLine
 10
6270.0891059329
 20
4972.6028752905
 30
0.0
 11
6270.0891059329
 21
4974.5572961726
 31
0.0
  0
ARC
  5
27A
330
1F
100
AcDbEntity
  8
0
  6
Continuous
 62
     7
370
    25
100
AcDbCircle
 10
6270.7567246216
 20
4972.6028752905
 30
0.0
 40
0.6676186886570576
100
AcDbArc
 50
180.0
 51
0.0
  0
ARC
  5
27B
330
1F
100
AcDbEntity
  8
0
  6
Continuous
 62
     7
370
    25
100
AcDbCircle
 10
6272.0117862055
 20
4983.8833765603
 30
0.0
 40
0.5874428952447488
100
AcDbArc
 50
0.0
 51
180.0
  0
LINE
  5
27C
330
1F
100
AcDbEntity
  8
0
  6
Continuous
 62
     7
370
    25
100
AcDbLine
 10
6271.4243433102
 20
4983.8833765603
 30
0.0
 11
6271.4243433102
 21
4972.6028752905
 31
0.0
  0
LINE
  5
27D
330
1F
100
AcDbEntity
  8
0
  6
Continuous
 62
     7
370
    25
100
AcDbLine
 10
6272.5992291007
 20
4976.2125362862
 30
0.0
 11
6272.5992291007
 21
4983.8833765603
 31
0.0
  0
CIRCLE
  5
27E
330
1F
100
AcDbEntity
  8
0
  6
Continuous
 62
     7
370
    25
100
AcDbCircle
 10
6274.0187553361
 20
4975.1412631028
 30
0.0
 40
14.0
  0
CIRCLE
  5
27F
330
1F
100
AcDbEntity
  8
0
  6
Continuous
 62
     7
370
    25
100
AcDbCircle
 10
6274.0187553361
 20
4975.1412631028
 30
0.0
 40
23.90000000000055
  0
CIRCLE
  5
280
330
1F
100
AcDbEntity
  8
0
  6
Continuous
 62
     7
370
    25
100
AcDbCircle
 10
6274.0187553361
 20
4975.1412631028
 30
0.0
 40
24.89999999999964
  0
LINE
  5
281
330
1F
100
AcDbEntity
  8
0
  6
Continuous
 62
     7
370
    25
100
AcDbLine
 10
6260.9023533904
 20
4861.1412631028
 30
0.0
 11
6287.1351572818
 21
4861.1412631028
 31
0.0
  0
ARC
  5
282
330
1F
100
AcDbEntity
  8
0
  6
Continuous
 62
     7
370
    25
100
AcDbCircle
 10
6274.0187553361
 20
4865.8912631028
 30
0.0
 40
13.95000000000073
100
AcDbArc
 50
180.0
 51
199.9074488975
  0
ARC
  5
283
330
1F
100
AcDbEntity
  8
0
  6
Continuous
 62
     7
370
    25
100
AcDbCircle
 10
6274.0187553361
 20
4865.8912631028
 30
0.0
 40
13.95000000000073
100
AcDbArc
 50
340.0925511025
 51
0.0
  0
LINE
  5
284
330
1F
100
AcDbEntity
  8
0
  6
Continuous
 62
     7
370
    25
100
AcDbLine
 10
6262.4153075726
 20
4860.1412631028
 30
0.0
 11
6285.6222030996
 21
4860.1412631028
 31
0.0
  0
LINE
  5
285
330
1F
100
AcDbEntity
  8
0
  6
Continuous
 62
     7
370
    25
100
AcDbLine
 10
6262.4153075726
 20
4860.1412631028
 30
0.0
 11
6260.9023533904
 21
4861.1412631028
 31
0.0
  0
LINE
  5
286
330
1F
100
AcDbEntity
  8
0
  6
Continuous
 62
     7
370
    25
100
AcDbLine
 10
6287.1351572818
 20
4861.1412631028
 30
0.0
 11
6285.6222030996
 21
4860.1412631028
 31
0.0
  0
ARC
  5
287
330
1F
100
AcDbEntity
  8
0
  6
Continuous
 62
     7
370
    25
100
AcDbCircle
 10
6274.0187553361
 20
4975.1412631028
 30
0.0
 40
25.40000000000061
100
AcDbArc
 50
303.3130106878
 51
177.8167486155
  0
ARC
  5
288
330
1F
100
AcDbEntity
  8
0
  6
Continuous
 62
     7
370
    25
100
AcDbCircle
 10
6274.0187553361
 20
4975.1412631028
 30
0.0
 40
25.40000000000061
100
AcDbArc
 50
177.8167486155
 51
236.6869893122
  0
ARC
  5
289
330
1F
100
AcDbEntity
  8
0
  6
Continuous
 62
     7
370
    25
100
AcDbCircle
 10
6274.0187553361
 20
4975.1412631028
 30
0.0
 40
29.51703708685588
100
AcDbArc
 50
357.8167486155
 51
241.7962522017
  0
ARC
  5
28A
330
1F
100
AcDbEntity
  8
0
  6
Continuous
 62
     7
370
    25
100
AcDbCircle
 10
6274.0187553361
 20
4975.1412631028
 30
0.0
 40
29.51703708685588
100
AcDbArc
 50
298.2037477983
 51
357.8167486155
  0
ARC
  5
28B
330
1F
100
AcDbEntity
  8
0
  6
Continuous
 62
     7
370
    25
100
AcDbCircle
 10
6274.0187553361
 20
4975.1412631028
 30
0.0
 40
30.00000000000083
100
AcDbArc
 50
297.7102220493
 51
357.8167486155
  0
ARC
  5
28C
330
1F
100
AcDbEntity
  8
0
  6
Continuous
 62
     7
370
    25
100
AcDbCircle
 10
6274.0187553361
 20
4975.1412631028
 30
0.0
 40
30.00000000000083
100
AcDbArc
 50
357.8167486155
 51
242.2897779507
  0
ENDSEC
  0
SECTION
  2
OBJECTS
  0
DICTIONARY
  5
C
330
0
100
AcDbDictionary
281
     1
  3
ACAD_GROUP
350
D
  3
ACAD_LAYOUT
350
1A
  3
ACAD_MLINESTYLE
350
17
  3
ACAD_PLOTSETTINGS
350
19
  3
ACAD_PLOTSTYLENAME
350
E
  3
ACAD_SCALELIST
350
47
  3
DWGPROPS
350
28D
  0
DICTIONARY
  5
D
102
{ACAD_REACTORS
330
C
102
}
330
C
100
AcDbDictionary
281
     1
  0
DICTIONARY
  5
1A
102
{ACAD_REACTORS
330
C
102
}
330
C
100
AcDbDictionary
281
     1
  3
Layout1
350
1E
  3
Layout2
350
26
  3
Model
350
22
  0
DICTIONARY
  5
17
102
{ACAD_REACTORS
330
C
102
}
330
C
100
AcDbDictionary
281
     1
  3
Standard
350
18
  0
DICTIONARY
  5
19
102
{ACAD_REACTORS
330
C
102
}
330
C
100
AcDbDictionary
281
     1
  0
ACDBDICTIONARYWDFLT
  5
E
102
{ACAD_REACTORS
330
C
102
}
330
C
100
AcDbDictionary
281
     1
  3
Normal
350
F
100
AcDbDictionaryWithDefault
340
F
  0
DICTIONARY
  5
47
102
{ACAD_REACTORS
330
C
102
}
330
C
100
AcDbDictionary
281
     1
  3
A0
350
48
  3
A1
350
49
  3
A2
350
4A
  3
A3
350
4B
  3
A4
350
4C
  3
A5
350
4D
  3
A6
350
4E
  3
A7
350
4F
  3
A8
350
50
  3
A9
350
51
  3
B0
350
52
  3
B1
350
53
  3
B2
350
54
  3
B3
350
55
  3
B4
350
56
  3
B5
350
57
  3
B6
350
58
  3
B7
350
59
  3
B8
350
5A
  3
B9
350
5B
  3
C0
350
5C
  3
C1
350
5D
  3
C2
350
5E
  3
C3
350
5F
  3
C4
350
60
  3
C5
350
61
  3
C6
350
62
  3
C7
350
63
  3
C8
350
64
  3
C9
350
65
  3
D0
350
66
  3
D1
350
67
  3
D2
350
68
  0
XRECORD
  5
28D
102
{ACAD_REACTORS
330
C
102
}
330
C
100
AcDbXrecord
280
     1
  1
DWGPROPS COOKIE
  2

  3

  4

  6

  7

  8
radek.stransky
  9

300
=
301
=
302
=
303
=
304
=
305
=
306
=
307
=
308
=
309
=
 40
0.0
 41
2459093.50408184
 42
2459093.504082743
  1

 90
        0
  0
LAYOUT
  5
1E
102
{ACAD_REACTORS
330
1A
102
}
330
1A
100
AcDbPlotSettings
  1

  2
none_device
  4

  6

 40
0.0
 41
0.0
 42
0.0
 43
0.0
 44
0.0
 45
0.0
 46
0.0
 47
0.0
 48
0.0
 49
0.0
140
0.0
141
0.0
142
1.0
143
1.0
 70
   688
 72
     1
 73
     0
 74
     5
  7

 75
    16
147
1.0
148
0.0
149
0.0
100
AcDbLayout
  1
Layout1
 70
     1
 71
     1
 10
0.0
 20
0.0
 11
420.0
 21
297.0
 12
0.0
 22
0.0
 32
0.0
 14
1.0000000000E+20
 24
1.0000000000E+20
 34
1.0000000000E+20
 15
-1.0000000000E+20
 25
-1.0000000000E+20
 35
-1.0000000000E+20
146
0.0
 13
0.0
 23
0.0
 33
0.0
 16
1.0
 26
0.0
 36
0.0
 17
0.0
 27
1.0
 37
0.0
 76
     0
330
1B
  0
LAYOUT
  5
26
102
{ACAD_REACTORS
330
1A
102
}
330
1A
100
AcDbPlotSettings
  1

  2
none_device
  4

  6

 40
0.0
 41
0.0
 42
0.0
 43
0.0
 44
0.0
 45
0.0
 46
0.0
 47
0.0
 48
0.0
 49
0.0
140
0.0
141
0.0
142
1.0
143
1.0
 70
   688
 72
     1
 73
     0
 74
     5
  7

 75
    16
147
1.0
148
0.0
149
0.0
100
AcDbLayout
  1
Layout2
 70
     1
 71
     2
 10
0.0
 20
0.0
 11
0.0
 21
0.0
 12
0.0
 22
0.0
 32
0.0
 14
0.0
 24
0.0
 34
0.0
 15
0.0
 25
0.0
 35
0.0
146
0.0
 13
0.0
 23
0.0
 33
0.0
 16
1.0
 26
0.0
 36
0.0
 17
0.0
 27
1.0
 37
0.0
 76
     0
330
23
  0
LAYOUT
  5
22
102
{ACAD_REACTORS
330
1A
102
}
330
1A
100
AcDbPlotSettings
  1

  2
none_device
  4
Letter_(8.50_x_11.00_Inches)
  6

 40
6.35
 41
6.35
 42
6.35000508
 43
6.35000508
 44
215.9
 45
279.4
 46
0.0
 47
0.0
 48
0.0
 49
0.0
140
0.0
141
0.0
142
1.0
143
1.0
 70
  1712
 72
     1
 73
     0
 74
     0
  7

 75
     0
147
1.0
148
0.0
149
0.0
100
AcDbLayout
  1
Model
 70
     1
 71
     0
 10
0.0
 20
0.0
 11
20000.0
 21
10000.0
 12
0.0
 22
0.0
 32
0.0
 14
0.0
 24
0.0
 34
0.0
 15
20000.0
 25
10000.0
 35
0.0
146
0.0
 13
0.0
 23
0.0
 33
0.0
 16
1.0
 26
0.0
 36
0.0
 17
0.0
 27
1.0
 37
0.0
 76
     0
330
1F
331
29
  0
MLINESTYLE
  5
18
102
{ACAD_REACTORS
330
17
102
}
330
17
100
AcDbMlineStyle
  2
Standard
 70
     0
  3

 62
   256
 51
90.0
 52
90.0
 71
     2
 49
0.5
 62
   256
  6
BYLAYER
 49
-0.5
 62
   256
  6
BYLAYER
  0
ACDBPLACEHOLDER
  5
F
102
{ACAD_REACTORS
330
E
102
}
330
E
  0
SCALE
  5
48
102
{ACAD_REACTORS
330
47
102
}
330
47
100
AcDbScale
 70
     0
300
1:1
140
1.0
141
1.0
290
     1
  0
SCALE
  5
49
102
{ACAD_REACTORS
330
47
102
}
330
47
100
AcDbScale
 70
     0
300
1:2
140
1.0
141
2.0
290
     0
  0
SCALE
  5
4A
102
{ACAD_REACTORS
330
47
102
}
330
47
100
AcDbScale
 70
     0
300
1:4
140
1.0
141
4.0
290
     0
  0
SCALE
  5
4B
102
{ACAD_REACTORS
330
47
102
}
330
47
100
AcDbScale
 70
     0
300
1:5
140
1.0
141
5.0
290
     0
  0
SCALE
  5
4C
102
{ACAD_REACTORS
330
47
102
}
330
47
100
AcDbScale
 70
     0
300
1:8
140
1.0
141
8.0
290
     0
  0
SCALE
  5
4D
102
{ACAD_REACTORS
330
47
102
}
330
47
100
AcDbScale
 70
     0
300
1:10
140
1.0
141
10.0
290
     0
  0
SCALE
  5
4E
102
{ACAD_REACTORS
330
47
102
}
330
47
100
AcDbScale
 70
     0
300
1:16
140
1.0
141
16.0
290
     0
  0
SCALE
  5
4F
102
{ACAD_REACTORS
330
47
102
}
330
47
100
AcDbScale
 70
     0
300
1:20
140
1.0
141
20.0
290
     0
  0
SCALE
  5
50
102
{ACAD_REACTORS
330
47
102
}
330
47
100
AcDbScale
 70
     0
300
1:30
140
1.0
141
30.0
290
     0
  0
SCALE
  5
51
102
{ACAD_REACTORS
330
47
102
}
330
47
100
AcDbScale
 70
     0
300
1:40
140
1.0
141
40.0
290
     0
  0
SCALE
  5
52
102
{ACAD_REACTORS
330
47
102
}
330
47
100
AcDbScale
 70
     0
300
1:50
140
1.0
141
50.0
290
     0
  0
SCALE
  5
53
102
{ACAD_REACTORS
330
47
102
}
330
47
100
AcDbScale
 70
     0
300
1:100
140
1.0
141
100.0
290
     0
  0
SCALE
  5
54
102
{ACAD_REACTORS
330
47
102
}
330
47
100
AcDbScale
 70
     0
300
2:1
140
2.0
141
1.0
290
     0
  0
SCALE
  5
55
102
{ACAD_REACTORS
330
47
102
}
330
47
100
AcDbScale
 70
     0
300
4:1
140
4.0
141
1.0
290
     0
  0
SCALE
  5
56
102
{ACAD_REACTORS
330
47
102
}
330
47
100
AcDbScale
 70
     0
300
8:1
140
8.0
141
1.0
290
     0
  0
SCALE
  5
57
102
{ACAD_REACTORS
330
47
102
}
330
47
100
AcDbScale
 70
     0
300
10:1
140
10.0
141
1.0
290
     0
  0
SCALE
  5
58
102
{ACAD_REACTORS
330
47
102
}
330
47
100
AcDbScale
 70
     0
300
100:1
140
100.0
141
1.0
290
     0
  0
SCALE
  5
59
102
{ACAD_REACTORS
330
47
102
}
330
47
100
AcDbScale
 70
     0
300
1/128" = 1'-0"
140
0.0078125
141
12.0
290
     0
  0
SCALE
  5
5A
102
{ACAD_REACTORS
330
47
102
}
330
47
100
AcDbScale
 70
     0
300
1/64" = 1'-0"
140
0.015625
141
12.0
290
     0
  0
SCALE
  5
5B
102
{ACAD_REACTORS
330
47
102
}
330
47
100
AcDbScale
 70
     0
300
1/32" = 1'-0"
140
0.03125
141
12.0
290
     0
  0
SCALE
  5
5C
102
{ACAD_REACTORS
330
47
102
}
330
47
100
AcDbScale
 70
     0
300
1/16" = 1'-0"
140
0.0625
141
12.0
290
     0
  0
SCALE
  5
5D
102
{ACAD_REACTORS
330
47
102
}
330
47
100
AcDbScale
 70
     0
300
3/32" = 1'-0"
140
0.09375
141
12.0
290
     0
  0
SCALE
  5
5E
102
{ACAD_REACTORS
330
47
102
}
330
47
100
AcDbScale
 70
     0
300
1/8" = 1'-0"
140
0.125
141
12.0
290
     0
  0
SCALE
  5
5F
102
{ACAD_REACTORS
330
47
102
}
330
47
100
AcDbScale
 70
     0
300
3/16" = 1'-0"
140
0.1875
141
12.0
290
     0
  0
SCALE
  5
60
102
{ACAD_REACTORS
330
47
102
}
330
47
100
AcDbScale
 70
     0
300
1/4" = 1'-0"
140
0.25
141
12.0
290
     0
  0
SCALE
  5
61
102
{ACAD_REACTORS
330
47
102
}
330
47
100
AcDbScale
 70
     0
300
3/8" = 1'-0"
140
0.375
141
12.0
290
     0
  0
SCALE
  5
62
102
{ACAD_REACTORS
330
47
102
}
330
47
100
AcDbScale
 70
     0
300
1/2" = 1'-0"
140
0.5
141
12.0
290
     0
  0
SCALE
  5
63
102
{ACAD_REACTORS
330
47
102
}
330
47
100
AcDbScale
 70
     0
300
3/4" = 1'-0"
140
0.75
141
12.0
290
     0
  0
SCALE
  5
64
102
{ACAD_REACTORS
330
47
102
}
330
47
100
AcDbScale
 70
     0
300
1" = 1'-0"
140
1.0
141
12.0
290
     0
  0
SCALE
  5
65
102
{ACAD_REACTORS
330
47
102
}
330
47
100
AcDbScale
 70
     0
300
1-1/2" = 1'-0"
140
1.5
141
12.0
290
     0
  0
SCALE
  5
66
102
{ACAD_REACTORS
330
47
102
}
330
47
100
AcDbScale
 70
     0
300
3" = 1'-0"
140
3.0
141
12.0
290
     0
  0
SCALE
  5
67
102
{ACAD_REACTORS
330
47
102
}
330
47
100
AcDbScale
 70
     0
300
6" = 1'-0"
140
6.0
141
12.0
290
     0
  0
SCALE
  5
68
102
{ACAD_REACTORS
330
47
102
}
330
47
100
AcDbScale
 70
     0
300
1'-0" = 1'-0"
140
12.0
141
12.0
290
     0
  0
ENDSEC
  0
EOF
