  0
SECTION
  2
HEADER
  9
$ACADVER
  1
AC1015
  9
$ACADMAINTVER
 70
     6
  9
$DWGCODEPAGE
  3
ANSI_1250
  9
$INSBASE
 10
0.0
 20
0.0
 30
0.0
  9
$EXTMIN
 10
0.0
 20
0.0
 30
0.0
  9
$EXTMAX
 10
1189.0
 20
841.0
 30
0.0
  9
$LIMMIN
 10
0.0
 20
0.0
  9
$LIMMAX
 10
1189.0
 20
841.0
  9
$ORTHOMODE
 70
     0
  9
$REGENMODE
 70
     1
  9
$FILLMODE
 70
     1
  9
$QTEXTMODE
 70
     0
  9
$MIRRTEXT
 70
     1
  9
$LTSCALE
 40
1.0
  9
$ATTMODE
 70
     1
  9
$TEXTSIZE
 40
3.5
  9
$TRACEWID
 40
1.0
  9
$TEXTSTYLE
  7
Standard
  9
$CLAYER
  8
0
  9
$CELTYPE
  6
ByLayer
  9
$CECOLOR
 62
   256
  9
$CELTSCALE
 40
1.0
  9
$DISPSILH
 70
     0
  9
$DIMSCALE
 40
1.0
  9
$DIMASZ
 40
3.302
  9
$DIMEXO
 40
1.0
  9
$DIMDLI
 40
3.75
  9
$DIMRND
 40
0.0
  9
$DIMDLE
 40
0.0
  9
$DIMEXE
 40
1.0
  9
$DIMTP
 40
0.0
  9
$DIMTM
 40
0.0
  9
$DIMTXT
 40
3.5
  9
$DIMCEN
 40
2.5
  9
$DIMTSZ
 40
0.0
  9
$DIMTOL
 70
     0
  9
$DIMLIM
 70
     0
  9
$DIMTIH
 70
     1
  9
$DIMTOH
 70
     1
  9
$DIMSE1
 70
     0
  9
$DIMSE2
 70
     0
  9
$DIMTAD
 70
     1
  9
$DIMZIN
 70
     1
  9
$DIMBLK
  1

  9
$DIMASO
 70
     1
  9
$DIMSHO
 70
     1
  9
$DIMPOST
  1

  9
$DIMAPOST
  1

  9
$DIMALT
 70
     0
  9
$DIMALTD
 70
     3
  9
$DIMALTF
 40
0.0393700787
  9
$DIMLFAC
 40
1.0
  9
$DIMTOFL
 70
     1
  9
$DIMTVP
 40
0.0
  9
$DIMTIX
 70
     0
  9
$DIMSOXD
 70
     0
  9
$DIMSAH
 70
     0
  9
$DIMBLK1
  1

  9
$DIMBLK2
  1

  9
$DIMSTYLE
  2
ISO-25
  9
$DIMCLRD
 70
     0
  9
$DIMCLRE
 70
     0
  9
$DIMCLRT
 70
     0
  9
$DIMTFAC
 40
1.0
  9
$DIMGAP
 40
1.524
  9
$DIMJUST
 70
     0
  9
$DIMSD1
 70
     0
  9
$DIMSD2
 70
     0
  9
$DIMTOLJ
 70
     0
  9
$DIMTZIN
 70
     1
  9
$DIMALTZ
 70
     0
  9
$DIMALTTZ
 70
     0
  9
$DIMUPT
 70
     0
  9
$DIMDEC
 70
     2
  9
$DIMTDEC
 70
     2
  9
$DIMALTU
 70
     2
  9
$DIMALTTD
 70
     3
  9
$DIMTXSTY
  7
Standard
  9
$DIMAUNIT
 70
     0
  9
$DIMADEC
 70
     2
  9
$DIMALTRND
 40
0.0
  9
$DIMAZIN
 70
     0
  9
$DIMDSEP
 70
    44
  9
$DIMATFIT
 70
     3
  9
$DIMFRAC
 70
     0
  9
$DIMLDRBLK
  1

  9
$DIMLUNIT
 70
     2
  9
$DIMLWD
 70
    -2
  9
$DIMLWE
 70
    -2
  9
$DIMTMOVE
 70
     0
  9
$LUNITS
 70
     2
  9
$LUPREC
 70
     2
  9
$SKETCHINC
 40
1.0
  9
$FILLETRAD
 40
10.0
  9
$AUNITS
 70
     0
  9
$AUPREC
 70
     2
  9
$MENU
  1
.
  9
$ELEVATION
 40
0.0
  9
$PELEVATION
 40
0.0
  9
$THICKNESS
 40
0.0
  9
$LIMCHECK
 70
     0
  9
$CHAMFERA
 40
0.0
  9
$CHAMFERB
 40
0.0
  9
$CHAMFERC
 40
0.0
  9
$CHAMFERD
 40
0.0
  9
$SKPOLY
 70
     0
  9
$TDCREATE
 40
2459030.56710294
  9
$TDUCREATE
 40
2459030.483769606
  9
$TDUPDATE
 40
2459030.567103114
  9
$TDUUPDATE
 40
2459030.48376978
  9
$TDINDWG
 40
0.0000000116
  9
$TDUSRTIMER
 40
0.0000000116
  9
$USRTIMER
 70
     1
  9
$ANGBASE
 50
0.0
  9
$ANGDIR
 70
     0
  9
$PDMODE
 70
     0
  9
$PDSIZE
 40
-1.0
  9
$PLINEWID
 40
0.0
  9
$SPLFRAME
 70
     0
  9
$SPLINETYPE
 70
     6
  9
$SPLINESEGS
 70
     8
  9
$HANDSEED
  5
144
  9
$SURFTAB1
 70
     6
  9
$SURFTAB2
 70
     6
  9
$SURFTYPE
 70
     6
  9
$SURFU
 70
     6
  9
$SURFV
 70
     6
  9
$UCSBASE
  2

  9
$UCSNAME
  2

  9
$UCSORG
 10
0.0
 20
0.0
 30
0.0
  9
$UCSXDIR
 10
1.0
 20
0.0
 30
0.0
  9
$UCSYDIR
 10
0.0
 20
1.0
 30
0.0
  9
$UCSORTHOREF
  2

  9
$UCSORTHOVIEW
 70
     0
  9
$UCSORGTOP
 10
0.0
 20
0.0
 30
0.0
  9
$UCSORGBOTTOM
 10
0.0
 20
0.0
 30
0.0
  9
$UCSORGLEFT
 10
0.0
 20
0.0
 30
0.0
  9
$UCSORGRIGHT
 10
0.0
 20
0.0
 30
0.0
  9
$UCSORGFRONT
 10
0.0
 20
0.0
 30
0.0
  9
$UCSORGBACK
 10
0.0
 20
0.0
 30
0.0
  9
$PUCSBASE
  2

  9
$PUCSNAME
  2

  9
$PUCSORG
 10
0.0
 20
0.0
 30
0.0
  9
$PUCSXDIR
 10
1.0
 20
0.0
 30
0.0
  9
$PUCSYDIR
 10
0.0
 20
1.0
 30
0.0
  9
$PUCSORTHOREF
  2

  9
$PUCSORTHOVIEW
 70
     0
  9
$PUCSORGTOP
 10
0.0
 20
0.0
 30
0.0
  9
$PUCSORGBOTTOM
 10
0.0
 20
0.0
 30
0.0
  9
$PUCSORGLEFT
 10
0.0
 20
0.0
 30
0.0
  9
$PUCSORGRIGHT
 10
0.0
 20
0.0
 30
0.0
  9
$PUCSORGFRONT
 10
0.0
 20
0.0
 30
0.0
  9
$PUCSORGBACK
 10
0.0
 20
0.0
 30
0.0
  9
$USERI1
 70
     0
  9
$USERI2
 70
     0
  9
$USERI3
 70
     0
  9
$USERI4
 70
     0
  9
$USERI5
 70
     0
  9
$USERR1
 40
0.0
  9
$USERR2
 40
0.0
  9
$USERR3
 40
0.0
  9
$USERR4
 40
0.0
  9
$USERR5
 40
0.0
  9
$WORLDVIEW
 70
     1
  9
$SHADEDGE
 70
     3
  9
$SHADEDIF
 70
    70
  9
$TILEMODE
 70
     1
  9
$MAXACTVP
 70
    64
  9
$PINSBASE
 10
0.0
 20
0.0
 30
0.0
  9
$PLIMCHECK
 70
     0
  9
$PEXTMIN
 10
1.0000000000E+20
 20
1.0000000000E+20
 30
1.0000000000E+20
  9
$PEXTMAX
 10
-1.0000000000E+20
 20
-1.0000000000E+20
 30
-1.0000000000E+20
  9
$PLIMMIN
 10
0.0
 20
0.0
  9
$PLIMMAX
 10
420.0
 20
297.0
  9
$UNITMODE
 70
     0
  9
$VISRETAIN
 70
     1
  9
$PLINEGEN
 70
     0
  9
$PSLTSCALE
 70
     1
  9
$TREEDEPTH
 70
  3020
  9
$CMLSTYLE
  2
Standard
  9
$CMLJUST
 70
     0
  9
$CMLSCALE
 40
20.0
  9
$PROXYGRAPHICS
 70
     1
  9
$MEASUREMENT
 70
     1
  9
$CELWEIGHT
370
    -1
  9
$ENDCAPS
280
     0
  9
$JOINSTYLE
280
     0
  9
$LWDISPLAY
290
     1
  9
$INSUNITS
 70
     4
  9
$HYPERLINKBASE
  1

  9
$STYLESHEET
  1

  9
$XEDIT
290
     1
  9
$CEPSNTYPE
380
     0
  9
$PSTYLEMODE
290
     1
  9
$FINGERPRINTGUID
  2
{0a5bf83b-af2f-49f1-8b91-9da9344afb30}
  9
$VERSIONGUID
  2
{FAEB1C32-E019-11D5-929B-00C0DF256EC4}
  9
$EXTNAMES
290
     1
  9
$PSVPSCALE
 40
0.0
  9
$OLESTARTUP
290
     0
  0
ENDSEC
  0
SECTION
  2
CLASSES
  0
CLASS
  1
ACDBDICTIONARYWDFLT
  2
AcDbDictionaryWithDefault
  3
ObjectDBX Classes
 90
        0
280
     0
281
     0
  0
CLASS
  1
VISUALSTYLE
  2
AcDbVisualStyle
  3
ObjectDBX Classes
 90
     4095
280
     0
281
     0
  0
CLASS
  1
MATERIAL
  2
AcDbMaterial
  3
ObjectDBX Classes
 90
     1153
280
     0
281
     0
  0
CLASS
  1
SCALE
  2
AcDbScale
  3
ObjectDBX Classes
 90
     1153
280
     0
281
     0
  0
CLASS
  1
TABLESTYLE
  2
AcDbTableStyle
  3
ObjectDBX Classes
 90
     4095
280
     0
281
     0
  0
CLASS
  1
MLEADERSTYLE
  2
AcDbMLeaderStyle
  3
ACDB_MLEADERSTYLE_CLASS
 90
     4095
280
     0
281
     0
  0
CLASS
  1
SUN
  2
AcDbSun
  3
SCENEOE
 90
     1153
280
     0
281
     0
  0
CLASS
  1
ACDBPLACEHOLDER
  2
AcDbPlaceHolder
  3
ObjectDBX Classes
 90
        0
280
     0
281
     0
  0
CLASS
  1
LAYOUT
  2
AcDbLayout
  3
ObjectDBX Classes
 90
        0
280
     0
281
     0
  0
ENDSEC
  0
SECTION
  2
TABLES
  0
TABLE
  2
VPORT
  5
8
330
0
100
AcDbSymbolTable
 70
     1
  0
VPORT
  5
29
330
8
100
AcDbSymbolTableRecord
100
AcDbViewportTableRecord
  2
*Active
 70
     0
 10
0.0
 20
0.0
 11
1.0
 21
1.0
 12
594.5
 22
420.5
 13
0.0
 23
0.0
 14
10.0
 24
10.0
 15
10.0
 25
10.0
 16
0.0
 26
0.0
 36
1.0
 17
0.0
 27
0.0
 37
0.0
 40
841.0
 41
1.4137931034
 42
50.0
 43
0.0
 44
0.0
 50
0.0
 51
0.0
 71
     0
 72
  2000
 73
     1
 74
     3
 75
     0
 76
     0
 77
     0
 78
     0
281
     0
 65
     1
110
0.0
120
0.0
130
0.0
111
1.0
121
0.0
131
0.0
112
0.0
122
1.0
132
0.0
 79
     0
146
0.0
  0
ENDTAB
  0
TABLE
  2
LTYPE
  5
5
330
0
100
AcDbSymbolTable
 70
     6
  0
LTYPE
  5
14
330
5
100
AcDbSymbolTableRecord
100
AcDbLinetypeTableRecord
  2
ByBlock
 70
     0
  3

 72
    65
 73
     0
 40
0.0
  0
LTYPE
  5
15
330
5
100
AcDbSymbolTableRecord
100
AcDbLinetypeTableRecord
  2
ByLayer
 70
     0
  3

 72
    65
 73
     0
 40
0.0
  0
LTYPE
  5
16
330
5
100
AcDbSymbolTableRecord
100
AcDbLinetypeTableRecord
  2
Continuous
 70
     0
  3
Solid line
 72
    65
 73
     0
 40
0.0
  0
LTYPE
  5
6E
330
5
100
AcDbSymbolTableRecord
100
AcDbLinetypeTableRecord
  2
HIDDEN
 70
     0
  3
Hidden __ __ __ __ __ __ __ __ __ __ __ __ __ __
 72
    65
 73
     2
 40
1.905
 49
1.27
 74
     0
 49
-0.635
 74
     0
  0
LTYPE
  5
6F
330
5
100
AcDbSymbolTableRecord
100
AcDbLinetypeTableRecord
  2
PHANTOM
 70
     0
  3
Phantom ______  __  __  ______  __  __  ______
 72
    65
 73
     6
 40
12.7
 49
6.35
 74
     0
 49
-1.27
 74
     0
 49
1.27
 74
     0
 49
-1.27
 74
     0
 49
1.27
 74
     0
 49
-1.27
 74
     0
  0
LTYPE
  5
70
330
5
100
AcDbSymbolTableRecord
100
AcDbLinetypeTableRecord
  2
CENTER
 70
     0
  3
Center ____ _ ____ _ ____ _ ____ _ ____ _ ____
 72
    65
 73
     4
 40
10.16
 49
6.35
 74
     0
 49
-1.27
 74
     0
 49
1.27
 74
     0
 49
-1.27
 74
     0
  0
LTYPE
  5
71
330
5
100
AcDbSymbolTableRecord
100
AcDbLinetypeTableRecord
  2
CENTERX2
 70
     0
  3
Center (2x) ________  __  ________  __  _____
 72
    65
 73
     4
 40
20.32
 49
12.7
 74
     0
 49
-2.54
 74
     0
 49
2.54
 74
     0
 49
-2.54
 74
     0
  0
LTYPE
  5
72
330
5
100
AcDbSymbolTableRecord
100
AcDbLinetypeTableRecord
  2
DOT2
 70
     0
  3
Dot (.5x) ........................................
 72
    65
 73
     2
 40
0.635
 49
0.0
 74
     0
 49
-0.635
 74
     0
  0
ENDTAB
  0
TABLE
  2
LAYER
  5
2
330
0
100
AcDbSymbolTable
 70
     1
  0
LAYER
  5
10
330
2
100
AcDbSymbolTableRecord
100
AcDbLayerTableRecord
  2
0
 70
     0
 62
     7
  6
Continuous
370
    -3
390
F
  0
ENDTAB
  0
TABLE
  2
STYLE
  5
3
330
0
100
AcDbSymbolTable
 70
     1
  0
STYLE
  5
11
330
3
100
AcDbSymbolTableRecord
100
AcDbTextStyleTableRecord
  2
Standard
 70
     0
 40
0.0
 41
1.0
 50
0.0
 71
     0
 42
3.5
  3
txt
  4

  0
ENDTAB
  0
TABLE
  2
VIEW
  5
6
330
0
100
AcDbSymbolTable
 70
     0
  0
ENDTAB
  0
TABLE
  2
UCS
  5
7
330
0
100
AcDbSymbolTable
 70
     0
  0
ENDTAB
  0
TABLE
  2
APPID
  5
9
330
0
100
AcDbSymbolTable
 70
     1
  0
APPID
  5
12
330
9
100
AcDbSymbolTableRecord
100
AcDbRegAppTableRecord
  2
ACAD
 70
     0
  0
ENDTAB
  0
TABLE
  2
DIMSTYLE
  5
A
330
0
100
AcDbSymbolTable
 70
     1
100
AcDbDimStyleTable
  0
DIMSTYLE
105
27
330
A
100
AcDbSymbolTableRecord
100
AcDbDimStyleTableRecord
  2
ISO-25
 70
     0
 41
2.5
 42
0.625
 43
3.75
 44
1.25
 73
     0
 74
     0
 77
     1
 78
     8
140
2.5
141
2.5
143
0.0393700787
147
0.625
171
     3
172
     1
178
     0
271
     2
272
     2
274
     3
278
    44
283
     0
284
     8
340
11
  0
ENDTAB
  0
TABLE
  2
BLOCK_RECORD
  5
1
330
0
100
AcDbSymbolTable
 70
     1
  0
BLOCK_RECORD
  5
1F
330
1
100
AcDbSymbolTableRecord
100
AcDbBlockTableRecord
  2
*Model_Space
340
22
  0
BLOCK_RECORD
  5
1B
330
1
100
AcDbSymbolTableRecord
100
AcDbBlockTableRecord
  2
*Paper_Space
340
1E
  0
BLOCK_RECORD
  5
23
330
1
100
AcDbSymbolTableRecord
100
AcDbBlockTableRecord
  2
*Paper_Space0
340
26
  0
ENDTAB
  0
ENDSEC
  0
SECTION
  2
BLOCKS
  0
BLOCK
  5
20
330
1F
100
AcDbEntity
  8
0
100
AcDbBlockBegin
  2
*Model_Space
 70
     0
 10
0.0
 20
0.0
 30
0.0
  3
*Model_Space
  1

  0
ENDBLK
  5
21
330
1F
100
AcDbEntity
  8
0
100
AcDbBlockEnd
  0
BLOCK
  5
1C
330
1B
100
AcDbEntity
 67
     1
  8
0
100
AcDbBlockBegin
  2
*Paper_Space
 70
     0
 10
0.0
 20
0.0
 30
0.0
  3
*Paper_Space
  1

  0
ENDBLK
  5
1D
330
1B
100
AcDbEntity
 67
     1
  8
0
100
AcDbBlockEnd
  0
BLOCK
  5
24
330
23
100
AcDbEntity
  8
0
100
AcDbBlockBegin
  2
*Paper_Space0
 70
     0
 10
0.0
 20
0.0
 30
0.0
  3
*Paper_Space0
  1

  0
ENDBLK
  5
25
330
23
100
AcDbEntity
  8
0
100
AcDbBlockEnd
  0
ENDSEC
  0
SECTION
  2
ENTITIES
  0
LINE
  5
73
330
1F
100
AcDbEntity
  8
0
  6
Continuous
 62
     7
370
    25
100
AcDbLine
 10
458.3347694038
 20
603.1274276607
 30
0.0
 11
410.8347694038
 21
603.1274276607
 31
0.0
  0
LINE
  5
74
330
1F
100
AcDbEntity
  8
0
  6
Continuous
 62
     7
370
    25
100
AcDbLine
 10
395.8347694038
 20
603.1274276607
 30
0.0
 11
348.3347694038
 21
603.1274276607
 31
0.0
  0
ARC
  5
75
330
1F
100
AcDbEntity
  8
0
  6
Continuous
 62
     7
370
    25
100
AcDbCircle
 10
458.7847694038
 20
602.5274276607
 30
0.0
 40
0.8000000000000682
100
AcDbArc
 50
0.0
 51
90.0
  0
ARC
  5
76
330
1F
100
AcDbEntity
  8
0
  6
Continuous
 62
     7
370
    25
100
AcDbCircle
 10
458.7847694038
 20
595.1274276607
 30
0.0
 40
0.8000000000000682
100
AcDbArc
 50
270.0
 51
0.0
  0
LINE
  5
77
330
1F
100
AcDbEntity
  8
0
  6
Continuous
 62
     7
370
    25
100
AcDbLine
 10
410.5847694038
 20
603.3274276607
 30
0.0
 11
410.3847694038
 21
603.3274276607
 31
0.0
  0
ARC
  5
78
330
1F
100
AcDbEntity
  8
0
  6
Continuous
 62
     7
370
    25
100
AcDbCircle
 10
410.3847694038
 20
602.5274276607
 30
0.0
 40
0.8000000000000682
100
AcDbArc
 50
90.0
 51
180.0
  0
LINE
  5
79
330
1F
100
AcDbEntity
  8
0
  6
Continuous
 62
     7
370
    25
100
AcDbLine
 10
458.7847694038
 20
603.3274276607
 30
0.0
 11
458.5847694038
 21
603.3274276607
 31
0.0
  0
LINE
  5
7A
330
1F
100
AcDbEntity
  8
0
  6
Continuous
 62
     7
370
    25
100
AcDbLine
 10
458.5847694038
 20
594.3274276607
 30
0.0
 11
458.7847694038
 21
594.3274276607
 31
0.0
  0
LINE
  5
7B
330
1F
100
AcDbEntity
  8
0
  6
Continuous
 62
     7
370
    25
100
AcDbLine
 10
458.3347694038
 20
595.2274276607
 30
0.0
 11
458.5847694038
 21
595.2274276607
 31
0.0
  0
LINE
  5
7C
330
1F
100
AcDbEntity
  8
0
  6
Continuous
 62
     7
370
    25
100
AcDbLine
 10
458.5847694038
 20
602.4274276607
 30
0.0
 11
458.3347694038
 21
602.4274276607
 31
0.0
  0
LINE
  5
7D
330
1F
100
AcDbEntity
  8
0
  6
Continuous
 62
     7
370
    25
100
AcDbLine
 10
410.8347694038
 20
602.4274276607
 30
0.0
 11
410.5847694038
 21
602.4274276607
 31
0.0
  0
ARC
  5
7E
330
1F
100
AcDbEntity
  8
0
  6
Continuous
 62
     7
370
    25
100
AcDbCircle
 10
396.2847694038
 20
602.5274276607
 30
0.0
 40
0.8000000000000682
100
AcDbArc
 50
0.0
 51
90.0
  0
ARC
  5
7F
330
1F
100
AcDbEntity
  8
0
  6
Continuous
 62
     7
370
    25
100
AcDbCircle
 10
347.8847694038
 20
602.5274276607
 30
0.0
 40
0.8000000000000682
100
AcDbArc
 50
90.0
 51
180.0
  0
ARC
  5
80
330
1F
100
AcDbEntity
  8
0
  6
Continuous
 62
     7
370
    25
100
AcDbCircle
 10
347.8847694038
 20
595.1274276607
 30
0.0
 40
0.8000000000000682
100
AcDbArc
 50
180.0
 51
270.0
  0
LINE
  5
81
330
1F
100
AcDbEntity
  8
0
  6
Continuous
 62
     7
370
    25
100
AcDbLine
 10
396.2847694038
 20
603.3274276607
 30
0.0
 11
396.0847694038
 21
603.3274276607
 31
0.0
  0
LINE
  5
82
330
1F
100
AcDbEntity
  8
0
  6
Continuous
 62
     7
370
    25
100
AcDbLine
 10
347.8847694038
 20
594.3274276607
 30
0.0
 11
348.0847694038
 21
594.3274276607
 31
0.0
  0
LINE
  5
83
330
1F
100
AcDbEntity
  8
0
  6
Continuous
 62
     7
370
    25
100
AcDbLine
 10
348.0847694038
 20
603.3274276607
 30
0.0
 11
347.8847694038
 21
603.3274276607
 31
0.0
  0
LINE
  5
84
330
1F
100
AcDbEntity
  8
0
  6
Continuous
 62
     7
370
    25
100
AcDbLine
 10
348.0847694038
 20
595.2274276607
 30
0.0
 11
348.3347694038
 21
595.2274276607
 31
0.0
  0
LINE
  5
85
330
1F
100
AcDbEntity
  8
0
  6
Continuous
 62
     7
370
    25
100
AcDbLine
 10
396.0847694038
 20
602.4274276607
 30
0.0
 11
395.8347694038
 21
602.4274276607
 31
0.0
  0
LINE
  5
86
330
1F
100
AcDbEntity
  8
0
  6
Continuous
 62
     7
370
    25
100
AcDbLine
 10
348.3347694038
 20
602.4274276607
 30
0.0
 11
348.0847694038
 21
602.4274276607
 31
0.0
  0
LINE
  5
87
330
1F
100
AcDbEntity
  8
0
  6
Continuous
 62
     7
370
    25
100
AcDbLine
 10
348.3347694038
 20
532.0484629249
 30
0.0
 11
347.0847694038
 21
532.0484629249
 31
0.0
  0
LINE
  5
88
330
1F
100
AcDbEntity
  8
0
  6
Continuous
 62
     7
370
    25
100
AcDbLine
 10
347.0847694038
 20
527.0484629249
 30
0.0
 11
348.3347694038
 21
527.0484629249
 31
0.0
  0
SPLINE
  5
89
330
1F
100
AcDbEntity
  8
0
  6
Continuous
 62
     7
370
    25
100
AcDbSpline
210
0.0
220
0.0
230
1.0
 70
     8
 71
     3
 72
    16
 73
    12
 74
     0
 42
0.00000001
 43
0.00000001
 40
0.0
 40
0.0
 40
0.0
 40
0.0
 40
0.0838575784463067
 40
0.2111034065468451
 40
0.338307120973064
 40
0.4654666494164472
 40
0.5925822459235669
 40
0.7196565430486298
 40
0.8466944577419405
 40
0.9670316713445134
 40
1.0
 40
1.0
 40
1.0
 40
1.0
 10
458.3347694038246
 20
529.24373211316
 30
0.0
 10
458.5298813557403
 20
529.3987001209957
 30
0.0
 10
459.0210569712365
 20
529.7888172095884
 30
0.0
 10
459.7102893942799
 20
530.5235994077852
 30
0.0
 10
460.4013542584203
 20
531.421266513347
 30
0.0
 10
460.9816530180376
 20
532.3944773371958
 30
0.0
 10
461.4477048198308
 20
533.4256108777711
 30
0.0
 10
461.7928135271308
 20
534.5026665944149
 30
0.0
 10
462.007680573749
 20
535.5918621939225
 30
0.0
 10
462.0796410945773
 20
536.4201416389795
 30
0.0
 10
462.083861752183
 20
536.8736765478704
 30
0.0
 10
462.0847694038246
 20
536.9712091465803
 30
0.0
  0
SPLINE
  5
8A
330
1F
100
AcDbEntity
  8
0
  6
Continuous
 62
     7
370
    25
100
AcDbSpline
210
0.0
220
0.0
230
1.0
 70
     8
 71
     3
 72
    22
 73
    18
 74
     0
 42
0.00000001
 43
0.00000001
 40
0.0
 40
0.0
 40
0.0
 40
0.0
 40
0.043922675473102
 40
0.1161659877737846
 40
0.1884304256492785
 40
0.2606975544666654
 40
0.3329731906001656
 40
0.4052626525922123
 40
0.4775704504805713
 40
0.5499000607576296
 40
0.6222537727020067
 40
0.6946326087489366
 40
0.7670363152091354
 40
0.8394634150506368
 40
0.9119113120527893
 40
0.9805978384682171
 40
1.0
 40
1.0
 40
1.0
 40
1.0
 10
337.0847694038246
 20
536.9712091465803
 30
0.0
 10
337.0895181297671
 20
536.7428665412859
 30
0.0
 10
337.1020774839922
 20
536.138949680367
 30
0.0
 10
337.2311122538759
 20
535.1650086988404
 30
0.0
 10
337.4994733186031
 20
534.0681512709508
 30
0.0
 10
337.893332777818
 20
533.0086481560764
 30
0.0
 10
338.4051556959882
 20
532.0003022891433
 30
0.0
 10
339.02900246301
 20
531.0560458476112
 30
0.0
 10
339.7566874975376
 20
530.1880197700892
 30
0.0
 10
340.5789206037919
 20
529.4073898910848
 30
0.0
 10
341.4851400478881
 20
528.7242264916939
 30
0.0
 10
342.4637184258669
 20
528.14733056235
 30
0.0
 10
343.5020754032301
 20
527.6842797238933
 30
0.0
 10
344.5868749372349
 20
527.3407283919457
 30
0.0
 10
345.6846332975117
 20
527.1263560290795
 30
0.0
 10
346.5227883286116
 20
527.053769118209
 30
0.0
 10
346.9833314893237
 20
527.0494206959045
 30
0.0
 10
347.0847694038247
 20
527.0484629248906
 30
0.0
  0
SPLINE
  5
8B
330
1F
100
AcDbEntity
  8
0
  6
Continuous
 62
     7
370
    25
100
AcDbSpline
210
0.0
220
0.0
230
1.0
 70
     8
 71
     3
 72
    18
 73
    14
 74
     0
 42
0.00000001
 43
0.00000001
 40
0.0
 40
0.0
 40
0.0
 40
0.0
 40
0.0439283691849775
 40
0.1454259363052577
 40
0.2470167855690764
 40
0.348662887225199
 40
0.4504140473681849
 40
0.5523126686162622
 40
0.654389144679206
 40
0.7566574730059857
 40
0.8591117408840536
 40
0.9617246134548838
 40
1.0
 40
1.0
 40
1.0
 40
1.0
 10
347.0847694038246
 20
532.0484629248906
 30
0.0
 10
346.9694275473672
 20
532.0508619549331
 30
0.0
 10
346.587585521776
 20
532.0588040023304
 30
0.0
 10
345.943290435685
 20
532.1577517690198
 30
0.0
 10
345.1784938715117
 20
532.3972753984542
 30
0.0
 10
344.4623487207715
 20
532.7552738368128
 30
0.0
 10
343.8133533717581
 20
533.2206243060851
 30
0.0
 10
343.2478721931508
 20
533.782065790244
 30
0.0
 10
342.7804386168192
 20
534.4253088388559
 30
0.0
 10
342.4226094992365
 20
535.1342323233107
 30
0.0
 10
342.185499980225
 20
535.8907464998579
 30
0.0
 10
342.0933652025802
 20
536.5117211895632
 30
0.0
 10
342.0866057558302
 20
536.8730470495614
 30
0.0
 10
342.0847694038246
 20
536.9712091465803
 30
0.0
  0
LINE
  5
8C
330
1F
100
AcDbEntity
  8
0
  6
Continuous
 62
     7
370
    25
100
AcDbLine
 10
462.0847694038
 20
536.9712091466
 30
0.0
 11
462.0847694038
 21
544.196015469
 31
0.0
  0
LINE
  5
8D
330
1F
100
AcDbEntity
  8
0
  6
Continuous
 62
     7
370
    25
100
AcDbLine
 10
342.0847694038
 20
536.9712091466
 30
0.0
 11
342.0847694038
 21
591.404681439
 31
0.0
  0
LINE
  5
8E
330
1F
100
AcDbEntity
  8
0
  6
Continuous
 62
     7
370
    25
100
AcDbLine
 10
337.0847694038
 20
591.404681439
 30
0.0
 11
337.0847694038
 21
536.9712091466
 31
0.0
  0
SPLINE
  5
8F
330
1F
100
AcDbEntity
  8
0
  6
Continuous
 62
     7
370
    25
100
AcDbSpline
210
0.0
220
0.0
230
1.0
 70
     8
 71
     3
 72
    10
 73
     6
 74
     0
 42
0.00000001
 43
0.00000001
 40
0.0
 40
0.0
 40
0.0
 40
0.0
 40
0.4173205245780036
 40
0.8283831917658665
 40
1.0
 40
1.0
 40
1.0
 40
1.0
 10
462.0790136623006
 20
544.2030223503351
 30
0.0
 10
462.0673454200809
 20
544.2563708390509
 30
0.0
 10
462.0441839047397
 20
544.3622678384927
 30
0.0
 10
461.9646979900215
 20
544.4235685828359
 30
0.0
 10
461.9158823160417
 20
544.4458781730584
 30
0.0
 10
461.9015046169573
 20
544.4524490251796
 30
0.0
  0
SPLINE
  5
90
330
1F
100
AcDbEntity
  8
0
  6
Continuous
 62
     7
370
    25
100
AcDbSpline
210
0.0
220
0.0
230
1.0
 70
     8
 71
     3
 72
    22
 73
    18
 74
     0
 42
0.00000001
 43
0.00000001
 40
0.0
 40
0.0
 40
0.0
 40
0.0
 40
0.0437816049818043
 40
0.1162414165060638
 40
0.1887279437861587
 40
0.261210906910149
 40
0.3336849857451913
 40
0.4061452582012953
 40
0.4785874181911259
 40
0.5510080093496394
 40
0.623404631964461
 40
0.6957761066035485
 40
0.7681225778547586
 40
0.8404455440079417
 40
0.9127478034923637
 40
0.9812364311948109
 40
1.0
 40
1.0
 40
1.0
 40
1.0
 10
347.0847694038247
 20
601.3274276606617
 30
0.0
 10
346.855839553839
 20
601.3227623524544
 30
0.0
 10
346.2480242383907
 20
601.3103758254032
 30
0.0
 10
345.2667952017651
 20
601.1826874752131
 30
0.0
 10
344.1599594069114
 20
600.9162459809661
 30
0.0
 10
343.0906760593218
 20
600.5248873261874
 30
0.0
 10
342.0730127867486
 20
600.016087943709
 30
0.0
 10
341.1201501656108
 20
599.3957959788352
 30
0.0
 10
340.2444473147183
 20
598.6722313844774
 30
0.0
 10
339.4572425097571
 20
597.8547446521982
 30
0.0
 10
338.7687220217642
 20
596.9539670027202
 30
0.0
 10
338.1877418459709
 20
595.9815892219506
 30
0.0
 10
337.7218725500514
 20
594.9502325647834
 30
0.0
 10
337.3767149082549
 20
593.8732366714091
 30
0.0
 10
337.1618609438144
 20
592.7840250787128
 30
0.0
 10
337.0898975665126
 20
591.955749125744
 30
0.0
 10
337.0856770295268
 20
591.502214069393
 30
0.0
 10
337.0847694038246
 20
591.4046814389719
 30
0.0
  0
SPLINE
  5
91
330
1F
100
AcDbEntity
  8
0
  6
Continuous
 62
     7
370
    25
100
AcDbSpline
210
0.0
220
0.0
230
1.0
 70
     8
 71
     3
 72
    18
 73
    14
 74
     0
 42
0.00000001
 43
0.00000001
 40
0.0
 40
0.0
 40
0.0
 40
0.0
 40
0.0438185730930495
 40
0.1465006685697967
 40
0.2492446691074519
 40
0.3518972444187661
 40
0.4544067461015086
 40
0.5567400877188248
 40
0.6588847530086346
 40
0.7608479465737159
 40
0.8626537110926032
 40
0.9643391181629376
 40
1.0
 40
1.0
 40
1.0
 40
1.0
 10
342.0847694038246
 20
591.4046814389719
 30
0.0
 10
342.0871578869803
 20
591.5170633864083
 30
0.0
 10
342.0951434135386
 20
591.8927951657074
 30
0.0
 10
342.1954641120189
 20
592.5280105496851
 30
0.0
 10
342.4399826011845
 20
593.284261721342
 30
0.0
 10
342.8060441309759
 20
593.9924003144529
 30
0.0
 10
343.2820967145162
 20
594.6335991332653
 30
0.0
 10
343.8561823432923
 20
595.1912975437405
 30
0.0
 10
344.5131244746681
 20
595.6510135802047
 30
0.0
 10
345.2358818044684
 20
596.0014843819359
 30
0.0
 10
346.0055373620417
 20
596.2322484222435
 30
0.0
 10
346.630538863742
 20
596.3196669230011
 30
0.0
 10
346.9911417145967
 20
596.3258279885355
 30
0.0
 10
347.0847694038247
 20
596.3274276606617
 30
0.0
  0
LINE
  5
92
330
1F
100
AcDbEntity
  8
0
  6
Continuous
 62
     7
370
    25
100
AcDbLine
 10
397.0847694038
 20
596.3274276607
 30
0.0
 11
397.9146093558
 21
596.3274276607
 31
0.0
  0
LINE
  5
93
330
1F
100
AcDbEntity
  8
0
  6
Continuous
 62
     7
370
    25
100
AcDbLine
 10
408.8233214704
 20
596.3274276607
 30
0.0
 11
409.5847694038
 21
596.3274276607
 31
0.0
  0
LINE
  5
94
330
1F
100
AcDbEntity
  8
0
  6
Continuous
 62
     7
370
    25
100
AcDbLine
 10
409.5847694038
 20
601.3274276607
 30
0.0
 11
408.8233214704
 21
601.3274276607
 31
0.0
  0
LINE
  5
95
330
1F
100
AcDbEntity
  8
0
  6
Continuous
 62
     7
370
    25
100
AcDbLine
 10
397.9146093558
 20
601.3274276607
 30
0.0
 11
397.0847694038
 21
601.3274276607
 31
0.0
  0
LINE
  5
96
330
1F
100
AcDbEntity
  8
0
  6
Continuous
 62
     7
370
    25
100
AcDbLine
 10
458.3347694038
 20
602.1218580778
 30
0.0
 11
458.3347694038
 21
497.8541614302
 31
0.0
  0
SPLINE
  5
97
330
1F
100
AcDbEntity
  8
0
  6
Continuous
 62
     7
370
    25
100
AcDbSpline
210
0.0
220
0.0
230
1.0
 70
     8
 71
     3
 72
    16
 73
    12
 74
     0
 42
0.00000001
 43
0.00000001
 40
0.0
 40
0.0
 40
0.0
 40
0.0
 40
0.1073600729241474
 40
0.2147201306032588
 40
0.3220808477573911
 40
0.4294413507290791
 40
0.5367859179639062
 40
0.6441301718313094
 40
0.7514096896462334
 40
0.8586896381137334
 40
1.0
 40
1.0
 40
1.0
 40
1.0
 10
450.8347694038246
 20
490.373621214658
 30
0.0
 10
451.2563817082992
 20
490.3945063616691
 30
0.0
 10
452.0996062573797
 20
490.4362766527256
 30
0.0
 10
453.3292884625536
 20
490.7624564747848
 30
0.0
 10
454.4866806116468
 20
491.2780955639244
 30
0.0
 10
455.5425747741209
 20
491.9804779138975
 30
0.0
 10
456.4616893923761
 20
492.8519241311242
 30
0.0
 10
457.2253569678938
 20
493.8627213413207
 30
0.0
 10
457.7994153878704
 20
494.9893508887475
 30
0.0
 10
458.2385787944619
 20
496.3229656389516
 30
0.0
 10
458.2999073715511
 20
497.2992153970721
 30
0.0
 10
458.3347694038246
 20
497.8541614302263
 30
0.0
  0
LINE
  5
98
330
1F
100
AcDbEntity
  8
0
  6
Continuous
 62
     7
370
    25
100
AcDbLine
 10
450.8347694038
 20
490.3736212147
 30
0.0
 11
355.8347694038
 21
490.3736212147
 31
0.0
  0
SPLINE
  5
99
330
1F
100
AcDbEntity
  8
0
  6
Continuous
 62
     7
370
    25
100
AcDbSpline
210
0.0
220
0.0
230
1.0
 70
     8
 71
     3
 72
    16
 73
    12
 74
     0
 42
0.00000001
 43
0.00000001
 40
0.0
 40
0.0
 40
0.0
 40
0.0
 40
0.1073489046918582
 40
0.2146965588844276
 40
0.3220511615339227
 40
0.4294056952144177
 40
0.5366630529257149
 40
0.6439207539967771
 40
0.7512209396430521
 40
0.8585212473087821
 40
1.0
 40
1.0
 40
1.0
 40
1.0
 10
348.3347694038246
 20
497.8541614302263
 30
0.0
 10
348.3557037760095
 20
497.4331494747814
 30
0.0
 10
348.3975722765164
 20
496.5911304682281
 30
0.0
 10
348.7247423610405
 20
495.3638441415046
 30
0.0
 10
349.24224381131
 20
494.209214687631
 30
0.0
 10
349.9469845118073
 20
493.1566033423964
 30
0.0
 10
350.8208503173326
 20
492.2409677161824
 30
0.0
 10
351.834022098936
 20
491.4802280920679
 30
0.0
 10
352.9630953163259
 20
490.9080508396467
 30
0.0
 10
354.3000901255081
 20
490.4697838625369
 30
0.0
 10
355.278407678786
 20
490.4084827113982
 30
0.0
 10
355.8347694038246
 20
490.373621214658
 30
0.0
  0
LINE
  5
9A
330
1F
100
AcDbEntity
  8
0
  6
Continuous
 62
     7
370
    25
100
AcDbLine
 10
348.3347694038
 20
602.1218580778
 30
0.0
 11
348.3347694038
 21
497.8541614302
 31
0.0
  0
LINE
  5
9B
330
1F
100
AcDbEntity
  8
0
  6
Continuous
 62
     7
370
    25
100
AcDbLine
 10
395.8347694038
 20
602.1218580778
 30
0.0
 11
348.3347694038
 21
602.1218580778
 31
0.0
  0
LINE
  5
9C
330
1F
100
AcDbEntity
  8
0
  6
Continuous
 62
     7
370
    25
100
AcDbLine
 10
395.8347694038
 20
598.2012338107
 30
0.0
 11
395.8347694038
 21
602.1218580778
 31
0.0
  0
SPLINE
  5
9D
330
1F
100
AcDbEntity
  8
0
  6
Continuous
 62
     7
370
    25
100
AcDbSpline
210
0.0
220
0.0
230
1.0
 70
     8
 71
     3
 72
    26
 73
    22
 74
     0
 42
0.00000001
 43
0.00000001
 40
0.0
 40
0.0
 40
0.0
 40
0.0
 40
0.0603891970780714
 40
0.1207613073068831
 40
0.1813343944187337
 40
0.2418770248510813
 40
0.2984547266428499
 40
0.355007267888318
 40
0.4067491773954783
 40
0.458480154739618
 40
0.5071124253326688
 40
0.5557454118365684
 40
0.6034187803832985
 40
0.6511007670129141
 40
0.6997825427567991
 40
0.7484781667709318
 40
0.7998700275000026
 40
0.8512784442946157
 40
0.9066859148973199
 40
0.9621084968804395
 40
1.0
 40
1.0
 40
1.0
 40
1.0
 10
410.8347694038246
 20
598.2012338106925
 30
0.0
 10
410.8110973678857
 20
597.8634999078193
 30
0.0
 10
410.7637599939031
 20
597.1881276623483
 30
0.0
 10
410.3864157440396
 20
596.1853368694892
 30
0.0
 10
409.7774034796039
 20
595.2303884739981
 30
0.0
 10
408.9497200068232
 20
594.3742695847533
 30
0.0
 10
407.9350519544327
 20
593.6527283726514
 30
0.0
 10
406.8136712345603
 20
593.097813339008
 30
0.0
 10
405.6048320898041
 20
592.7134161362649
 30
0.0
 10
404.3844135264274
 20
592.4972978424897
 30
0.0
 10
403.1565082597824
 20
592.4452275761129
 30
0.0
 10
401.967129334863
 20
592.5398653753188
 30
0.0
 10
400.826070115017
 20
592.7795730192565
 30
0.0
 10
399.75316040468
 20
593.1475063195754
 30
0.0
 10
398.7727514134601
 20
593.6394225070712
 30
0.0
 10
397.8894833324243
 20
594.2461492338205
 30
0.0
 10
397.1406212325947
 20
594.9535773099726
 30
0.0
 10
396.5265659628134
 20
595.7610019695903
 30
0.0
 10
396.0933707732642
 20
596.6393931396633
 30
0.0
 10
395.8670853681892
 20
597.4690173652918
 30
0.0
 10
395.844102089125
 20
597.9897734445525
 30
0.0
 10
395.8347694038246
 20
598.2012338106925
 30
0.0
  0
LINE
  5
9E
330
1F
100
AcDbEntity
  8
0
  6
Continuous
 62
     7
370
    25
100
AcDbLine
 10
410.8347694038
 20
602.1218580778
 30
0.0
 11
410.8347694038
 21
598.2012338107
 31
0.0
  0
LINE
  5
9F
330
1F
100
AcDbEntity
  8
0
  6
Continuous
 62
     7
370
    25
100
AcDbLine
 10
458.3347694038
 20
602.1218580778
 30
0.0
 11
410.8347694038
 21
602.1218580778
 31
0.0
  0
LINE
  5
A0
330
1F
100
AcDbEntity
  8
0
  6
Continuous
 62
     7
370
    25
100
AcDbLine
 10
410.8347694038
 20
603.1274276607
 30
0.0
 11
410.8347694038
 21
602.1218580778
 31
0.0
  0
LINE
  5
A1
330
1F
100
AcDbEntity
  8
0
  6
Continuous
 62
     7
370
    25
100
AcDbLine
 10
458.3347694038
 20
603.1274276607
 30
0.0
 11
458.3347694038
 21
602.1218580778
 31
0.0
  0
LINE
  5
A2
330
1F
100
AcDbEntity
  8
0
  6
Continuous
 62
     7
370
    25
100
AcDbLine
 10
395.8347694038
 20
602.1218580778
 30
0.0
 11
395.8347694038
 21
603.1274276607
 31
0.0
  0
LINE
  5
A3
330
1F
100
AcDbEntity
  8
0
  6
Continuous
 62
     7
370
    25
100
AcDbLine
 10
348.3347694038
 20
603.1274276607
 30
0.0
 11
348.3347694038
 21
602.1218580778
 31
0.0
  0
LINE
  5
A4
330
1F
100
AcDbEntity
  8
0
  6
Continuous
 62
     7
370
    25
100
AcDbLine
 10
459.5847694038
 20
602.5274276607
 30
0.0
 11
459.5847694038
 21
595.1274276607
 31
0.0
  0
LINE
  5
A5
330
1F
100
AcDbEntity
  8
0
  6
Continuous
 62
     7
370
    25
100
AcDbLine
 10
410.5847694038
 20
598.8005018645
 30
0.0
 11
410.5847694038
 21
603.3274276607
 31
0.0
  0
LINE
  5
A6
330
1F
100
AcDbEntity
  8
0
  6
Continuous
 62
     7
370
    25
100
AcDbLine
 10
410.5847694038
 20
596.8147681391
 30
0.0
 11
410.5847694038
 21
598.8005018645
 31
0.0
  0
LINE
  5
A7
330
1F
100
AcDbEntity
  8
0
  6
Continuous
 62
     7
370
    25
100
AcDbLine
 10
409.5847694038
 20
595.1274276607
 30
0.0
 11
409.5847694038
 21
602.5274276607
 31
0.0
  0
LINE
  5
A8
330
1F
100
AcDbEntity
  8
0
  6
Continuous
 62
     7
370
    25
100
AcDbLine
 10
458.5847694038
 20
598.8005018645
 30
0.0
 11
458.5847694038
 21
603.3274276607
 31
0.0
  0
LINE
  5
A9
330
1F
100
AcDbEntity
  8
0
  6
Continuous
 62
     7
370
    25
100
AcDbLine
 10
458.5847694038
 20
594.3274276607
 30
0.0
 11
458.5847694038
 21
598.8005018645
 31
0.0
  0
LINE
  5
AA
330
1F
100
AcDbEntity
  8
0
  6
Continuous
 62
     7
370
    25
100
AcDbLine
 10
397.0847694038
 20
602.5274276607
 30
0.0
 11
397.0847694038
 21
595.1274276607
 31
0.0
  0
LINE
  5
AB
330
1F
100
AcDbEntity
  8
0
  6
Continuous
 62
     7
370
    25
100
AcDbLine
 10
347.0847694038
 20
595.1274276607
 30
0.0
 11
347.0847694038
 21
602.5274276607
 31
0.0
  0
LINE
  5
AC
330
1F
100
AcDbEntity
  8
0
  6
Continuous
 62
     7
370
    25
100
AcDbLine
 10
396.0847694038
 20
599.1075805072
 30
0.0
 11
396.0847694038
 21
603.3274276607
 31
0.0
  0
LINE
  5
AD
330
1F
100
AcDbEntity
  8
0
  6
Continuous
 62
     7
370
    25
100
AcDbLine
 10
396.0847694038
 20
596.7872259165
 30
0.0
 11
396.0847694038
 21
599.1075805072
 31
0.0
  0
LINE
  5
AE
330
1F
100
AcDbEntity
  8
0
  6
Continuous
 62
     7
370
    25
100
AcDbLine
 10
348.0847694038
 20
599.1075805072
 30
0.0
 11
348.0847694038
 21
603.3274276607
 31
0.0
  0
LINE
  5
AF
330
1F
100
AcDbEntity
  8
0
  6
Continuous
 62
     7
370
    25
100
AcDbLine
 10
348.0847694038
 20
594.3274276607
 30
0.0
 11
348.0847694038
 21
599.1075805072
 31
0.0
  0
ARC
  5
B0
330
1F
100
AcDbEntity
  8
0
  6
Continuous
 62
     7
370
    25
100
AcDbCircle
 10
459.5499472577
 20
535.0989159863
 30
0.0
 40
9.648265807919271
100
AcDbArc
 50
76.4840450393
 51
97.2354933276
  0
CIRCLE
  5
B1
330
1F
100
AcDbEntity
  8
0
  6
Continuous
 62
     7
370
    25
100
AcDbCircle
 10
403.3689654131
 20
598.8274276607
 30
0.0
 40
5.5
  0
CIRCLE
  5
B2
330
1F
100
AcDbEntity
  8
0
  6
Continuous
 62
     7
370
    25
100
AcDbCircle
 10
403.3689654131
 20
598.8274276607
 30
0.0
 40
6.0
  0
ARC
  5
B3
330
1F
100
AcDbEntity
  8
0
  6
Continuous
 62
     7
370
    25
100
AcDbCircle
 10
403.3689654131
 20
598.8274276607
 30
0.0
 40
6.100000000000033
100
AcDbArc
 50
204.1945371143
 51
335.8054628857
  0
ARC
  5
B4
330
1F
100
AcDbEntity
  8
0
  6
Continuous
 62
     7
370
    25
100
AcDbCircle
 10
403.3689654131
 20
598.8274276607
 30
0.0
 40
6.09999999999996
100
AcDbArc
 50
24.1945371143
 51
155.8054628857
  0
ARC
  5
B5
330
1F
100
AcDbEntity
  8
0
  6
Continuous
 62
     7
370
    25
100
AcDbCircle
 10
403.3689654131
 20
598.8274276607
 30
0.0
 40
22.50000000000003
100
AcDbArc
 50
11.0176344695
 51
168.9823655305
  0
LINE
  5
B6
330
1F
100
AcDbEntity
  8
0
  6
Continuous
 62
     8
370
    25
100
AcDbLine
 10
458.7847694038
 20
594.3274276607
 30
0.0
 11
458.7847694038
 21
603.3274276607
 31
0.0
  0
LINE
  5
B7
330
1F
100
AcDbEntity
  8
0
  6
Continuous
 62
     8
370
    25
100
AcDbLine
 10
410.3847694038
 20
603.3274276607
 30
0.0
 11
410.3847694038
 21
596.2528550773
 31
0.0
  0
LINE
  5
B8
330
1F
100
AcDbEntity
  8
0
  6
Continuous
 62
     8
370
    25
100
AcDbLine
 10
396.2847694038
 20
596.318828626
 30
0.0
 11
396.2847694038
 21
603.3274276607
 31
0.0
  0
LINE
  5
B9
330
1F
100
AcDbEntity
  8
0
  6
Continuous
 62
     8
370
    25
100
AcDbLine
 10
347.8847694038
 20
603.3274276607
 30
0.0
 11
347.8847694038
 21
594.3274276607
 31
0.0
  0
LINE
  5
BA
330
1F
100
AcDbEntity
  8
0
  6
Continuous
 62
     8
370
    25
100
AcDbLine
 10
347.0847694038
 20
527.0484629249
 30
0.0
 11
347.0847694038
 21
532.0484629249
 31
0.0
  0
ARC
  5
BB
330
1F
100
AcDbEntity
  8
0
  6
Continuous
 62
     8
370
    25
100
AcDbCircle
 10
459.6185338469
 20
529.970359869
 30
0.0
 40
7.422658409106098
100
AcDbArc
 50
70.5941338071
 51
99.9595056141
  0
LWPOLYLINE
  5
BC
330
1F
100
AcDbEntity
  8
0
  6
Continuous
 62
     8
370
    25
100
AcDbPolyline
 90
       15
 70
   128
 43
0.0
 10
337.0847695353
 20
536.9713252299
 10
337.1029972186
 20
537.0143493524
 10
337.2472287971
 20
537.0981226121
 10
337.5273097391
 20
537.1745201224
 10
337.9269627582
 20
537.2391019379
 10
338.4229614737
 20
537.2881147981
 10
338.9864802431
 20
537.3187102537
 10
339.5847694038
 20
537.3291102081
 10
340.1830585645
 20
537.3187102537
 10
340.7465773339
 20
537.2881147981
 10
341.2425760494
 20
537.2391019379
 10
341.6422290686
 20
537.1745201224
 10
341.9223100105
 20
537.0981226121
 10
342.0665415891
 20
537.0143493524
 10
342.0847679588
 20
536.9715939587
  0
ARC
  5
BD
330
1F
100
AcDbEntity
  8
0
  6
Continuous
 62
     8
370
    25
100
AcDbCircle
 10
459.6185270965
 20
537.1977453062
 30
0.0
 40
7.420117006497652
100
AcDbArc
 50
70.5871643593
 51
99.9628986344
  0
LWPOLYLINE
  5
BE
330
1F
100
AcDbEntity
  8
0
  6
Continuous
 62
     8
370
    25
100
AcDbPolyline
 90
       15
 70
   128
 43
0.0
 10
337.0847694038
 20
591.404681439
 10
337.1029972186
 20
591.4478216448
 10
337.2472287971
 20
591.5315949045
 10
337.5273097391
 20
591.6079924148
 10
337.9269627582
 20
591.6725742303
 10
338.4229614737
 20
591.7215870905
 10
338.9864802431
 20
591.7521825461
 10
339.5847694038
 20
591.7625825005
 10
340.1830585645
 20
591.7521825461
 10
340.7465773339
 20
591.7215870905
 10
341.2425760494
 20
591.6725742303
 10
341.6422290686
 20
591.6079924148
 10
341.9223100105
 20
591.5315949045
 10
342.0665415891
 20
591.4478216448
 10
342.0847694038
 20
591.404681439
  0
ARC
  5
BF
330
1F
100
AcDbEntity
  8
0
  6
Continuous
 62
     8
370
    25
100
AcDbCircle
 10
403.3689654131
 20
598.8274276607
 30
0.0
 40
21.50000000000002
100
AcDbArc
 50
11.5369590328
 51
168.4630409672
  0
LINE
  5
C0
330
1F
100
AcDbEntity
  8
0
  6
Continuous
 62
     7
370
    25
100
AcDbLine
 10
572.8585576773
 20
598.4695265992
 30
0.0
 11
573.9322608618
 21
591.0467803775
 31
0.0
  0
LINE
  5
C1
330
1F
100
AcDbEntity
  8
0
  6
Continuous
 62
     7
370
    25
100
AcDbLine
 10
578.880758343
 20
591.7625825005
 30
0.0
 11
577.8070551585
 21
599.1853287222
 31
0.0
  0
LINE
  5
C2
330
1F
100
AcDbEntity
  8
0
  6
Continuous
 62
     7
370
    25
100
AcDbLine
 10
586.7545816959
 20
537.3291102081
 30
0.0
 11
578.880758343
 21
591.7625825005
 31
0.0
  0
LINE
  5
C3
330
1F
100
AcDbEntity
  8
0
  6
Continuous
 62
     7
370
    25
100
AcDbLine
 10
573.9322608618
 20
591.0467803775
 30
0.0
 11
581.8060842148
 21
536.6133080851
 31
0.0
  0
LINE
  5
C4
330
1F
100
AcDbEntity
  8
0
  6
Continuous
 62
     7
370
    25
100
AcDbLine
 10
581.8060842148
 20
536.6133080851
 30
0.0
 11
582.8797873993
 21
529.1905618634
 31
0.0
  0
LINE
  5
C5
330
1F
100
AcDbEntity
  8
0
  6
Continuous
 62
     7
370
    25
100
AcDbLine
 10
587.8282848804
 20
529.9063639864
 30
0.0
 11
586.7545816959
 21
537.3291102081
 31
0.0
  0
LINE
  5
C6
330
1F
100
AcDbEntity
  8
0
  6
Continuous
 62
     7
370
    25
100
AcDbLine
 10
551.3328064179
 20
592.8274276607
 30
0.0
 11
573.6746895262
 21
592.8274276607
 31
0.0
  0
LINE
  5
C7
330
1F
100
AcDbEntity
  8
0
  6
Continuous
 62
     7
370
    25
100
AcDbLine
 10
578.7267280683
 20
592.8274276607
 30
0.0
 11
580.8328064179
 21
592.8274276607
 31
0.0
  0
LINE
  5
C8
330
1F
100
AcDbEntity
  8
0
  6
Continuous
 62
     7
370
    25
100
AcDbLine
 10
580.8328064179
 20
604.8274276607
 30
0.0
 11
551.3328064179
 21
604.8274276607
 31
0.0
  0
ARC
  5
C9
330
1F
100
AcDbEntity
  8
0
  6
Continuous
 62
     7
370
    25
100
AcDbCircle
 10
580.8328064179
 20
604.3274276607
 30
0.0
 40
0.5
100
AcDbArc
 50
0.0
 51
90.0
  0
ARC
  5
CA
330
1F
100
AcDbEntity
  8
0
  6
Continuous
 62
     7
370
    25
100
AcDbCircle
 10
580.8328064179
 20
593.3274276607
 30
0.0
 40
0.4999999999998863
100
AcDbArc
 50
270.0
 51
0.0
  0
LINE
  5
CB
330
1F
100
AcDbEntity
  8
0
  6
Continuous
 62
     7
370
    25
100
AcDbLine
 10
536.3328064179
 20
576.3274276607
 30
0.0
 11
550.3328064179
 21
576.3274276607
 31
0.0
  0
LINE
  5
CC
330
1F
100
AcDbEntity
  8
0
  6
Continuous
 62
     7
370
    25
100
AcDbLine
 10
550.3328064179
 20
621.3274276607
 30
0.0
 11
536.3328064179
 21
621.3274276607
 31
0.0
  0
ARC
  5
CD
330
1F
100
AcDbEntity
  8
0
  6
Continuous
 62
     7
370
    25
100
AcDbCircle
 10
550.3328064179
 20
620.3274276607
 30
0.0
 40
1.0
100
AcDbArc
 50
0.0
 51
90.0
  0
ARC
  5
CE
330
1F
100
AcDbEntity
  8
0
  6
Continuous
 62
     7
370
    25
100
AcDbCircle
 10
550.3328064179
 20
577.3274276607
 30
0.0
 40
1.0
100
AcDbArc
 50
270.0
 51
0.0
  0
LINE
  5
CF
330
1F
100
AcDbEntity
  8
0
  6
Continuous
 62
     7
370
    25
100
AcDbLine
 10
623.1017601435
 20
490.3736212147
 30
0.0
 11
622.6046245287
 21
490.4270644606
 31
0.0
  0
SPLINE
  5
D0
330
1F
100
AcDbEntity
  8
0
  6
Continuous
 62
     7
370
    25
100
AcDbSpline
210
0.0
220
0.0
230
1.0
 70
     8
 71
     3
 72
    16
 73
    12
 74
     0
 42
0.00000001
 43
0.00000001
 40
0.0
 40
0.0
 40
0.0
 40
0.0
 40
0.1058260902301084
 40
0.2147209633929202
 40
0.3205471119449673
 40
0.4294430350898879
 40
0.5352517744213285
 40
0.6441325117997547
 40
0.7498783773166532
 40
0.8586916456038094
 40
1.0
 40
1.0
 40
1.0
 40
1.0
 10
622.6046245287225
 20
490.4270644605829
 30
0.0
 10
622.6067734315042
 20
490.4469787978057
 30
0.0
 10
622.6111335517213
 20
490.4873849553472
 30
0.0
 10
622.6457056606229
 20
490.8125467809184
 30
0.0
 10
622.6986464856726
 20
491.3272599238671
 30
0.0
 10
622.7672528171106
 20
492.0270219604237
 30
0.0
 10
622.8472577814115
 20
492.8997600457767
 30
0.0
 10
622.9320652236421
 20
493.9064116510704
 30
0.0
 10
623.0173128150801
 20
495.0365405367892
 30
0.0
 10
623.1067487982216
 20
496.3706079842856
 30
0.0
 10
623.1578746419929
 20
497.3527995009281
 30
0.0
 10
623.1867586256044
 20
497.9076970161036
 30
0.0
  0
LINE
  5
D1
330
1F
100
AcDbEntity
  8
0
  6
Continuous
 62
     7
370
    25
100
AcDbLine
 10
623.1867586256
 20
497.9076970161
 30
0.0
 11
623.6847531979
 21
497.8541614302
 31
0.0
  0
SPLINE
  5
D2
330
1F
100
AcDbEntity
  8
0
  6
Continuous
 62
     7
370
    25
100
AcDbSpline
210
0.0
220
0.0
230
1.0
 70
     8
 71
     3
 72
    16
 73
    12
 74
     0
 42
0.00000001
 43
0.00000001
 40
0.0
 40
0.0
 40
0.0
 40
0.0
 40
0.1058166385875708
 40
0.2146980790447692
 40
0.3205162522565913
 40
0.429408800567218
 40
0.5351351714037734
 40
0.6439253364155803
 40
0.7496941877062755
 40
0.8585272760481604
 40
1.0
 40
1.0
 40
1.0
 40
1.0
 10
623.6847531979063
 20
497.8541614302263
 30
0.0
 10
623.6634392574122
 20
497.4390995315311
 30
0.0
 10
623.620194053803
 20
496.5969541607841
 30
0.0
 10
623.5421466944158
 20
495.3754154214486
 30
0.0
 10
623.4578249072755
 20
494.2138956372467
 30
0.0
 10
623.372334947197
 20
493.1664194082646
 30
0.0
 10
623.2898858882907
 20
492.2439587480464
 30
0.0
 10
623.2171219407411
 20
491.4871512317157
 30
0.0
 10
623.1585074479909
 20
490.9091188519134
 30
0.0
 10
623.1122697671915
 20
490.4706738378254
 30
0.0
 10
623.1055552086963
 20
490.4086672871094
 30
0.0
 10
623.1017601434847
 20
490.373621214658
 30
0.0
  0
ARC
  5
D3
330
1F
100
AcDbEntity
  8
0
  6
Continuous
 62
     7
370
    25
100
AcDbCircle
 10
495.8350427644
 20
504.0550921714
 30
0.0
 40
127.5000000000001
100
AcDbArc
 50
357.2364203425
 51
48.9093994338
  0
ARC
  5
D4
330
1F
100
AcDbEntity
  8
0
  6
Continuous
 62
     7
370
    25
100
AcDbCircle
 10
495.8350427644
 20
504.0550921714
 30
0.0
 40
128.0000000000001
100
AcDbArc
 50
357.2232322045
 51
49.4050321405
  0
ARC
  5
D5
330
1F
100
AcDbEntity
  8
0
  6
Continuous
 62
     7
370
    25
100
AcDbCircle
 10
575.3328064179
 20
598.8274276607
 30
0.0
 40
2.600000000000146
100
AcDbArc
 50
352.2883993234
 51
183.56932505
  0
LWPOLYLINE
  5
D6
330
1F
100
AcDbEntity
  8
0
  6
Continuous
 62
     7
370
    25
100
AcDbPolyline
 90
        3
 70
   128
 43
0.0
 10
572.9607946699
 20
597.7627397874
 10
572.8519917035
 20
598.0492513612
 10
572.7378498924
 20
598.6655615715
  0
ARC
  5
D7
330
1F
100
AcDbEntity
  8
0
  6
Continuous
 62
     7
370
    25
100
AcDbCircle
 10
575.3328064179
 20
598.8274276607
 30
0.0
 40
4.500000000000038
100
AcDbArc
 50
311.9797565249
 51
183.56932505
  0
ARC
  5
D8
330
1F
100
AcDbEntity
  8
0
  6
Continuous
 62
     7
370
    25
100
AcDbCircle
 10
575.3328064179
 20
598.8274276607
 30
0.0
 40
4.500000000000019
100
AcDbArc
 50
183.56932505
 51
244.4817793331
  0
ARC
  5
D9
330
1F
100
AcDbEntity
  8
0
  6
Continuous
 62
     7
370
    25
100
AcDbCircle
 10
575.3328064179
 20
598.8274276607
 30
0.0
 40
2.500000000000081
100
AcDbArc
 50
8.230767929
 51
188.230767929
  0
ARC
  5
DA
330
1F
100
AcDbEntity
  8
0
  6
Continuous
 62
     7
370
    25
100
AcDbCircle
 10
585.3540361398
 20
529.5484629249
 30
0.0
 40
2.500000000000081
100
AcDbArc
 50
188.230767929
 51
8.230767929
  0
LINE
  5
DB
330
1F
100
AcDbEntity
  8
0
  6
Continuous
 62
     7
370
    25
100
AcDbLine
 10
581.3328064179
 20
604.3274276607
 30
0.0
 11
581.3328064179
 21
599.3133328136
 31
0.0
  0
LINE
  5
DC
330
1F
100
AcDbEntity
  8
0
  6
Continuous
 62
     7
370
    25
100
AcDbLine
 10
581.3328064179
 20
598.6404103252
 30
0.0
 11
581.3328064179
 21
593.3274276607
 31
0.0
  0
LINE
  5
DD
330
1F
100
AcDbEntity
  8
0
  6
Continuous
 62
     7
370
    25
100
AcDbLine
 10
536.3328064179
 20
621.3274276607
 30
0.0
 11
536.3328064179
 21
576.3274276607
 31
0.0
  0
LINE
  5
DE
330
1F
100
AcDbEntity
  8
0
  6
Continuous
 62
     7
370
    25
100
AcDbLine
 10
551.3328064179
 20
620.3274276607
 30
0.0
 11
551.3328064179
 21
577.3274276607
 31
0.0
  0
ARC
  5
DF
330
1F
100
AcDbEntity
  8
0
  6
Continuous
 62
     8
370
    25
100
AcDbCircle
 10
575.3328064179
 20
598.8274276607
 30
0.0
 40
3.699999999999928
100
AcDbArc
 50
183.56932505
 51
235.7241256263
  0
ARC
  5
E0
330
1F
100
AcDbEntity
  8
0
  6
Continuous
 62
     8
370
    25
100
AcDbCircle
 10
575.3328064179
 20
598.8274276607
 30
0.0
 40
3.700000000000041
100
AcDbArc
 50
320.7374102317
 51
183.56932505
  0
LINE
  5
E1
330
1F
100
AcDbEntity
  8
0
  6
Continuous
 62
     8
370
    25
100
AcDbLine
 10
573.9322608618
 20
591.0467803775
 30
0.0
 11
578.880758343
 21
591.7625825005
 31
0.0
  0
LINE
  5
E2
330
1F
100
AcDbEntity
  8
0
  6
Continuous
 62
     8
370
    25
100
AcDbLine
 10
581.8060842148
 20
536.6133080851
 30
0.0
 11
586.7545816959
 21
537.3291102081
 31
0.0
  0
LINE
  5
E3
330
1F
100
AcDbEntity
  8
0
  6
Continuous
 62
     8
370
    25
100
AcDbLine
 10
580.8328064179
 20
592.8274276607
 30
0.0
 11
580.8328064179
 21
599.0899814169
 31
0.0
  0
LINE
  5
E4
330
1F
100
AcDbEntity
  8
0
  6
Continuous
 62
     8
370
    25
100
AcDbLine
 10
580.8328064179
 20
599.7597429147
 30
0.0
 11
580.8328064179
 21
604.8274276607
 31
0.0
  0
LINE
  5
E5
330
1F
100
AcDbEntity
  8
0
  6
Continuous
 62
     8
370
    25
100
AcDbLine
 10
550.3328064179
 20
576.3274276607
 30
0.0
 11
550.3328064179
 21
621.3274276607
 31
0.0
  0
LINE
  5
E6
330
1F
100
AcDbEntity
  8
0
  6
Continuous
 62
     7
370
    25
100
AcDbLine
 10
348.3347694038
 20
337.6115151659
 30
0.0
 11
458.3347694038
 21
337.6115151659
 31
0.0
  0
LINE
  5
E7
330
1F
100
AcDbEntity
  8
0
  6
Continuous
 62
     7
370
    25
100
AcDbLine
 10
458.3347694038
 20
390.4137515124
 30
0.0
 11
410.8347694038
 21
390.4137515124
 31
0.0
  0
LINE
  5
E8
330
1F
100
AcDbEntity
  8
0
  6
Continuous
 62
     7
370
    25
100
AcDbLine
 10
395.8347694038
 20
390.4137515124
 30
0.0
 11
348.3347694038
 21
390.4137515124
 31
0.0
  0
ARC
  5
E9
330
1F
100
AcDbEntity
  8
0
  6
Continuous
 62
     7
370
    25
100
AcDbCircle
 10
458.7847694038
 20
389.8137515124
 30
0.0
 40
0.8000000000000114
100
AcDbArc
 50
0.0
 51
90.0
  0
ARC
  5
EA
330
1F
100
AcDbEntity
  8
0
  6
Continuous
 62
     7
370
    25
100
AcDbCircle
 10
458.7847694038
 20
382.4137515124
 30
0.0
 40
0.8000000000000114
100
AcDbArc
 50
270.0
 51
360.0
  0
LINE
  5
EB
330
1F
100
AcDbEntity
  8
0
  6
Continuous
 62
     7
370
    25
100
AcDbLine
 10
410.3847694038
 20
381.6137515124
 30
0.0
 11
410.5847694038
 21
381.6137515124
 31
0.0
  0
LINE
  5
EC
330
1F
100
AcDbEntity
  8
0
  6
Continuous
 62
     7
370
    25
100
AcDbLine
 10
410.5847694038
 20
390.6137515124
 30
0.0
 11
410.3847694038
 21
390.6137515124
 31
0.0
  0
LINE
  5
ED
330
1F
100
AcDbEntity
  8
0
  6
Continuous
 62
     7
370
    25
100
AcDbLine
 10
458.7847694038
 20
390.6137515124
 30
0.0
 11
458.5847694038
 21
390.6137515124
 31
0.0
  0
LINE
  5
EE
330
1F
100
AcDbEntity
  8
0
  6
Continuous
 62
     7
370
    25
100
AcDbLine
 10
458.5847694038
 20
381.6137515124
 30
0.0
 11
458.7847694038
 21
381.6137515124
 31
0.0
  0
ARC
  5
EF
330
1F
100
AcDbEntity
  8
0
  6
Continuous
 62
     7
370
    25
100
AcDbCircle
 10
410.3847694038
 20
389.8137515124
 30
0.0
 40
0.8000000000000114
100
AcDbArc
 50
90.0
 51
180.0
  0
ARC
  5
F0
330
1F
100
AcDbEntity
  8
0
  6
Continuous
 62
     7
370
    25
100
AcDbCircle
 10
410.3847694038
 20
382.4137515124
 30
0.0
 40
0.8000000000000114
100
AcDbArc
 50
180.0
 51
270.0
  0
LINE
  5
F1
330
1F
100
AcDbEntity
  8
0
  6
Continuous
 62
     7
370
    25
100
AcDbLine
 10
410.5847694038
 20
382.5137515124
 30
0.0
 11
410.8347694038
 21
382.5137515124
 31
0.0
  0
LINE
  5
F2
330
1F
100
AcDbEntity
  8
0
  6
Continuous
 62
     7
370
    25
100
AcDbLine
 10
458.3347694038
 20
382.5137515124
 30
0.0
 11
458.5847694038
 21
382.5137515124
 31
0.0
  0
LINE
  5
F3
330
1F
100
AcDbEntity
  8
0
  6
Continuous
 62
     7
370
    25
100
AcDbLine
 10
458.5847694038
 20
389.7137515124
 30
0.0
 11
458.3347694038
 21
389.7137515124
 31
0.0
  0
LINE
  5
F4
330
1F
100
AcDbEntity
  8
0
  6
Continuous
 62
     7
370
    25
100
AcDbLine
 10
410.8347694038
 20
389.7137515124
 30
0.0
 11
410.5847694038
 21
389.7137515124
 31
0.0
  0
ARC
  5
F5
330
1F
100
AcDbEntity
  8
0
  6
Continuous
 62
     7
370
    25
100
AcDbCircle
 10
396.2847694038
 20
389.8137515124
 30
0.0
 40
0.8000000000000114
100
AcDbArc
 50
0.0
 51
90.0
  0
ARC
  5
F6
330
1F
100
AcDbEntity
  8
0
  6
Continuous
 62
     7
370
    25
100
AcDbCircle
 10
396.2847694038
 20
382.4137515124
 30
0.0
 40
0.8000000000000114
100
AcDbArc
 50
270.0
 51
360.0
  0
ARC
  5
F7
330
1F
100
AcDbEntity
  8
0
  6
Continuous
 62
     7
370
    25
100
AcDbCircle
 10
347.8847694038
 20
389.8137515124
 30
0.0
 40
0.8000000000000114
100
AcDbArc
 50
90.0
 51
180.0
  0
ARC
  5
F8
330
1F
100
AcDbEntity
  8
0
  6
Continuous
 62
     7
370
    25
100
AcDbCircle
 10
347.8847694038
 20
382.4137515124
 30
0.0
 40
0.8000000000000114
100
AcDbArc
 50
180.0
 51
270.0
  0
LINE
  5
F9
330
1F
100
AcDbEntity
  8
0
  6
Continuous
 62
     7
370
    25
100
AcDbLine
 10
396.2847694038
 20
390.6137515124
 30
0.0
 11
396.0847694038
 21
390.6137515124
 31
0.0
  0
LINE
  5
FA
330
1F
100
AcDbEntity
  8
0
  6
Continuous
 62
     7
370
    25
100
AcDbLine
 10
396.0847694038
 20
381.6137515124
 30
0.0
 11
396.2847694038
 21
381.6137515124
 31
0.0
  0
LINE
  5
FB
330
1F
100
AcDbEntity
  8
0
  6
Continuous
 62
     7
370
    25
100
AcDbLine
 10
347.8847694038
 20
381.6137515124
 30
0.0
 11
348.0847694038
 21
381.6137515124
 31
0.0
  0
LINE
  5
FC
330
1F
100
AcDbEntity
  8
0
  6
Continuous
 62
     7
370
    25
100
AcDbLine
 10
348.0847694038
 20
390.6137515124
 30
0.0
 11
347.8847694038
 21
390.6137515124
 31
0.0
  0
LINE
  5
FD
330
1F
100
AcDbEntity
  8
0
  6
Continuous
 62
     7
370
    25
100
AcDbLine
 10
348.0847694038
 20
382.5137515124
 30
0.0
 11
348.3347694038
 21
382.5137515124
 31
0.0
  0
LINE
  5
FE
330
1F
100
AcDbEntity
  8
0
  6
Continuous
 62
     7
370
    25
100
AcDbLine
 10
395.8347694038
 20
382.5137515124
 30
0.0
 11
396.0847694038
 21
382.5137515124
 31
0.0
  0
LINE
  5
FF
330
1F
100
AcDbEntity
  8
0
  6
Continuous
 62
     7
370
    25
100
AcDbLine
 10
396.0847694038
 20
389.7137515124
 30
0.0
 11
395.8347694038
 21
389.7137515124
 31
0.0
  0
LINE
  5
100
330
1F
100
AcDbEntity
  8
0
  6
Continuous
 62
     7
370
    25
100
AcDbLine
 10
348.3347694038
 20
389.7137515124
 30
0.0
 11
348.0847694038
 21
389.7137515124
 31
0.0
  0
SPLINE
  5
101
330
1F
100
AcDbEntity
  8
0
  6
Continuous
 62
     7
370
    25
100
AcDbSpline
210
0.0
220
0.0
230
1.0
 70
     8
 71
     3
 72
    24
 73
    20
 74
     0
 42
0.00000001
 43
0.00000001
 40
0.0
 40
0.0
 40
0.0
 40
0.0
 40
0.0378597062275899
 40
0.1099397329780284
 40
0.1821783398297422
 40
0.2547288792165939
 40
0.3278438792812512
 40
0.4019126997329296
 40
0.4776217260675429
 40
0.5563724986618639
 40
0.6416644634905467
 40
0.7089413025451834
 40
0.7561358859495989
 40
0.8001168498446094
 40
0.8420759212358927
 40
0.8835218195105378
 40
0.9250095674991342
 40
0.9666729276410773
 40
1.0
 40
1.0
 40
1.0
 40
1.0
 10
347.0847694038247
 20
388.6137515123611
 30
0.0
 10
346.9044116573463
 20
388.6132150254446
 30
0.0
 10
346.3806758848298
 20
388.6116571362207
 30
0.0
 10
345.5175990282172
 20
388.5943054967954
 30
0.0
 10
344.5149906160975
 20
388.5554766707004
 30
0.0
 10
343.5475286494625
 20
388.4973797600862
 30
0.0
 10
342.6265364134097
 20
388.4204073182722
 30
0.0
 10
341.7601246158442
 20
388.32396286109
 30
0.0
 10
340.9510470795563
 20
388.2060415508225
 30
0.0
 10
340.1897929693416
 20
388.0598073922047
 30
0.0
 10
339.534036112281
 20
387.8885032646662
 30
0.0
 10
338.9966457644549
 20
387.6928529195786
 30
0.0
 10
338.5590419964408
 20
387.4761389300986
 30
0.0
 10
338.1769009101771
 20
387.224927424922
 30
0.0
 10
337.8143796799342
 20
386.8995900105836
 30
0.0
 10
337.4955151523955
 20
386.4940229766021
 30
0.0
 10
337.2515591867249
 20
386.0153803819156
 30
0.0
 10
337.1083007675143
 20
385.5194501080802
 30
0.0
 10
337.0920095213052
 20
385.187550412954
 30
0.0
 10
337.0847694038246
 20
385.040048327868
 30
0.0
  0
SPLINE
  5
102
330
1F
100
AcDbEntity
  8
0
  6
Continuous
 62
     7
370
    25
100
AcDbSpline
210
0.0
220
0.0
230
1.0
 70
     8
 71
     3
 72
    19
 73
    15
 74
     0
 42
0.00000001
 43
0.00000001
 40
0.0
 40
0.0
 40
0.0
 40
0.0
 40
0.0254332191004045
 40
0.0889428273311824
 40
0.1619130495725914
 40
0.2444215297084321
 40
0.3351670393433721
 40
0.4321859018288229
 40
0.5335790298221952
 40
0.6378680120904655
 40
0.7440202136197146
 40
0.8513397375817089
 40
0.959349014557207
 40
1.0
 40
1.0
 40
1.0
 40
1.0
 10
340.9624851995869
 20
383.0849995849225
 30
0.0
 10
340.9601733870617
 20
383.0840401247734
 30
0.0
 10
340.952088718682
 20
383.0806847847339
 30
0.0
 10
341.0446672004658
 20
383.11308008559
 30
0.0
 10
341.2424506764287
 20
383.1648593204955
 30
0.0
 10
341.5701633961957
 20
383.2346318671812
 30
0.0
 10
342.023029497451
 20
383.31094207313
 30
0.0
 10
342.5989167838065
 20
383.3879076236026
 30
0.0
 10
343.2837061373713
 20
383.4591702295737
 30
0.0
 10
344.0597486357121
 20
383.520269939069
 30
0.0
 10
344.9070990410644
 20
383.5680158420878
 30
0.0
 10
345.8051380556245
 20
383.60002989405
 30
0.0
 10
346.5395711141554
 20
383.6125702001029
 30
0.0
 10
346.9676984532753
 20
383.6134978480492
 30
0.0
 10
347.0847694038247
 20
383.613751512361
 30
0.0
  0
LINE
  5
103
330
1F
100
AcDbEntity
  8
0
  6
Continuous
 62
     7
370
    25
100
AcDbLine
 10
397.0847694038
 20
383.6137515124
 30
0.0
 11
397.4108333931
 21
383.6137515124
 31
0.0
  0
LINE
  5
104
330
1F
100
AcDbEntity
  8
0
  6
Continuous
 62
     7
370
    25
100
AcDbLine
 10
409.3271094406
 20
383.6137515124
 30
0.0
 11
409.5847694038
 21
383.6137515124
 31
0.0
  0
LINE
  5
105
330
1F
100
AcDbEntity
  8
0
  6
Continuous
 62
     7
370
    25
100
AcDbLine
 10
409.5847694038
 20
388.6137515124
 30
0.0
 11
409.3270974331
 21
388.6137515124
 31
0.0
  0
LINE
  5
106
330
1F
100
AcDbEntity
  8
0
  6
Continuous
 62
     7
370
    25
100
AcDbLine
 10
397.4108213856
 20
388.6137515124
 30
0.0
 11
397.0847694038
 21
388.6137515124
 31
0.0
  0
LINE
  5
107
330
1F
100
AcDbEntity
  8
0
  6
Continuous
 62
     7
370
    25
100
AcDbLine
 10
342.0847694038
 20
377.1662249749
 30
0.0
 11
342.0847694038
 21
383.3162404361
 31
0.0
  0
LINE
  5
108
330
1F
100
AcDbEntity
  8
0
  6
Continuous
 62
     7
370
    25
100
AcDbLine
 10
337.0847694038
 20
385.0400483279
 30
0.0
 11
337.0847694038
 21
377.1662249749
 31
0.0
  0
LINE
  5
109
330
1F
100
AcDbEntity
  8
0
  6
Continuous
 62
     7
370
    25
100
AcDbLine
 10
462.0847694038
 20
377.1662249749
 30
0.0
 11
462.0847694038
 21
378.2112960745
 31
0.0
  0
SPLINE
  5
10A
330
1F
100
AcDbEntity
  8
0
  6
Continuous
 62
     7
370
    25
100
AcDbSpline
210
0.0
220
0.0
230
1.0
 70
     8
 71
     3
 72
    24
 73
    20
 74
     0
 42
0.00000001
 43
0.00000001
 40
0.0
 40
0.0
 40
0.0
 40
0.0
 40
0.0440021536884425
 40
0.0852001182357141
 40
0.124481236663313
 40
0.1628815720033478
 40
0.2015431090252398
 40
0.2421980161930739
 40
0.2879079440347136
 40
0.3443368329884214
 40
0.4229454544031362
 40
0.5027892261073167
 40
0.5771626815096673
 40
0.6552212970296385
 40
0.7303650262389235
 40
0.8039937411380746
 40
0.8767955276308762
 40
0.949143509820132
 40
0.9999999999999999
 40
0.9999999999999999
 40
0.9999999999999999
 40
0.9999999999999999
 10
337.0847694038246
 20
377.16622497492
 30
0.0
 10
337.097219827771
 20
376.9713037254216
 30
0.0
 10
337.1213272294184
 20
376.593883255926
 30
0.0
 10
337.3017782851854
 20
376.0746358867988
 30
0.0
 10
337.5516191172406
 20
375.6322363797069
 30
0.0
 10
337.8557332096372
 20
375.2668730173691
 30
0.0
 10
338.191284145501
 20
374.9726490110324
 30
0.0
 10
338.5498156756973
 20
374.7363534781125
 30
0.0
 10
338.9450747817689
 20
374.5376302872822
 30
0.0
 10
339.4324105198467
 20
374.3515970712711
 30
0.0
 10
340.030671803798
 20
374.1837994585011
 30
0.0
 10
340.7486983715438
 20
374.0353390745245
 30
0.0
 10
341.5485272308318
 20
373.9100622657488
 30
0.0
 10
342.4139438139727
 20
373.8068177372144
 30
0.0
 10
343.3507657340737
 20
373.7232753712991
 30
0.0
 10
344.3247786484102
 20
373.6604609126379
 30
0.0
 10
345.3298864532592
 20
373.6177505348735
 30
0.0
 10
346.2554380477285
 20
373.5957732533476
 30
0.0
 10
346.8424584263975
 20
373.5934717908731
 30
0.0
 10
347.0847694038246
 20
373.5925217904269
 30
0.0
  0
SPLINE
  5
10B
330
1F
100
AcDbEntity
  8
0
  6
Continuous
 62
     7
370
    25
100
AcDbSpline
210
0.0
220
0.0
230
1.0
 70
     8
 71
     3
 72
    14
 73
    10
 74
     0
 42
0.00000001
 43
0.00000001
 40
0.0
 40
0.0
 40
0.0
 40
0.0
 40
0.0866969899801823
 40
0.2517438829310396
 40
0.4164732511965722
 40
0.5803153602603879
 40
0.7426643292350722
 40
0.902658063995849
 40
1.0
 40
1.0
 40
1.0
 40
1.0
 10
347.0847694038246
 20
378.5925217904269
 30
0.0
 10
346.920858184094
 20
378.5930093614494
 30
0.0
 10
346.4449057096151
 20
378.5944251317369
 30
0.0
 10
345.6626687512467
 20
378.6101591316583
 30
0.0
 10
344.7631227176294
 20
378.6450500583333
 30
0.0
 10
343.9113758552151
 20
378.6960654005094
 30
0.0
 10
343.1333128131412
 20
378.7614186382058
 30
0.0
 10
342.5141623439159
 20
378.8277911490176
 30
0.0
 10
342.2026171035306
 20
378.8741339421787
 30
0.0
 10
342.0847694038245
 20
378.8916639534388
 30
0.0
  0
SPLINE
  5
10C
330
1F
100
AcDbEntity
  8
0
  6
Continuous
 62
     7
370
    25
100
AcDbSpline
210
0.0
220
0.0
230
1.0
 70
     8
 71
     3
 72
    17
 73
    13
 74
     0
 42
0.00000001
 43
0.00000001
 40
0.0
 40
0.0
 40
0.0
 40
0.0
 40
0.1261211684385531
 40
0.2941333911732534
 40
0.426658550968085
 40
0.5196247157731966
 40
0.6062605379969962
 40
0.6889135389273198
 40
0.7705556667214972
 40
0.8522802320990461
 40
0.9343507267594123
 40
0.9999999999999999
 40
0.9999999999999999
 40
0.9999999999999999
 40
0.9999999999999999
 10
458.3347694038246
 20
374.0293101705843
 30
0.0
 10
458.542622140448
 20
374.0672331102749
 30
0.0
 10
459.0273657488732
 20
374.155675066471
 30
0.0
 10
459.6341282190026
 20
374.318166562149
 30
0.0
 10
460.1731159358084
 20
374.5133560807016
 30
0.0
 10
460.6104499867629
 20
374.7301478811193
 30
0.0
 10
460.9926494501478
 20
374.9813425450232
 30
0.0
 10
461.3551561354114
 20
375.3066841554568
 30
0.0
 10
461.6740244538011
 20
375.712250095812
 30
0.0
 10
461.9179794052868
 20
376.1908929830815
 30
0.0
 10
462.0612380817345
 20
376.6868231827065
 30
0.0
 10
462.0775292991433
 20
377.0187228861413
 30
0.0
 10
462.0847694038246
 20
377.1662249749198
 30
0.0
  0
LINE
  5
10D
330
1F
100
AcDbEntity
  8
0
  6
Continuous
 62
     7
370
    25
100
AcDbLine
 10
410.7556913011
 20
378.5925217904
 30
0.0
 11
395.9240609949
 21
378.5925217904
 31
0.0
  0
LINE
  5
10E
330
1F
100
AcDbEntity
  8
0
  6
Continuous
 62
     7
370
    25
100
AcDbLine
 10
348.3347694038
 20
378.5925217904
 30
0.0
 11
347.0847694038
 21
378.5925217904
 31
0.0
  0
LINE
  5
10F
330
1F
100
AcDbEntity
  8
0
  6
Continuous
 62
     7
370
    25
100
AcDbLine
 10
347.0847694038
 20
373.5925217904
 30
0.0
 11
348.3347694038
 21
373.5925217904
 31
0.0
  0
LINE
  5
110
330
1F
100
AcDbEntity
  8
0
  6
Continuous
 62
     7
370
    25
100
AcDbLine
 10
397.3689654131
 20
383.5137515124
 30
0.0
 11
397.3689654131
 21
380.6137515124
 31
0.0
  0
LINE
  5
111
330
1F
100
AcDbEntity
  8
0
  6
Continuous
 62
     7
370
    25
100
AcDbLine
 10
397.3689654131
 20
410.1137515124
 30
0.0
 11
397.3689654131
 21
388.6801428633
 31
0.0
  0
LINE
  5
112
330
1F
100
AcDbEntity
  8
0
  6
Continuous
 62
     7
370
    25
100
AcDbLine
 10
409.3689654131
 20
388.7137515124
 30
0.0
 11
409.3689654131
 21
410.1137515124
 31
0.0
  0
LINE
  5
113
330
1F
100
AcDbEntity
  8
0
  6
Continuous
 62
     7
370
    25
100
AcDbLine
 10
409.3689654131
 20
380.6137515124
 30
0.0
 11
409.3689654131
 21
383.5473601615
 31
0.0
  0
ARC
  5
114
330
1F
100
AcDbEntity
  8
0
  6
Continuous
 62
     7
370
    25
100
AcDbCircle
 10
408.8689654131
 20
380.6137515124
 30
0.0
 40
0.5
100
AcDbArc
 50
270.0
 51
0.0
  0
ARC
  5
115
330
1F
100
AcDbEntity
  8
0
  6
Continuous
 62
     7
370
    25
100
AcDbCircle
 10
397.8689654131
 20
380.6137515124
 30
0.0
 40
0.5
100
AcDbArc
 50
180.0
 51
270.0
  0
LINE
  5
116
330
1F
100
AcDbEntity
  8
0
  6
Continuous
 62
     7
370
    25
100
AcDbLine
 10
380.8689654131
 20
425.1137515124
 30
0.0
 11
380.8689654131
 21
411.1137515124
 31
0.0
  0
LINE
  5
117
330
1F
100
AcDbEntity
  8
0
  6
Continuous
 62
     7
370
    25
100
AcDbLine
 10
425.8689654131
 20
411.1137515124
 30
0.0
 11
425.8689654131
 21
425.1137515124
 31
0.0
  0
ARC
  5
118
330
1F
100
AcDbEntity
  8
0
  6
Continuous
 62
     7
370
    25
100
AcDbCircle
 10
424.8689654131
 20
411.1137515124
 30
0.0
 40
1.000000000000057
100
AcDbArc
 50
270.0
 51
0.0
  0
ARC
  5
119
330
1F
100
AcDbEntity
  8
0
  6
Continuous
 62
     7
370
    25
100
AcDbCircle
 10
381.8689654131
 20
411.1137515124
 30
0.0
 40
1.0
100
AcDbArc
 50
180.0
 51
270.0
  0
LINE
  5
11A
330
1F
100
AcDbEntity
  8
0
  6
Continuous
 62
     7
370
    25
100
AcDbLine
 10
395.8347694038
 20
383.3502884266
 30
0.0
 11
348.3347694038
 21
383.3502884266
 31
0.0
  0
LINE
  5
11B
330
1F
100
AcDbEntity
  8
0
  6
Continuous
 62
     7
370
    25
100
AcDbLine
 10
395.8347694038
 20
378.8906756033
 30
0.0
 11
395.8347694038
 21
383.3502884266
 31
0.0
  0
SPLINE
  5
11C
330
1F
100
AcDbEntity
  8
0
  6
Continuous
 62
     7
370
    25
100
AcDbSpline
210
0.0
220
0.0
230
1.0
 70
     8
 71
     3
 72
    26
 73
    22
 74
     0
 42
0.00000001
 43
0.00000001
 40
0.0
 40
0.0
 40
0.0
 40
0.0
 40
0.0595469252212942
 40
0.12076222950453
 40
0.1803379195710557
 40
0.2418815302392187
 40
0.297489043932076
 40
0.3550165005520827
 40
0.4059207959517462
 40
0.4584933400230112
 40
0.5071241057084007
 40
0.5557555872824853
 40
0.603427480594424
 40
0.651107991722565
 40
0.6997882610268704
 40
0.7484823781728936
 40
0.7998726485998046
 40
0.8512794745799362
 40
0.9060113085836521
 40
0.9621096694190165
 40
1.0
 40
1.0
 40
1.0
 40
1.0
 10
410.8347694038246
 20
378.8906756033289
 30
0.0
 10
410.8121231703428
 20
378.5315870215128
 30
0.0
 10
410.7661962037532
 20
377.8033489543316
 30
0.0
 10
410.3905234283289
 20
376.7589575776109
 30
0.0
 10
409.7833005335719
 20
375.7738143637677
 30
0.0
 10
408.9592300764734
 20
374.9187280612314
 30
0.0
 10
407.9428167633227
 20
374.1999826592439
 30
0.0
 10
406.8261789464552
 20
373.6631550550144
 30
0.0
 10
405.6122118848242
 20
373.2876578640931
 30
0.0
 10
404.3912001493407
 20
373.0811466383292
 30
0.0
 10
403.1565503148513
 20
373.0306567000295
 30
0.0
 10
401.9671183823908
 20
373.1212434965949
 30
0.0
 10
400.826072774618
 20
373.3508273603059
 30
0.0
 10
399.7531606133559
 20
373.7058066647299
 30
0.0
 10
398.7727477662307
 20
374.1848400493741
 30
0.0
 10
397.8894980231253
 20
374.7827423646395
 30
0.0
 10
397.1405627840722
 20
375.4903320718224
 30
0.0
 10
396.5294055882243
 20
376.3078290290154
 30
0.0
 10
396.0938320379265
 20
377.2180032642834
 30
0.0
 10
395.867425937264
 20
378.0951403669536
 30
0.0
 10
395.8441519942389
 20
378.6621093564872
 30
0.0
 10
395.8347694038246
 20
378.8906756033289
 30
0.0
  0
LINE
  5
11D
330
1F
100
AcDbEntity
  8
0
  6
Continuous
 62
     7
370
    25
100
AcDbLine
 10
410.8347694038
 20
383.3502884266
 30
0.0
 11
410.8347694038
 21
378.8906756033
 31
0.0
  0
LINE
  5
11E
330
1F
100
AcDbEntity
  8
0
  6
Continuous
 62
     7
370
    25
100
AcDbLine
 10
458.3347694038
 20
383.3502884266
 30
0.0
 11
410.8347694038
 21
383.3502884266
 31
0.0
  0
LINE
  5
11F
330
1F
100
AcDbEntity
  8
0
  6
Continuous
 62
     7
370
    25
100
AcDbLine
 10
348.3347694038
 20
383.3502884266
 30
0.0
 11
348.3347694038
 21
337.6115151659
 31
0.0
  0
LINE
  5
120
330
1F
100
AcDbEntity
  8
0
  6
Continuous
 62
     7
370
    25
100
AcDbLine
 10
458.3347694038
 20
383.3502884266
 30
0.0
 11
458.3347694038
 21
337.6115151659
 31
0.0
  0
SPLINE
  5
121
330
1F
100
AcDbEntity
  8
0
  6
Continuous
 62
     7
370
    25
100
AcDbSpline
210
0.0
220
0.0
230
1.0
 70
     8
 71
     3
 72
    26
 73
    22
 74
     0
 42
0.00000001
 43
0.00000001
 40
0.0
 40
0.0
 40
0.0
 40
0.0
 40
0.0596097847355107
 40
0.1208894264024887
 40
0.1805282866610751
 40
0.2421399023688603
 40
0.2977659016465751
 40
0.3553155488231904
 40
0.4061959826105399
 40
0.458745507834236
 40
0.5073304371072178
 40
0.5559161088606737
 40
0.6035392472604244
 40
0.6511710725268615
 40
0.699813685218318
 40
0.7484702360951173
 40
0.7998452970219885
 40
0.851237020256824
 40
0.9059869418097559
 40
0.9621021844725246
 40
0.9999999999999999
 40
0.9999999999999999
 40
0.9999999999999999
 40
0.9999999999999999
 10
395.8347694038246
 20
379.404393209391
 30
0.0
 10
395.8574414451464
 20
379.0441631873745
 30
0.0
 10
395.9034206427385
 20
378.3136119711984
 30
0.0
 10
396.2795811887974
 20
377.2659142940503
 30
0.0
 10
396.8877166026888
 20
376.2776641902962
 30
0.0
 10
397.7130001824064
 20
375.4201635849438
 30
0.0
 10
398.7307693801163
 20
374.6997083179425
 30
0.0
 10
399.8483413341898
 20
374.162076271895
 30
0.0
 10
401.0629447121065
 20
373.7863720846428
 30
0.0
 10
402.2839261525801
 20
373.5801436008749
 30
0.0
 10
403.5181923694026
 20
373.5302323850141
 30
0.0
 10
404.7068592491235
 20
373.6215474438899
 30
0.0
 10
405.84698293999
 20
373.8519760451201
 30
0.0
 10
406.9189569065619
 20
374.2078902636673
 30
0.0
 10
407.8984785044435
 20
374.6879576168988
 30
0.0
 10
408.7810510013289
 20
375.2870985230402
 30
0.0
 10
409.5294634042251
 20
375.9961058412479
 30
0.0
 10
410.1403655294063
 20
376.8154188326561
 30
0.0
 10
410.5758026659307
 20
377.7277091358354
 30
0.0
 10
410.8021296513886
 20
378.6069759112668
 30
0.0
 10
410.8253920471154
 20
379.1752962986436
 30
0.0
 10
410.8347694038246
 20
379.404393209391
 30
0.0
  0
LINE
  5
122
330
1F
100
AcDbEntity
  8
0
  6
Continuous
 62
     7
370
    25
100
AcDbLine
 10
410.8347694038
 20
390.4137515124
 30
0.0
 11
410.8347694038
 21
383.3502884266
 31
0.0
  0
LINE
  5
123
330
1F
100
AcDbEntity
  8
0
  6
Continuous
 62
     7
370
    25
100
AcDbLine
 10
458.3347694038
 20
390.4137515124
 30
0.0
 11
458.3347694038
 21
383.3502884266
 31
0.0
  0
LINE
  5
124
330
1F
100
AcDbEntity
  8
0
  6
Continuous
 62
     7
370
    25
100
AcDbLine
 10
395.8347694038
 20
383.3502884266
 30
0.0
 11
395.8347694038
 21
390.4137515124
 31
0.0
  0
LINE
  5
125
330
1F
100
AcDbEntity
  8
0
  6
Continuous
 62
     7
370
    25
100
AcDbLine
 10
348.3347694038
 20
390.4137515124
 30
0.0
 11
348.3347694038
 21
383.3502884266
 31
0.0
  0
LINE
  5
126
330
1F
100
AcDbEntity
  8
0
  6
Continuous
 62
     7
370
    25
100
AcDbLine
 10
459.5847694038
 20
389.8136852773
 30
0.0
 11
459.5847694038
 21
382.4137515124
 31
0.0
  0
LINE
  5
127
330
1F
100
AcDbEntity
  8
0
  6
Continuous
 62
     7
370
    25
100
AcDbLine
 10
410.5847694038
 20
381.6138320685
 30
0.0
 11
410.5847694038
 21
390.6137515124
 31
0.0
  0
LINE
  5
128
330
1F
100
AcDbEntity
  8
0
  6
Continuous
 62
     7
370
    25
100
AcDbLine
 10
458.5847694038
 20
381.6138320685
 30
0.0
 11
458.5847694038
 21
390.6137515124
 31
0.0
  0
LINE
  5
129
330
1F
100
AcDbEntity
  8
0
  6
Continuous
 62
     7
370
    25
100
AcDbLine
 10
409.5847694038
 20
382.4137515124
 30
0.0
 11
409.5847694038
 21
389.8136852773
 31
0.0
  0
LINE
  5
12A
330
1F
100
AcDbEntity
  8
0
  6
Continuous
 62
     7
370
    25
100
AcDbLine
 10
397.0847694038
 20
389.8137515124
 30
0.0
 11
397.0847694038
 21
382.4137515124
 31
0.0
  0
LINE
  5
12B
330
1F
100
AcDbEntity
  8
0
  6
Continuous
 62
     7
370
    25
100
AcDbLine
 10
347.0847694038
 20
382.4137515124
 30
0.0
 11
347.0847694038
 21
389.8137515124
 31
0.0
  0
LINE
  5
12C
330
1F
100
AcDbEntity
  8
0
  6
Continuous
 62
     7
370
    25
100
AcDbLine
 10
396.0847694038
 20
381.6137515124
 30
0.0
 11
396.0847694038
 21
390.6137515124
 31
0.0
  0
LINE
  5
12D
330
1F
100
AcDbEntity
  8
0
  6
Continuous
 62
     7
370
    25
100
AcDbLine
 10
348.0847694038
 20
381.6137515124
 30
0.0
 11
348.0847694038
 21
390.6137515124
 31
0.0
  0
LINE
  5
12E
330
1F
100
AcDbEntity
  8
0
  6
Continuous
 62
     7
370
    25
100
AcDbLine
 10
337.0855147586
 20
385.1004623133
 30
0.0
 11
337.0847694038
 21
385.0400483279
 31
0.0
  0
ARC
  5
12F
330
1F
100
AcDbEntity
  8
0
  6
Continuous
 62
     7
370
    25
100
AcDbCircle
 10
459.6005947106
 20
378.2014008212
 30
0.0
 40
2.484194401097802
100
AcDbArc
 50
0.228225999
 51
90.364999382
  0
ARC
  5
130
330
1F
100
AcDbEntity
  8
0
  6
Continuous
 62
     7
370
    25
100
AcDbCircle
 10
459.5837054338
 20
378.167005629
 30
0.0
 40
2.518539410774343
100
AcDbArc
 50
89.9757951002
 51
119.7289141049
  0
SPLINE
  5
131
330
1F
100
AcDbEntity
  8
0
  6
Continuous
 62
     7
370
    25
100
AcDbSpline
210
0.0
220
0.0
230
1.0
 70
     8
 71
     3
 72
    18
 73
    14
 74
     0
 42
0.00000001
 43
0.00000001
 40
0.0
 40
0.0
 40
0.0
 40
0.0
 40
0.0414100965003782
 40
0.1390783778838935
 40
0.2398549937569149
 40
0.3483843524590679
 40
0.4589081090886366
 40
0.5603668306041394
 40
0.6563915845567722
 40
0.7584768962201165
 40
0.8688485043105529
 40
0.9775092343963313
 40
1.0
 40
1.0
 40
1.0
 40
1.0
 10
409.3544909662644
 20
383.5473601614588
 30
0.0
 10
409.3581244827125
 20
383.5389027893872
 30
0.0
 10
409.3703278731008
 20
383.5104981806498
 30
0.0
 10
409.2722385578164
 20
383.7381868056024
 30
0.0
 10
409.097930287985
 20
384.1967311968355
 30
0.0
 10
408.8938086424526
 20
384.8936637973244
 30
0.0
 10
408.7649019869112
 20
385.7417268748432
 30
0.0
 10
408.7784932854628
 20
386.6057389675257
 30
0.0
 10
408.9086715219314
 20
387.3825372788809
 30
0.0
 10
409.1029222059341
 20
388.0482148754775
 30
0.0
 10
409.2911210426103
 20
388.535642567592
 30
0.0
 10
409.3649161416283
 20
388.7043285114938
 30
0.0
 10
409.368372664627
 20
388.7123721359969
 30
0.0
 10
409.3689654130982
 20
388.7137515123612
 30
0.0
  0
SPLINE
  5
132
330
1F
100
AcDbEntity
  8
0
  6
Continuous
 62
     7
370
    25
100
AcDbSpline
210
0.0
220
0.0
230
1.0
 70
     8
 71
     3
 72
    18
 73
    14
 74
     0
 42
0.00000001
 43
0.00000001
 40
0.0
 40
0.0
 40
0.0
 40
0.0
 40
0.0414100965003784
 40
0.1390783778838935
 40
0.2398549937569148
 40
0.348384352459067
 40
0.4589081090886357
 40
0.5603668306041394
 40
0.6563915845567719
 40
0.7584768962201176
 40
0.8688485043105539
 40
0.9775092343963315
 40
1.0
 40
1.0
 40
1.0
 40
1.0
 10
397.3834398599321
 20
388.6801428632637
 30
0.0
 10
397.379806343484
 20
388.6886002353352
 30
0.0
 10
397.3676029530957
 20
388.7170048440726
 30
0.0
 10
397.4656922683801
 20
388.4893162191201
 30
0.0
 10
397.6400005382116
 20
388.0307718278869
 30
0.0
 10
397.8441221837439
 20
387.3338392273981
 30
0.0
 10
397.9730288392853
 20
386.4857761498793
 30
0.0
 10
397.9594375407337
 20
385.6217640571967
 30
0.0
 10
397.8292593042651
 20
384.8449657458414
 30
0.0
 10
397.6350086202623
 20
384.1792881492449
 30
0.0
 10
397.4468097835863
 20
383.6918604571304
 30
0.0
 10
397.3730146845681
 20
383.5231745132286
 30
0.0
 10
397.3695581615694
 20
383.5151308887256
 30
0.0
 10
397.3689654130982
 20
383.5137515123612
 30
0.0
  0
LINE
  5
133
330
1F
100
AcDbEntity
  8
0
  6
Continuous
 62
     7
370
    25
100
AcDbLine
 10
408.8689654131
 20
380.1137515124
 30
0.0
 11
397.8689654131
 21
380.1137515124
 31
0.0
  0
LINE
  5
134
330
1F
100
AcDbEntity
  8
0
  6
Continuous
 62
     7
370
    25
100
AcDbLine
 10
425.8689654131
 20
425.1137515124
 30
0.0
 11
380.8689654131
 21
425.1137515124
 31
0.0
  0
LINE
  5
135
330
1F
100
AcDbEntity
  8
0
  6
Continuous
 62
     7
370
    25
100
AcDbLine
 10
424.8689654131
 20
410.1137515124
 30
0.0
 11
381.8689654251
 21
410.1137515124
 31
0.0
  0
LINE
  5
136
330
1F
100
AcDbEntity
  8
0
  6
Continuous
 62
     8
370
    25
100
AcDbLine
 10
458.7847694038
 20
381.6137515124
 30
0.0
 11
458.7847694038
 21
390.6136709563
 31
0.0
  0
LINE
  5
137
330
1F
100
AcDbEntity
  8
0
  6
Continuous
 62
     8
370
    25
100
AcDbLine
 10
410.3847694038
 20
390.6136709563
 30
0.0
 11
410.3847694038
 21
381.6137515124
 31
0.0
  0
LINE
  5
138
330
1F
100
AcDbEntity
  8
0
  6
Continuous
 62
     8
370
    25
100
AcDbLine
 10
396.2847694038
 20
381.6137515124
 30
0.0
 11
396.2847694038
 21
390.6137515124
 31
0.0
  0
LINE
  5
139
330
1F
100
AcDbEntity
  8
0
  6
Continuous
 62
     8
370
    25
100
AcDbLine
 10
347.8847694038
 20
390.6137515124
 30
0.0
 11
347.8847694038
 21
381.6137515124
 31
0.0
  0
ARC
  5
13A
330
1F
100
AcDbEntity
  8
0
  6
Continuous
 62
     8
370
    25
100
AcDbCircle
 10
339.5853358872
 20
385.0616989438
 30
0.0
 40
2.50066021022667
100
AcDbArc
 50
180.4960707611
 51
307.6567918366
  0
ARC
  5
13B
330
1F
100
AcDbEntity
  8
0
  6
Continuous
 62
     8
370
    25
100
AcDbCircle
 10
339.5847694038
 20
377.1846564011
 30
0.0
 40
2.50006794257097
100
AcDbArc
 50
180.4224095188
 51
359.5775904812
  0
ARC
  5
13C
330
1F
100
AcDbEntity
  8
0
  6
Continuous
 62
     8
370
    25
100
AcDbCircle
 10
459.5854757409
 20
378.2324772271
 30
0.0
 40
2.499383414900645
100
AcDbArc
 50
239.9731387971
 51
359.5144381727
  0
ARC
  5
13D
330
1F
100
AcDbEntity
  8
0
  6
Continuous
 62
     8
370
    25
100
AcDbCircle
 10
459.5835815705
 20
378.2001854272
 30
0.0
 40
2.316051878093449
100
AcDbArc
 50
89.9706147177
 51
122.6291076727
  0
ARC
  5
13E
330
1F
100
AcDbEntity
  8
0
  6
Continuous
 62
     8
370
    25
100
AcDbCircle
 10
459.5922398149
 20
378.2338739243
 30
0.0
 40
2.28237530213941
100
AcDbArc
 50
236.5679168182
 51
90.1875343587
  0
ARC
  5
13F
330
1F
100
AcDbEntity
  8
0
  6
Continuous
 62
     8
370
    25
100
AcDbCircle
 10
459.5854757409
 20
377.1874061276
 30
0.0
 40
2.499383414900576
100
AcDbArc
 50
239.9731387971
 51
359.5144381727
  0
LINE
  5
140
330
1F
100
AcDbEntity
  8
0
  6
Continuous
 62
     8
370
    25
100
AcDbLine
 10
347.0847694038
 20
373.5925217926
 30
0.0
 11
347.0847694038
 21
378.5925208259
 31
0.0
  0
LINE
  5
141
330
1F
100
AcDbEntity
  8
0
  6
Continuous
 62
     8
370
    25
100
AcDbLine
 10
397.3689654131
 20
380.6137515124
 30
0.0
 11
409.3689654131
 21
380.6137515124
 31
0.0
  0
LINE
  5
142
330
1F
100
AcDbEntity
  8
0
  6
Continuous
 62
     8
370
    25
100
AcDbLine
 10
380.8689654131
 20
411.1137515124
 30
0.0
 11
425.8689654131
 21
411.1137515124
 31
0.0
  0
ENDSEC
  0
SECTION
  2
OBJECTS
  0
DICTIONARY
  5
C
330
0
100
AcDbDictionary
281
     1
  3
ACAD_GROUP
350
D
  3
ACAD_LAYOUT
350
1A
  3
ACAD_MLINESTYLE
350
17
  3
ACAD_PLOTSETTINGS
350
19
  3
ACAD_PLOTSTYLENAME
350
E
  3
ACAD_SCALELIST
350
47
  3
DWGPROPS
350
143
  0
DICTIONARY
  5
D
102
{ACAD_REACTORS
330
C
102
}
330
C
100
AcDbDictionary
281
     1
  0
DICTIONARY
  5
1A
102
{ACAD_REACTORS
330
C
102
}
330
C
100
AcDbDictionary
281
     1
  3
Layout1
350
1E
  3
Layout2
350
26
  3
Model
350
22
  0
DICTIONARY
  5
17
102
{ACAD_REACTORS
330
C
102
}
330
C
100
AcDbDictionary
281
     1
  3
Standard
350
18
  0
DICTIONARY
  5
19
102
{ACAD_REACTORS
330
C
102
}
330
C
100
AcDbDictionary
281
     1
  0
ACDBDICTIONARYWDFLT
  5
E
102
{ACAD_REACTORS
330
C
102
}
330
C
100
AcDbDictionary
281
     1
  3
Normal
350
F
100
AcDbDictionaryWithDefault
340
F
  0
DICTIONARY
  5
47
102
{ACAD_REACTORS
330
C
102
}
330
C
100
AcDbDictionary
281
     1
  3
A0
350
48
  3
A1
350
49
  3
A2
350
4A
  3
A3
350
4B
  3
A4
350
4C
  3
A5
350
4D
  3
A6
350
4E
  3
A7
350
4F
  3
A8
350
50
  3
A9
350
51
  3
B0
350
52
  3
B1
350
53
  3
B2
350
54
  3
B3
350
55
  3
B4
350
56
  3
B5
350
57
  3
B6
350
58
  3
B7
350
59
  3
B8
350
5A
  3
B9
350
5B
  3
C0
350
5C
  3
C1
350
5D
  3
C2
350
5E
  3
C3
350
5F
  3
C4
350
60
  3
C5
350
61
  3
C6
350
62
  3
C7
350
63
  3
C8
350
64
  3
C9
350
65
  3
D0
350
66
  3
D1
350
67
  3
D2
350
68
  0
XRECORD
  5
143
102
{ACAD_REACTORS
330
C
102
}
330
C
100
AcDbXrecord
280
     1
  1
DWGPROPS COOKIE
  2

  3

  4

  6

  7

  8
vyvoj-ws1
  9

300
=
301
=
302
=
303
=
304
=
305
=
306
=
307
=
308
=
309
=
 40
0.0
 41
2459030.483769606
 42
2459030.48376978
  1

 90
        0
  0
LAYOUT
  5
1E
102
{ACAD_REACTORS
330
1A
102
}
330
1A
100
AcDbPlotSettings
  1

  2
none_device
  4

  6

 40
0.0
 41
0.0
 42
0.0
 43
0.0
 44
0.0
 45
0.0
 46
0.0
 47
0.0
 48
0.0
 49
0.0
140
0.0
141
0.0
142
1.0
143
1.0
 70
   688
 72
     1
 73
     0
 74
     5
  7

 75
    16
147
1.0
148
0.0
149
0.0
100
AcDbLayout
  1
Layout1
 70
     1
 71
     1
 10
0.0
 20
0.0
 11
420.0
 21
297.0
 12
0.0
 22
0.0
 32
0.0
 14
1.0000000000E+20
 24
1.0000000000E+20
 34
1.0000000000E+20
 15
-1.0000000000E+20
 25
-1.0000000000E+20
 35
-1.0000000000E+20
146
0.0
 13
0.0
 23
0.0
 33
0.0
 16
1.0
 26
0.0
 36
0.0
 17
0.0
 27
1.0
 37
0.0
 76
     0
330
1B
  0
LAYOUT
  5
26
102
{ACAD_REACTORS
330
1A
102
}
330
1A
100
AcDbPlotSettings
  1

  2
none_device
  4

  6

 40
0.0
 41
0.0
 42
0.0
 43
0.0
 44
0.0
 45
0.0
 46
0.0
 47
0.0
 48
0.0
 49
0.0
140
0.0
141
0.0
142
1.0
143
1.0
 70
   688
 72
     1
 73
     0
 74
     5
  7

 75
    16
147
1.0
148
0.0
149
0.0
100
AcDbLayout
  1
Layout2
 70
     1
 71
     2
 10
0.0
 20
0.0
 11
0.0
 21
0.0
 12
0.0
 22
0.0
 32
0.0
 14
0.0
 24
0.0
 34
0.0
 15
0.0
 25
0.0
 35
0.0
146
0.0
 13
0.0
 23
0.0
 33
0.0
 16
1.0
 26
0.0
 36
0.0
 17
0.0
 27
1.0
 37
0.0
 76
     0
330
23
  0
LAYOUT
  5
22
102
{ACAD_REACTORS
330
1A
102
}
330
1A
100
AcDbPlotSettings
  1

  2
none_device
  4
Letter_(8.50_x_11.00_Inches)
  6

 40
6.35
 41
6.35
 42
6.35000508
 43
6.35000508
 44
215.9
 45
279.4
 46
0.0
 47
0.0
 48
0.0
 49
0.0
140
0.0
141
0.0
142
1.0
143
1.0
 70
  1712
 72
     1
 73
     0
 74
     0
  7

 75
     0
147
1.0
148
0.0
149
0.0
100
AcDbLayout
  1
Model
 70
     1
 71
     0
 10
0.0
 20
0.0
 11
1189.0
 21
841.0
 12
0.0
 22
0.0
 32
0.0
 14
0.0
 24
0.0
 34
0.0
 15
1189.0
 25
841.0
 35
0.0
146
0.0
 13
0.0
 23
0.0
 33
0.0
 16
1.0
 26
0.0
 36
0.0
 17
0.0
 27
1.0
 37
0.0
 76
     0
330
1F
331
29
  0
MLINESTYLE
  5
18
102
{ACAD_REACTORS
330
17
102
}
330
17
100
AcDbMlineStyle
  2
Standard
 70
     0
  3

 62
   256
 51
90.0
 52
90.0
 71
     2
 49
0.5
 62
   256
  6
BYLAYER
 49
-0.5
 62
   256
  6
BYLAYER
  0
ACDBPLACEHOLDER
  5
F
102
{ACAD_REACTORS
330
E
102
}
330
E
  0
SCALE
  5
48
102
{ACAD_REACTORS
330
47
102
}
330
47
100
AcDbScale
 70
     0
300
1:1
140
1.0
141
1.0
290
     1
  0
SCALE
  5
49
102
{ACAD_REACTORS
330
47
102
}
330
47
100
AcDbScale
 70
     0
300
1:2
140
1.0
141
2.0
290
     0
  0
SCALE
  5
4A
102
{ACAD_REACTORS
330
47
102
}
330
47
100
AcDbScale
 70
     0
300
1:4
140
1.0
141
4.0
290
     0
  0
SCALE
  5
4B
102
{ACAD_REACTORS
330
47
102
}
330
47
100
AcDbScale
 70
     0
300
1:5
140
1.0
141
5.0
290
     0
  0
SCALE
  5
4C
102
{ACAD_REACTORS
330
47
102
}
330
47
100
AcDbScale
 70
     0
300
1:8
140
1.0
141
8.0
290
     0
  0
SCALE
  5
4D
102
{ACAD_REACTORS
330
47
102
}
330
47
100
AcDbScale
 70
     0
300
1:10
140
1.0
141
10.0
290
     0
  0
SCALE
  5
4E
102
{ACAD_REACTORS
330
47
102
}
330
47
100
AcDbScale
 70
     0
300
1:16
140
1.0
141
16.0
290
     0
  0
SCALE
  5
4F
102
{ACAD_REACTORS
330
47
102
}
330
47
100
AcDbScale
 70
     0
300
1:20
140
1.0
141
20.0
290
     0
  0
SCALE
  5
50
102
{ACAD_REACTORS
330
47
102
}
330
47
100
AcDbScale
 70
     0
300
1:30
140
1.0
141
30.0
290
     0
  0
SCALE
  5
51
102
{ACAD_REACTORS
330
47
102
}
330
47
100
AcDbScale
 70
     0
300
1:40
140
1.0
141
40.0
290
     0
  0
SCALE
  5
52
102
{ACAD_REACTORS
330
47
102
}
330
47
100
AcDbScale
 70
     0
300
1:50
140
1.0
141
50.0
290
     0
  0
SCALE
  5
53
102
{ACAD_REACTORS
330
47
102
}
330
47
100
AcDbScale
 70
     0
300
1:100
140
1.0
141
100.0
290
     0
  0
SCALE
  5
54
102
{ACAD_REACTORS
330
47
102
}
330
47
100
AcDbScale
 70
     0
300
2:1
140
2.0
141
1.0
290
     0
  0
SCALE
  5
55
102
{ACAD_REACTORS
330
47
102
}
330
47
100
AcDbScale
 70
     0
300
4:1
140
4.0
141
1.0
290
     0
  0
SCALE
  5
56
102
{ACAD_REACTORS
330
47
102
}
330
47
100
AcDbScale
 70
     0
300
8:1
140
8.0
141
1.0
290
     0
  0
SCALE
  5
57
102
{ACAD_REACTORS
330
47
102
}
330
47
100
AcDbScale
 70
     0
300
10:1
140
10.0
141
1.0
290
     0
  0
SCALE
  5
58
102
{ACAD_REACTORS
330
47
102
}
330
47
100
AcDbScale
 70
     0
300
100:1
140
100.0
141
1.0
290
     0
  0
SCALE
  5
59
102
{ACAD_REACTORS
330
47
102
}
330
47
100
AcDbScale
 70
     0
300
1/128" = 1'-0"
140
0.0078125
141
12.0
290
     0
  0
SCALE
  5
5A
102
{ACAD_REACTORS
330
47
102
}
330
47
100
AcDbScale
 70
     0
300
1/64" = 1'-0"
140
0.015625
141
12.0
290
     0
  0
SCALE
  5
5B
102
{ACAD_REACTORS
330
47
102
}
330
47
100
AcDbScale
 70
     0
300
1/32" = 1'-0"
140
0.03125
141
12.0
290
     0
  0
SCALE
  5
5C
102
{ACAD_REACTORS
330
47
102
}
330
47
100
AcDbScale
 70
     0
300
1/16" = 1'-0"
140
0.0625
141
12.0
290
     0
  0
SCALE
  5
5D
102
{ACAD_REACTORS
330
47
102
}
330
47
100
AcDbScale
 70
     0
300
3/32" = 1'-0"
140
0.09375
141
12.0
290
     0
  0
SCALE
  5
5E
102
{ACAD_REACTORS
330
47
102
}
330
47
100
AcDbScale
 70
     0
300
1/8" = 1'-0"
140
0.125
141
12.0
290
     0
  0
SCALE
  5
5F
102
{ACAD_REACTORS
330
47
102
}
330
47
100
AcDbScale
 70
     0
300
3/16" = 1'-0"
140
0.1875
141
12.0
290
     0
  0
SCALE
  5
60
102
{ACAD_REACTORS
330
47
102
}
330
47
100
AcDbScale
 70
     0
300
1/4" = 1'-0"
140
0.25
141
12.0
290
     0
  0
SCALE
  5
61
102
{ACAD_REACTORS
330
47
102
}
330
47
100
AcDbScale
 70
     0
300
3/8" = 1'-0"
140
0.375
141
12.0
290
     0
  0
SCALE
  5
62
102
{ACAD_REACTORS
330
47
102
}
330
47
100
AcDbScale
 70
     0
300
1/2" = 1'-0"
140
0.5
141
12.0
290
     0
  0
SCALE
  5
63
102
{ACAD_REACTORS
330
47
102
}
330
47
100
AcDbScale
 70
     0
300
3/4" = 1'-0"
140
0.75
141
12.0
290
     0
  0
SCALE
  5
64
102
{ACAD_REACTORS
330
47
102
}
330
47
100
AcDbScale
 70
     0
300
1" = 1'-0"
140
1.0
141
12.0
290
     0
  0
SCALE
  5
65
102
{ACAD_REACTORS
330
47
102
}
330
47
100
AcDbScale
 70
     0
300
1-1/2" = 1'-0"
140
1.5
141
12.0
290
     0
  0
SCALE
  5
66
102
{ACAD_REACTORS
330
47
102
}
330
47
100
AcDbScale
 70
     0
300
3" = 1'-0"
140
3.0
141
12.0
290
     0
  0
SCALE
  5
67
102
{ACAD_REACTORS
330
47
102
}
330
47
100
AcDbScale
 70
     0
300
6" = 1'-0"
140
6.0
141
12.0
290
     0
  0
SCALE
  5
68
102
{ACAD_REACTORS
330
47
102
}
330
47
100
AcDbScale
 70
     0
300
1'-0" = 1'-0"
140
12.0
141
12.0
290
     0
  0
ENDSEC
  0
EOF
