  0
SECTION
  2
HEADER
  9
$ACADVER
  1
AC1015
  9
$ACADMAINTVER
 70
     6
  9
$DWGCODEPAGE
  3
ANSI_1250
  9
$INSBASE
 10
0.0
 20
0.0
 30
0.0
  9
$EXTMIN
 10
0.0
 20
0.0
 30
0.0
  9
$EXTMAX
 10
20000.0
 20
10000.0
 30
0.0
  9
$LIMMIN
 10
0.0
 20
0.0
  9
$LIMMAX
 10
20000.0
 20
10000.0
  9
$ORTHOMODE
 70
     0
  9
$REGENMODE
 70
     1
  9
$FILLMODE
 70
     1
  9
$QTEXTMODE
 70
     0
  9
$MIRRTEXT
 70
     1
  9
$LTSCALE
 40
1.0
  9
$ATTMODE
 70
     1
  9
$TEXTSIZE
 40
2.0
  9
$TRACEWID
 40
1.0
  9
$TEXTSTYLE
  7
Standard
  9
$CLAYER
  8
0
  9
$CELTYPE
  6
ByLayer
  9
$CECOLOR
 62
   256
  9
$CELTSCALE
 40
1.0
  9
$DISPSILH
 70
     0
  9
$DIMSCALE
 40
1.0
  9
$DIMASZ
 40
2.0
  9
$DIMEXO
 40
1.0
  9
$DIMDLI
 40
3.75
  9
$DIMRND
 40
0.0
  9
$DIMDLE
 40
0.0
  9
$DIMEXE
 40
1.0
  9
$DIMTP
 40
0.0
  9
$DIMTM
 40
0.0
  9
$DIMTXT
 40
2.0
  9
$DIMCEN
 40
2.5
  9
$DIMTSZ
 40
0.0
  9
$DIMTOL
 70
     0
  9
$DIMLIM
 70
     0
  9
$DIMTIH
 70
     1
  9
$DIMTOH
 70
     1
  9
$DIMSE1
 70
     0
  9
$DIMSE2
 70
     0
  9
$DIMTAD
 70
     1
  9
$DIMZIN
 70
     0
  9
$DIMBLK
  1

  9
$DIMASO
 70
     1
  9
$DIMSHO
 70
     1
  9
$DIMPOST
  1

  9
$DIMAPOST
  1

  9
$DIMALT
 70
     0
  9
$DIMALTD
 70
     3
  9
$DIMALTF
 40
0.0393700787
  9
$DIMLFAC
 40
1.0
  9
$DIMTOFL
 70
     1
  9
$DIMTVP
 40
0.0
  9
$DIMTIX
 70
     0
  9
$DIMSOXD
 70
     0
  9
$DIMSAH
 70
     0
  9
$DIMBLK1
  1

  9
$DIMBLK2
  1

  9
$DIMSTYLE
  2
ISO-25
  9
$DIMCLRD
 70
     0
  9
$DIMCLRE
 70
     0
  9
$DIMCLRT
 70
     0
  9
$DIMTFAC
 40
1.0
  9
$DIMGAP
 40
1.524
  9
$DIMJUST
 70
     0
  9
$DIMSD1
 70
     0
  9
$DIMSD2
 70
     0
  9
$DIMTOLJ
 70
     0
  9
$DIMTZIN
 70
     0
  9
$DIMALTZ
 70
     0
  9
$DIMALTTZ
 70
     0
  9
$DIMUPT
 70
     0
  9
$DIMDEC
 70
     2
  9
$DIMTDEC
 70
     0
  9
$DIMALTU
 70
     2
  9
$DIMALTTD
 70
     3
  9
$DIMTXSTY
  7
Standard
  9
$DIMAUNIT
 70
     0
  9
$DIMADEC
 70
     2
  9
$DIMALTRND
 40
0.0
  9
$DIMAZIN
 70
     0
  9
$DIMDSEP
 70
    44
  9
$DIMATFIT
 70
     3
  9
$DIMFRAC
 70
     0
  9
$DIMLDRBLK
  1

  9
$DIMLUNIT
 70
     2
  9
$DIMLWD
 70
    -2
  9
$DIMLWE
 70
    -2
  9
$DIMTMOVE
 70
     0
  9
$LUNITS
 70
     2
  9
$LUPREC
 70
     3
  9
$SKETCHINC
 40
1.0
  9
$FILLETRAD
 40
10.0
  9
$AUNITS
 70
     0
  9
$AUPREC
 70
     2
  9
$MENU
  1
.
  9
$ELEVATION
 40
0.0
  9
$PELEVATION
 40
0.0
  9
$THICKNESS
 40
0.0
  9
$LIMCHECK
 70
     0
  9
$CHAMFERA
 40
0.0
  9
$CHAMFERB
 40
0.0
  9
$CHAMFERC
 40
0.0
  9
$CHAMFERD
 40
0.0
  9
$SKPOLY
 70
     0
  9
$TDCREATE
 40
2458715.608881319
  9
$TDUCREATE
 40
2458715.525547986
  9
$TDUPDATE
 40
2458715.608881771
  9
$TDUUPDATE
 40
2458715.525548438
  9
$TDINDWG
 40
0.0000000116
  9
$TDUSRTIMER
 40
0.0000000116
  9
$USRTIMER
 70
     1
  9
$ANGBASE
 50
0.0
  9
$ANGDIR
 70
     0
  9
$PDMODE
 70
     0
  9
$PDSIZE
 40
-1.0
  9
$PLINEWID
 40
0.0
  9
$SPLFRAME
 70
     0
  9
$SPLINETYPE
 70
     6
  9
$SPLINESEGS
 70
     8
  9
$HANDSEED
  5
2A6
  9
$SURFTAB1
 70
     6
  9
$SURFTAB2
 70
     6
  9
$SURFTYPE
 70
     6
  9
$SURFU
 70
     6
  9
$SURFV
 70
     6
  9
$UCSBASE
  2

  9
$UCSNAME
  2

  9
$UCSORG
 10
0.0
 20
0.0
 30
0.0
  9
$UCSXDIR
 10
1.0
 20
0.0
 30
0.0
  9
$UCSYDIR
 10
0.0
 20
1.0
 30
0.0
  9
$UCSORTHOREF
  2

  9
$UCSORTHOVIEW
 70
     0
  9
$UCSORGTOP
 10
0.0
 20
0.0
 30
0.0
  9
$UCSORGBOTTOM
 10
0.0
 20
0.0
 30
0.0
  9
$UCSORGLEFT
 10
0.0
 20
0.0
 30
0.0
  9
$UCSORGRIGHT
 10
0.0
 20
0.0
 30
0.0
  9
$UCSORGFRONT
 10
0.0
 20
0.0
 30
0.0
  9
$UCSORGBACK
 10
0.0
 20
0.0
 30
0.0
  9
$PUCSBASE
  2

  9
$PUCSNAME
  2

  9
$PUCSORG
 10
0.0
 20
0.0
 30
0.0
  9
$PUCSXDIR
 10
1.0
 20
0.0
 30
0.0
  9
$PUCSYDIR
 10
0.0
 20
1.0
 30
0.0
  9
$PUCSORTHOREF
  2

  9
$PUCSORTHOVIEW
 70
     0
  9
$PUCSORGTOP
 10
0.0
 20
0.0
 30
0.0
  9
$PUCSORGBOTTOM
 10
0.0
 20
0.0
 30
0.0
  9
$PUCSORGLEFT
 10
0.0
 20
0.0
 30
0.0
  9
$PUCSORGRIGHT
 10
0.0
 20
0.0
 30
0.0
  9
$PUCSORGFRONT
 10
0.0
 20
0.0
 30
0.0
  9
$PUCSORGBACK
 10
0.0
 20
0.0
 30
0.0
  9
$USERI1
 70
     0
  9
$USERI2
 70
     0
  9
$USERI3
 70
     0
  9
$USERI4
 70
     0
  9
$USERI5
 70
     0
  9
$USERR1
 40
0.0
  9
$USERR2
 40
0.0
  9
$USERR3
 40
0.0
  9
$USERR4
 40
0.0
  9
$USERR5
 40
0.0
  9
$WORLDVIEW
 70
     1
  9
$SHADEDGE
 70
     3
  9
$SHADEDIF
 70
    70
  9
$TILEMODE
 70
     1
  9
$MAXACTVP
 70
    64
  9
$PINSBASE
 10
0.0
 20
0.0
 30
0.0
  9
$PLIMCHECK
 70
     0
  9
$PEXTMIN
 10
1.0000000000E+20
 20
1.0000000000E+20
 30
1.0000000000E+20
  9
$PEXTMAX
 10
-1.0000000000E+20
 20
-1.0000000000E+20
 30
-1.0000000000E+20
  9
$PLIMMIN
 10
0.0
 20
0.0
  9
$PLIMMAX
 10
420.0
 20
297.0
  9
$UNITMODE
 70
     0
  9
$VISRETAIN
 70
     1
  9
$PLINEGEN
 70
     0
  9
$PSLTSCALE
 70
     1
  9
$TREEDEPTH
 70
  3020
  9
$CMLSTYLE
  2
Standard
  9
$CMLJUST
 70
     0
  9
$CMLSCALE
 40
20.0
  9
$PROXYGRAPHICS
 70
     1
  9
$MEASUREMENT
 70
     1
  9
$CELWEIGHT
370
    -1
  9
$ENDCAPS
280
     0
  9
$JOINSTYLE
280
     0
  9
$LWDISPLAY
290
     1
  9
$INSUNITS
 70
     4
  9
$HYPERLINKBASE
  1

  9
$STYLESHEET
  1

  9
$XEDIT
290
     1
  9
$CEPSNTYPE
380
     0
  9
$PSTYLEMODE
290
     1
  9
$FINGERPRINTGUID
  2
{757B32A6-61AC-478B-9B87-D4EA509C7E15}
  9
$VERSIONGUID
  2
{FAEB1C32-E019-11D5-929B-00C0DF256EC4}
  9
$EXTNAMES
290
     1
  9
$PSVPSCALE
 40
0.0
  9
$OLESTARTUP
290
     0
  0
ENDSEC
  0
SECTION
  2
CLASSES
  0
CLASS
  1
ACDBDICTIONARYWDFLT
  2
AcDbDictionaryWithDefault
  3
ObjectDBX Classes
 90
        0
280
     0
281
     0
  0
CLASS
  1
VISUALSTYLE
  2
AcDbVisualStyle
  3
ObjectDBX Classes
 90
     4095
280
     0
281
     0
  0
CLASS
  1
MATERIAL
  2
AcDbMaterial
  3
ObjectDBX Classes
 90
     1153
280
     0
281
     0
  0
CLASS
  1
SCALE
  2
AcDbScale
  3
ObjectDBX Classes
 90
     1153
280
     0
281
     0
  0
CLASS
  1
TABLESTYLE
  2
AcDbTableStyle
  3
ObjectDBX Classes
 90
     4095
280
     0
281
     0
  0
CLASS
  1
MLEADERSTYLE
  2
AcDbMLeaderStyle
  3
ACDB_MLEADERSTYLE_CLASS
 90
     4095
280
     0
281
     0
  0
CLASS
  1
SUN
  2
AcDbSun
  3
SCENEOE
 90
     1153
280
     0
281
     0
  0
CLASS
  1
ACDBPLACEHOLDER
  2
AcDbPlaceHolder
  3
ObjectDBX Classes
 90
        0
280
     0
281
     0
  0
CLASS
  1
LAYOUT
  2
AcDbLayout
  3
ObjectDBX Classes
 90
        0
280
     0
281
     0
  0
ENDSEC
  0
SECTION
  2
TABLES
  0
TABLE
  2
VPORT
  5
8
330
0
100
AcDbSymbolTable
 70
     1
  0
VPORT
  5
29
330
8
100
AcDbSymbolTableRecord
100
AcDbViewportTableRecord
  2
*Active
 70
     0
 10
0.0
 20
0.0
 11
1.0
 21
1.0
 12
10000.0
 22
5000.0
 13
0.0
 23
0.0
 14
10.0
 24
10.0
 15
10.0
 25
10.0
 16
0.0
 26
0.0
 36
1.0
 17
0.0
 27
0.0
 37
0.0
 40
10000.0
 41
2.0
 42
50.0
 43
0.0
 44
0.0
 50
0.0
 51
0.0
 71
     0
 72
  2000
 73
     1
 74
     3
 75
     0
 76
     0
 77
     0
 78
     0
281
     0
 65
     1
110
0.0
120
0.0
130
0.0
111
1.0
121
0.0
131
0.0
112
0.0
122
1.0
132
0.0
 79
     0
146
0.0
  0
ENDTAB
  0
TABLE
  2
LTYPE
  5
5
330
0
100
AcDbSymbolTable
 70
     6
  0
LTYPE
  5
14
330
5
100
AcDbSymbolTableRecord
100
AcDbLinetypeTableRecord
  2
ByBlock
 70
     0
  3

 72
    65
 73
     0
 40
0.0
  0
LTYPE
  5
15
330
5
100
AcDbSymbolTableRecord
100
AcDbLinetypeTableRecord
  2
ByLayer
 70
     0
  3

 72
    65
 73
     0
 40
0.0
  0
LTYPE
  5
16
330
5
100
AcDbSymbolTableRecord
100
AcDbLinetypeTableRecord
  2
Continuous
 70
     0
  3
Solid line
 72
    65
 73
     0
 40
0.0
  0
LTYPE
  5
6E
330
5
100
AcDbSymbolTableRecord
100
AcDbLinetypeTableRecord
  2
HIDDEN
 70
     0
  3
Hidden __ __ __ __ __ __ __ __ __ __ __ __ __ __
 72
    65
 73
     2
 40
1.905
 49
1.27
 74
     0
 49
-0.635
 74
     0
  0
LTYPE
  5
6F
330
5
100
AcDbSymbolTableRecord
100
AcDbLinetypeTableRecord
  2
PHANTOM
 70
     0
  3
Phantom ______  __  __  ______  __  __  ______
 72
    65
 73
     6
 40
12.7
 49
6.35
 74
     0
 49
-1.27
 74
     0
 49
1.27
 74
     0
 49
-1.27
 74
     0
 49
1.27
 74
     0
 49
-1.27
 74
     0
  0
LTYPE
  5
70
330
5
100
AcDbSymbolTableRecord
100
AcDbLinetypeTableRecord
  2
CENTER
 70
     0
  3
Center ____ _ ____ _ ____ _ ____ _ ____ _ ____
 72
    65
 73
     4
 40
10.16
 49
6.35
 74
     0
 49
-1.27
 74
     0
 49
1.27
 74
     0
 49
-1.27
 74
     0
  0
LTYPE
  5
71
330
5
100
AcDbSymbolTableRecord
100
AcDbLinetypeTableRecord
  2
CENTERX2
 70
     0
  3
Center (2x) ________  __  ________  __  _____
 72
    65
 73
     4
 40
20.32
 49
12.7
 74
     0
 49
-2.54
 74
     0
 49
2.54
 74
     0
 49
-2.54
 74
     0
  0
LTYPE
  5
72
330
5
100
AcDbSymbolTableRecord
100
AcDbLinetypeTableRecord
  2
DOT2
 70
     0
  3
Dot (.5x) ........................................
 72
    65
 73
     2
 40
0.635
 49
0.0
 74
     0
 49
-0.635
 74
     0
  0
ENDTAB
  0
TABLE
  2
LAYER
  5
2
330
0
100
AcDbSymbolTable
 70
    13
  0
LAYER
  5
10
330
2
100
AcDbSymbolTableRecord
100
AcDbLayerTableRecord
  2
0
 70
     0
 62
     7
  6
Continuous
370
    -3
390
F
  0
LAYER
  5
73
330
2
100
AcDbSymbolTableRecord
100
AcDbLayerTableRecord
  2
FORMAT
 70
     0
 62
     7
  6
Continuous
370
    -3
390
F
  0
LAYER
  5
74
330
2
100
AcDbSymbolTableRecord
100
AcDbLayerTableRecord
  2
OSA
 70
     0
 62
     7
  6
CENTER
370
    -3
390
F
  0
LAYER
  5
75
330
2
100
AcDbSymbolTableRecord
100
AcDbLayerTableRecord
  2
0_35
 70
     0
 62
     7
  6
Continuous
370
    35
390
F
  0
LAYER
  5
76
330
2
100
AcDbSymbolTableRecord
100
AcDbLayerTableRecord
  2
0_5
 70
     0
 62
     7
  6
Continuous
370
    50
390
F
  0
LAYER
  5
77
330
2
100
AcDbSymbolTableRecord
100
AcDbLayerTableRecord
  2
0_25
 70
     0
 62
     7
  6
Continuous
370
    25
390
F
  0
LAYER
  5
78
330
2
100
AcDbSymbolTableRecord
100
AcDbLayerTableRecord
  2
0_18
 70
     0
 62
     7
  6
Continuous
370
    -3
390
F
  0
LAYER
  5
79
330
2
100
AcDbSymbolTableRecord
100
AcDbLayerTableRecord
  2
SLD-0
 70
     0
 62
   179
  6
Continuous
370
    -3
390
F
  0
LAYER
  5
7A
330
2
100
AcDbSymbolTableRecord
100
AcDbLayerTableRecord
  2
KOTY
 70
     0
 62
     7
  6
Continuous
370
    -3
390
F
  0
LAYER
  5
7B
330
2
100
AcDbSymbolTableRecord
100
AcDbLayerTableRecord
  2
SILNA
 70
     0
 62
   179
  6
Continuous
370
    -3
390
F
  0
LAYER
  5
7C
330
2
100
AcDbSymbolTableRecord
100
AcDbLayerTableRecord
  2
0_18_1
 70
     0
 62
   179
  6
Continuous
370
    -3
390
F
  0
LAYER
  5
7D
330
2
100
AcDbSymbolTableRecord
100
AcDbLayerTableRecord
  2
0_35_1
 70
     0
 62
   179
  6
Continuous
370
    35
390
F
  0
LAYER
  5
7E
330
2
100
AcDbSymbolTableRecord
100
AcDbLayerTableRecord
  2
0_5_1
 70
     0
 62
   179
  6
Continuous
370
    50
390
F
  0
ENDTAB
  0
TABLE
  2
STYLE
  5
3
330
0
100
AcDbSymbolTable
 70
     1
  0
STYLE
  5
11
330
3
100
AcDbSymbolTableRecord
100
AcDbTextStyleTableRecord
  2
Standard
 70
     0
 40
0.0
 41
1.0
 50
0.0
 71
     0
 42
2.0
  3
txt
  4

  0
ENDTAB
  0
TABLE
  2
VIEW
  5
6
330
0
100
AcDbSymbolTable
 70
     0
  0
ENDTAB
  0
TABLE
  2
UCS
  5
7
330
0
100
AcDbSymbolTable
 70
     0
  0
ENDTAB
  0
TABLE
  2
APPID
  5
9
330
0
100
AcDbSymbolTable
 70
     1
  0
APPID
  5
12
330
9
100
AcDbSymbolTableRecord
100
AcDbRegAppTableRecord
  2
ACAD
 70
     0
  0
ENDTAB
  0
TABLE
  2
DIMSTYLE
  5
A
330
0
100
AcDbSymbolTable
 70
     1
100
AcDbDimStyleTable
  0
DIMSTYLE
105
27
330
A
100
AcDbSymbolTableRecord
100
AcDbDimStyleTableRecord
  2
ISO-25
 70
     0
 41
2.5
 42
0.625
 43
3.75
 44
1.25
 73
     0
 74
     0
 77
     1
 78
     8
140
2.5
141
2.5
143
0.0393700787
147
0.625
171
     3
172
     1
178
     0
271
     2
272
     2
274
     3
278
    44
283
     0
284
     8
340
11
  0
ENDTAB
  0
TABLE
  2
BLOCK_RECORD
  5
1
330
0
100
AcDbSymbolTable
 70
     1
  0
BLOCK_RECORD
  5
1F
330
1
100
AcDbSymbolTableRecord
100
AcDbBlockTableRecord
  2
*Model_Space
340
22
  0
BLOCK_RECORD
  5
1B
330
1
100
AcDbSymbolTableRecord
100
AcDbBlockTableRecord
  2
*Paper_Space
340
1E
  0
BLOCK_RECORD
  5
23
330
1
100
AcDbSymbolTableRecord
100
AcDbBlockTableRecord
  2
*Paper_Space0
340
26
  0
ENDTAB
  0
ENDSEC
  0
SECTION
  2
BLOCKS
  0
BLOCK
  5
20
330
1F
100
AcDbEntity
  8
0
100
AcDbBlockBegin
  2
*Model_Space
 70
     0
 10
0.0
 20
0.0
 30
0.0
  3
*Model_Space
  1

  0
ENDBLK
  5
21
330
1F
100
AcDbEntity
  8
0
100
AcDbBlockEnd
  0
BLOCK
  5
1C
330
1B
100
AcDbEntity
 67
     1
  8
0
100
AcDbBlockBegin
  2
*Paper_Space
 70
     0
 10
0.0
 20
0.0
 30
0.0
  3
*Paper_Space
  1

  0
ENDBLK
  5
1D
330
1B
100
AcDbEntity
 67
     1
  8
0
100
AcDbBlockEnd
  0
BLOCK
  5
24
330
23
100
AcDbEntity
  8
0
100
AcDbBlockBegin
  2
*Paper_Space0
 70
     0
 10
0.0
 20
0.0
 30
0.0
  3
*Paper_Space0
  1

  0
ENDBLK
  5
25
330
23
100
AcDbEntity
  8
0
100
AcDbBlockEnd
  0
ENDSEC
  0
SECTION
  2
ENTITIES
  0
LINE
  5
7F
330
1F
100
AcDbEntity
  8
0
  6
Continuous
 62
     7
370
    25
100
AcDbLine
 10
5859.0187636808
 20
5023.699454481
 30
0.0
 11
6689.0187469914
 21
5023.699454481
 31
0.0
  0
LINE
  5
80
330
1F
100
AcDbEntity
  8
0
  6
Continuous
 62
     7
370
    25
100
AcDbLine
 10
6689.0187469914
 20
5023.699454481
 30
0.0
 11
6689.0187469914
 21
5018.6994545927
 31
0.0
  0
LINE
  5
81
330
1F
100
AcDbEntity
  8
0
  6
Continuous
 62
     7
370
    25
100
AcDbLine
 10
6689.0187469914
 20
5018.6994545927
 30
0.0
 11
5859.0187636808
 21
5018.6994545927
 31
0.0
  0
LINE
  5
82
330
1F
100
AcDbEntity
  8
0
  6
Continuous
 62
     7
370
    25
100
AcDbLine
 10
5859.0187636808
 20
5018.6994545927
 30
0.0
 11
5859.0187636808
 21
5023.699454481
 31
0.0
  0
LINE
  5
83
330
1F
100
AcDbEntity
  8
0
  6
Continuous
 62
     7
370
    25
100
AcDbLine
 10
6689.0187469914
 20
5023.699454481
 30
0.0
 11
6709.0187577203
 21
5023.699454481
 31
0.0
  0
ARC
  5
84
330
1F
100
AcDbEntity
  8
0
  6
Continuous
 62
     7
370
    25
100
AcDbCircle
 10
6704.0187553361
 20
5023.6994545927
 30
0.0
 40
5.0
100
AcDbArc
 50
270.0
 51
0.0
  0
LINE
  5
85
330
1F
100
AcDbEntity
  8
0
  6
Continuous
 62
     7
370
    25
100
AcDbLine
 10
6704.0187624887
 20
5018.6994545927
 30
0.0
 11
6689.0187469914
 21
5018.6994545927
 31
0.0
  0
LINE
  5
86
330
1F
100
AcDbEntity
  8
0
  6
Continuous
 62
     7
370
    25
100
AcDbLine
 10
6676.0187653497
 20
5096.699456202
 30
0.0
 11
6676.0187653497
 21
5091.6994535198
 31
0.0
  0
LINE
  5
87
330
1F
100
AcDbEntity
  8
0
  6
Continuous
 62
     7
370
    25
100
AcDbLine
 10
6671.0187701181
 20
5091.6994535198
 30
0.0
 11
6676.0187653497
 21
5091.6994535198
 31
0.0
  0
ARC
  5
88
330
1F
100
AcDbEntity
  8
0
  6
Continuous
 62
     7
370
    25
100
AcDbCircle
 10
6676.0187553361
 20
5091.6994545927
 30
0.0
 40
5.0
100
AcDbArc
 50
90.0
 51
180.0
  0
LINE
  5
89
330
1F
100
AcDbEntity
  8
0
  6
Continuous
 62
     7
370
    25
100
AcDbLine
 10
5877.0187405541
 20
5091.6994535198
 30
0.0
 11
5859.0187636808
 21
5091.6994535198
 31
0.0
  0
LINE
  5
8A
330
1F
100
AcDbEntity
  8
0
  6
Continuous
 62
     7
370
    25
100
AcDbLine
 10
5859.0187636808
 20
5091.6994535198
 30
0.0
 11
5859.0187636808
 21
5096.699456202
 31
0.0
  0
LINE
  5
8B
330
1F
100
AcDbEntity
  8
0
  6
Continuous
 62
     7
370
    25
100
AcDbLine
 10
5859.0187636808
 20
5096.699456202
 30
0.0
 11
5872.0187453225
 21
5096.699456202
 31
0.0
  0
ARC
  5
8C
330
1F
100
AcDbEntity
  8
0
  6
Continuous
 62
     7
370
    25
100
AcDbCircle
 10
5872.0187553361
 20
5091.6994545927
 30
0.0
 40
5.0
100
AcDbArc
 50
0.0
 51
90.0
  0
LINE
  5
8D
330
1F
100
AcDbEntity
  8
0
  6
Continuous
 62
     7
370
    25
100
AcDbLine
 10
5859.0187636808
 20
5018.6994545927
 30
0.0
 11
5844.0187481835
 21
5018.6994545927
 31
0.0
  0
ARC
  5
8E
330
1F
100
AcDbEntity
  8
0
  6
Continuous
 62
     7
370
    25
100
AcDbCircle
 10
5844.0187553361
 20
5023.6994545927
 30
0.0
 40
5.0
100
AcDbArc
 50
180.0
 51
270.0
  0
LINE
  5
8F
330
1F
100
AcDbEntity
  8
0
  6
Continuous
 62
     7
370
    25
100
AcDbLine
 10
5839.0187529519
 20
5023.699454481
 30
0.0
 11
5859.0187636808
 21
5023.699454481
 31
0.0
  0
LINE
  5
90
330
1F
100
AcDbEntity
  8
0
  6
Continuous
 62
     7
370
    25
100
AcDbLine
 10
6676.0187653497
 20
5096.699456202
 30
0.0
 11
6689.0187469914
 21
5096.699456202
 31
0.0
  0
LINE
  5
91
330
1F
100
AcDbEntity
  8
0
  6
Continuous
 62
     7
370
    25
100
AcDbLine
 10
6689.0187469914
 20
5096.699456202
 30
0.0
 11
6689.0187469914
 21
5091.6994535198
 31
0.0
  0
LINE
  5
92
330
1F
100
AcDbEntity
  8
0
  6
Continuous
 62
     7
370
    25
100
AcDbLine
 10
6689.0187469914
 20
5091.6994535198
 30
0.0
 11
6676.0187653497
 21
5091.6994535198
 31
0.0
  0
LINE
  5
93
330
1F
100
AcDbEntity
  8
0
  6
Continuous
 62
     7
370
    25
100
AcDbLine
 10
6709.0187577203
 20
5091.6994535198
 30
0.0
 11
6689.0187469914
 21
5091.6994535198
 31
0.0
  0
LINE
  5
94
330
1F
100
AcDbEntity
  8
0
  6
Continuous
 62
     7
370
    25
100
AcDbLine
 10
6709.0187577203
 20
5091.6994535198
 30
0.0
 11
6709.0187577203
 21
5023.699454481
 31
0.0
  0
LINE
  5
95
330
1F
100
AcDbEntity
  8
0
  6
Continuous
 62
     7
370
    25
100
AcDbLine
 10
6689.0187469914
 20
5023.699454481
 30
0.0
 11
6689.0187469914
 21
5091.6994535198
 31
0.0
  0
LINE
  5
96
330
1F
100
AcDbEntity
  8
0
  6
Continuous
 62
     7
370
    25
100
AcDbLine
 10
5877.0187405541
 20
5051.6994544139
 30
0.0
 11
6666.0187450841
 21
5051.6994544139
 31
0.0
  0
LINE
  5
97
330
1F
100
AcDbEntity
  8
0
  6
Continuous
 62
     7
370
    25
100
AcDbLine
 10
6666.0187450841
 20
5051.6994544139
 30
0.0
 11
6666.0187450841
 21
5046.699455457
 31
0.0
  0
LINE
  5
98
330
1F
100
AcDbEntity
  8
0
  6
Continuous
 62
     7
370
    25
100
AcDbLine
 10
6666.0187450841
 20
5046.699455457
 30
0.0
 11
5877.0187405541
 21
5046.699455457
 31
0.0
  0
ARC
  5
99
330
1F
100
AcDbEntity
  8
0
  6
Continuous
 62
     7
370
    25
100
AcDbCircle
 10
6666.0187553361
 20
5056.6994545927
 30
0.0
 40
5.0
100
AcDbArc
 50
270.0
 51
0.0
  0
LINE
  5
9A
330
1F
100
AcDbEntity
  8
0
  6
Continuous
 62
     7
370
    25
100
AcDbLine
 10
6671.0187701181
 20
5056.6994533708
 30
0.0
 11
6676.0187653497
 21
5056.6994533708
 31
0.0
  0
ARC
  5
9B
330
1F
100
AcDbEntity
  8
0
  6
Continuous
 62
     7
370
    25
100
AcDbCircle
 10
6666.0187553361
 20
5056.6994545927
 30
0.0
 40
10.0
100
AcDbArc
 50
270.0
 51
0.0
  0
LINE
  5
9C
330
1F
100
AcDbEntity
  8
0
  6
Continuous
 62
     7
370
    25
100
AcDbLine
 10
6689.0187469914
 20
5096.699456202
 30
0.0
 11
6704.0187624887
 21
5096.699456202
 31
0.0
  0
ARC
  5
9D
330
1F
100
AcDbEntity
  8
0
  6
Continuous
 62
     7
370
    25
100
AcDbCircle
 10
6704.0187553361
 20
5091.6994545927
 30
0.0
 40
5.0
100
AcDbArc
 50
0.0
 51
90.0
  0
LINE
  5
9E
330
1F
100
AcDbEntity
  8
0
  6
Continuous
 62
     7
370
    25
100
AcDbLine
 10
5877.0187405541
 20
5091.6994535198
 30
0.0
 11
5877.0187405541
 21
5046.699455457
 31
0.0
  0
LINE
  5
9F
330
1F
100
AcDbEntity
  8
0
  6
Continuous
 62
     7
370
    25
100
AcDbLine
 10
6676.0187653497
 20
5091.6994535198
 30
0.0
 11
6676.0187653497
 21
5056.6994533708
 31
0.0
  0
LINE
  5
A0
330
1F
100
AcDbEntity
  8
0
  6
Continuous
 62
     7
370
    25
100
AcDbLine
 10
5859.0187636808
 20
5091.6994535198
 30
0.0
 11
5859.0187636808
 21
5023.699454481
 31
0.0
  0
LINE
  5
A1
330
1F
100
AcDbEntity
  8
0
  6
Continuous
 62
     7
370
    25
100
AcDbLine
 10
6671.0187701181
 20
5056.6994533708
 30
0.0
 11
6671.0187701181
 21
5091.6994535198
 31
0.0
  0
LINE
  5
A2
330
1F
100
AcDbEntity
  8
0
  6
Continuous
 62
     7
370
    25
100
AcDbLine
 10
5859.0187636808
 20
5091.6994535198
 30
0.0
 11
5839.0187529519
 21
5091.6994535198
 31
0.0
  0
ARC
  5
A3
330
1F
100
AcDbEntity
  8
0
  6
Continuous
 62
     7
370
    25
100
AcDbCircle
 10
5844.0187553361
 20
5091.6994545927
 30
0.0
 40
5.0
100
AcDbArc
 50
90.0
 51
180.0
  0
LINE
  5
A4
330
1F
100
AcDbEntity
  8
0
  6
Continuous
 62
     7
370
    25
100
AcDbLine
 10
5844.0187481835
 20
5096.699456202
 30
0.0
 11
5859.0187636808
 21
5096.699456202
 31
0.0
  0
LINE
  5
A5
330
1F
100
AcDbEntity
  8
0
  6
Continuous
 62
     7
370
    25
100
AcDbLine
 10
5839.0187529519
 20
5023.699454481
 30
0.0
 11
5839.0187529519
 21
5091.6994535198
 31
0.0
  0
LINE
  5
A6
330
1F
100
AcDbEntity
  8
0
  6
Continuous
 62
     7
370
    25
100
AcDbLine
 10
6220.5268202022
 20
5051.6994544139
 30
0.0
 11
6220.5268202022
 21
5056.6994533708
 31
0.0
  0
SPLINE
  5
A7
330
1F
100
AcDbEntity
  8
0
  6
Continuous
 62
     7
370
    25
100
AcDbSpline
210
0.0
220
0.0
230
1.0
 70
     8
 71
     3
 72
    24
 73
    20
 74
     0
 42
0.000000001
 43
0.00000001
 40
0.0
 40
0.0
 40
0.0
 40
0.0
 40
0.1249999999999996
 40
0.1249999999999996
 40
0.2499999999999992
 40
0.2499999999999992
 40
0.3749999999999988
 40
0.3749999999999988
 40
0.4999999999999984
 40
0.4999999999999984
 40
0.624999999999998
 40
0.624999999999998
 40
0.7499999999999977
 40
0.7499999999999977
 40
0.8749999999999973
 40
0.8749999999999973
 40
0.9374999999999987
 40
0.9374999999999987
 40
1.0
 40
1.0
 40
1.0
 40
1.0
 10
6220.52682195127
 20
5056.699454592719
 30
0.0
 10
6221.213843133683
 20
5056.479031501763
 30
0.0
 10
6221.880804059441
 20
5056.236110460781
 30
0.0
 10
6223.18705657592
 20
5055.712215561549
 30
0.0
 10
6223.825572113434
 20
5055.431564941461
 30
0.0
 10
6225.075857299737
 20
5054.860182201278
 30
0.0
 10
6225.690643719361
 20
5054.568577365017
 30
0.0
 10
6226.920399517624
 20
5053.997436643876
 30
0.0
 10
6227.535587444415
 20
5053.718006940616
 30
0.0
 10
6228.778400493798
 20
5053.195278941057
 30
0.0
 10
6229.406185148961
 20
5052.951904826275
 30
0.0
 10
6230.682866151054
 20
5052.519319259249
 30
0.0
 10
6231.33327251958
 20
5052.329739854072
 30
0.0
 10
6232.650348073913
 20
5052.020744183988
 30
0.0
 10
6233.318046927541
 20
5051.900997974112
 30
0.0
 10
6234.327351582047
 20
5051.780500088111
 30
0.0
 10
6234.66462718095
 20
5051.75017917706
 30
0.0
 10
6235.340678769487
 20
5051.709655572698
 30
0.0
 10
6235.68129004456
 20
5051.699454592719
 30
0.0
 10
6236.0187553361
 20
5051.699454592719
 30
0.0
  0
SPLINE
  5
A8
330
1F
100
AcDbEntity
  8
0
  6
Continuous
 62
     7
370
    25
100
AcDbSpline
210
0.0
220
0.0
230
1.0
 70
     8
 71
     3
 72
    24
 73
    20
 74
     0
 42
0.000000001
 43
0.00000001
 40
0.0
 40
0.0
 40
0.0
 40
0.0
 40
0.1249999999999996
 40
0.1249999999999996
 40
0.2499999999999992
 40
0.2499999999999992
 40
0.3749999999999988
 40
0.3749999999999988
 40
0.4999999999999984
 40
0.4999999999999984
 40
0.624999999999998
 40
0.624999999999998
 40
0.7499999999999977
 40
0.7499999999999977
 40
0.8749999999999973
 40
0.8749999999999973
 40
0.9374999999999987
 40
0.9374999999999987
 40
1.0
 40
1.0
 40
1.0
 40
1.0
 10
6327.510688720929
 20
5056.699454592719
 30
0.0
 10
6326.823667538518
 20
5056.479031501763
 30
0.0
 10
6326.156706612759
 20
5056.236110460781
 30
0.0
 10
6324.850454096279
 20
5055.712215561549
 30
0.0
 10
6324.211938558766
 20
5055.431564941461
 30
0.0
 10
6322.961653372464
 20
5054.860182201278
 30
0.0
 10
6322.346866952839
 20
5054.568577365017
 30
0.0
 10
6321.117111154576
 20
5053.997436643876
 30
0.0
 10
6320.501923227785
 20
5053.718006940616
 30
0.0
 10
6319.259110178401
 20
5053.195278941057
 30
0.0
 10
6318.631325523239
 20
5052.951904826275
 30
0.0
 10
6317.354644521146
 20
5052.519319259249
 30
0.0
 10
6316.704238152621
 20
5052.329739854072
 30
0.0
 10
6315.387162598287
 20
5052.020744183988
 30
0.0
 10
6314.719463744659
 20
5051.900997974112
 30
0.0
 10
6313.710159090154
 20
5051.780500088111
 30
0.0
 10
6313.37288349125
 20
5051.75017917706
 30
0.0
 10
6312.696831902714
 20
5051.709655572698
 30
0.0
 10
6312.35622062764
 20
5051.699454592719
 30
0.0
 10
6312.0187553361
 20
5051.699454592719
 30
0.0
  0
LINE
  5
A9
330
1F
100
AcDbEntity
  8
0
  6
Continuous
 62
     7
370
    25
100
AcDbLine
 10
6327.51069047
 20
5056.6994533708
 30
0.0
 11
6327.51069047
 21
5051.6994544139
 31
0.0
  0
LINE
  5
AA
330
1F
100
AcDbEntity
  8
0
  6
Continuous
 62
     7
370
    25
100
AcDbLine
 10
5877.0187405541
 20
5071.6994539669
 30
0.0
 11
5882.0187655881
 21
5071.6994539669
 31
0.0
  0
LINE
  5
AB
330
1F
100
AcDbEntity
  8
0
  6
Continuous
 62
     7
370
    25
100
AcDbLine
 10
5882.0187655881
 20
5071.6994539669
 30
0.0
 11
5882.0187655881
 21
5056.6994533708
 31
0.0
  0
LWPOLYLINE
  5
AC
330
1F
100
AcDbEntity
  8
0
  6
Continuous
 62
     7
370
    25
100
AcDbPolyline
 90
        9
 70
   128
 43
0.0
 10
5877.0187405541
 20
5051.6994544139
 10
5877.1148232415
 20
5051.7955296507
 10
5877.3993460134
 20
5052.0800561478
 10
5877.8614012197
 20
5052.5421076288
 10
5878.4832266763
 20
5053.1639219096
 10
5879.2408911183
 20
5053.9216049781
 10
5880.1053372815
 20
5054.7860362401
 10
5881.043305774
 20
5055.7240047326
 10
5882.0187655881
 20
5056.6994533708
  0
LINE
  5
AD
330
1F
100
AcDbEntity
  8
0
  6
Continuous
 62
     7
370
    25
100
AcDbLine
 10
5882.0187655881
 20
5056.6994533708
 30
0.0
 11
6220.5268202022
 21
5056.6994533708
 31
0.0
  0
LINE
  5
AE
330
1F
100
AcDbEntity
  8
0
  6
Continuous
 62
     7
370
    25
100
AcDbLine
 10
6666.0187450841
 20
5056.6994533708
 30
0.0
 11
6666.0187450841
 21
5071.6994539669
 31
0.0
  0
LINE
  5
AF
330
1F
100
AcDbEntity
  8
0
  6
Continuous
 62
     7
370
    25
100
AcDbLine
 10
6666.0187450841
 20
5071.6994539669
 30
0.0
 11
6671.0187701181
 21
5071.6994539669
 31
0.0
  0
LINE
  5
B0
330
1F
100
AcDbEntity
  8
0
  6
Continuous
 62
     7
370
    25
100
AcDbLine
 10
6666.0187450841
 20
5056.6994533708
 30
0.0
 11
6671.0187701181
 21
5056.6994533708
 31
0.0
  0
LINE
  5
B1
330
1F
100
AcDbEntity
  8
0
  6
Continuous
 62
     7
370
    25
100
AcDbLine
 10
6327.51069047
 20
5056.6994533708
 30
0.0
 11
6666.0187450841
 21
5056.6994533708
 31
0.0
  0
LINE
  5
B2
330
1F
100
AcDbEntity
  8
0
  6
Continuous
 62
     7
370
    25
100
AcDbLine
 10
6666.0187450841
 20
5056.6994533708
 30
0.0
 11
6666.0187450841
 21
5051.6994544139
 31
0.0
  0
ARC
  5
B3
330
1F
100
AcDbEntity
  8
0
  6
Continuous
 62
     7
370
    25
100
AcDbCircle
 10
5882.0187553361
 20
5081.6994545927
 30
0.0
 40
5.000000000000909
100
AcDbArc
 50
180.0
 51
270.0
  0
LINE
  5
B4
330
1F
100
AcDbEntity
  8
0
  6
Continuous
 62
     7
370
    25
100
AcDbLine
 10
5882.0187655881
 20
5071.6994539669
 30
0.0
 11
5882.0187655881
 21
5076.6994529238
 31
0.0
  0
LINE
  5
B5
330
1F
100
AcDbEntity
  8
0
  6
Continuous
 62
     7
370
    25
100
AcDbLine
 10
6666.0187450841
 20
5076.6994529238
 30
0.0
 11
6666.0187450841
 21
5071.6994539669
 31
0.0
  0
ARC
  5
B6
330
1F
100
AcDbEntity
  8
0
  6
Continuous
 62
     7
370
    25
100
AcDbCircle
 10
6666.0187553361
 20
5081.6994545927
 30
0.0
 40
5.000000000000909
100
AcDbArc
 50
270.0
 51
0.0
  0
ARC
  5
B7
330
1F
100
AcDbEntity
  8
0
  6
Continuous
 62
     7
370
    25
100
AcDbCircle
 10
6312.0187553361
 20
5063.6994545927
 30
0.0
 40
12.0
100
AcDbArc
 50
270.0
 51
0.0
  0
LINE
  5
B8
330
1F
100
AcDbEntity
  8
0
  6
Continuous
 62
     7
370
    25
100
AcDbLine
 10
6324.0187560812
 20
5063.6994563809
 30
0.0
 11
6329.0187550381
 21
5063.6994563809
 31
0.0
  0
ARC
  5
B9
330
1F
100
AcDbEntity
  8
0
  6
Continuous
 62
     7
370
    25
100
AcDbCircle
 10
6312.0187553361
 20
5063.6994545927
 30
0.0
 40
17.0
100
AcDbArc
 50
335.6842608288
 51
0.0
  0
ARC
  5
BA
330
1F
100
AcDbEntity
  8
0
  6
Continuous
 62
     7
370
    25
100
AcDbCircle
 10
6236.0187553361
 20
5063.6994545927
 30
0.0
 40
17.00000000000048
100
AcDbArc
 50
180.0
 51
204.3157391712
  0
LINE
  5
BB
330
1F
100
AcDbEntity
  8
0
  6
Continuous
 62
     7
370
    25
100
AcDbLine
 10
6219.0187556341
 20
5063.6994563809
 30
0.0
 11
6224.018754591
 21
5063.6994563809
 31
0.0
  0
ARC
  5
BC
330
1F
100
AcDbEntity
  8
0
  6
Continuous
 62
     7
370
    25
100
AcDbCircle
 10
6236.0187553361
 20
5063.6994545927
 30
0.0
 40
12.0
100
AcDbArc
 50
180.0
 51
270.0
  0
LINE
  5
BD
330
1F
100
AcDbEntity
  8
0
  6
Continuous
 62
     7
370
    25
100
AcDbLine
 10
6329.0187550381
 20
5064.6994546821
 30
0.0
 11
6329.0187550381
 21
5063.6994563809
 31
0.0
  0
ARC
  5
BE
330
1F
100
AcDbEntity
  8
0
  6
Continuous
 62
     7
370
    25
100
AcDbCircle
 10
6336.0187553361
 20
5064.6994545927
 30
0.0
 40
7.0
100
AcDbArc
 50
90.0
 51
180.0
  0
LINE
  5
BF
330
1F
100
AcDbEntity
  8
0
  6
Continuous
 62
     7
370
    25
100
AcDbLine
 10
6666.0187450841
 20
5071.6994539669
 30
0.0
 11
6336.0187543228
 21
5071.6994539669
 31
0.0
  0
ARC
  5
C0
330
1F
100
AcDbEntity
  8
0
  6
Continuous
 62
     7
370
    25
100
AcDbCircle
 10
6336.0187553361
 20
5064.6994545927
 30
0.0
 40
12.0
100
AcDbArc
 50
90.0
 51
180.0
  0
LINE
  5
C1
330
1F
100
AcDbEntity
  8
0
  6
Continuous
 62
     7
370
    25
100
AcDbLine
 10
6336.0187543228
 20
5076.6994529238
 30
0.0
 11
6336.0187543228
 21
5071.6994539669
 31
0.0
  0
LINE
  5
C2
330
1F
100
AcDbEntity
  8
0
  6
Continuous
 62
     7
370
    25
100
AcDbLine
 10
6324.0187560812
 20
5064.6994546821
 30
0.0
 11
6329.0187550381
 21
5064.6994546821
 31
0.0
  0
LINE
  5
C3
330
1F
100
AcDbEntity
  8
0
  6
Continuous
 62
     7
370
    25
100
AcDbLine
 10
6324.0187560812
 20
5063.6994563809
 30
0.0
 11
6324.0187560812
 21
5064.6994546821
 31
0.0
  0
LINE
  5
C4
330
1F
100
AcDbEntity
  8
0
  6
Continuous
 62
     7
370
    25
100
AcDbLine
 10
6212.0187563494
 20
5071.6994539669
 30
0.0
 11
5882.0187655881
 21
5071.6994539669
 31
0.0
  0
ARC
  5
C5
330
1F
100
AcDbEntity
  8
0
  6
Continuous
 62
     7
370
    25
100
AcDbCircle
 10
6212.0187553361
 20
5064.6994545927
 30
0.0
 40
7.0
100
AcDbArc
 50
0.0
 51
90.0
  0
LINE
  5
C6
330
1F
100
AcDbEntity
  8
0
  6
Continuous
 62
     7
370
    25
100
AcDbLine
 10
6219.0187556341
 20
5063.6994563809
 30
0.0
 11
6219.0187556341
 21
5064.6994546821
 31
0.0
  0
LINE
  5
C7
330
1F
100
AcDbEntity
  8
0
  6
Continuous
 62
     7
370
    25
100
AcDbLine
 10
6336.0187543228
 20
5076.6994529238
 30
0.0
 11
6666.0187450841
 21
5076.6994529238
 31
0.0
  0
LINE
  5
C8
330
1F
100
AcDbEntity
  8
0
  6
Continuous
 62
     7
370
    25
100
AcDbLine
 10
5882.0187655881
 20
5076.6994529238
 30
0.0
 11
6212.0187563494
 21
5076.6994529238
 31
0.0
  0
LINE
  5
C9
330
1F
100
AcDbEntity
  8
0
  6
Continuous
 62
     7
370
    25
100
AcDbLine
 10
6212.0187563494
 20
5071.6994539669
 30
0.0
 11
6212.0187563494
 21
5076.6994529238
 31
0.0
  0
ARC
  5
CA
330
1F
100
AcDbEntity
  8
0
  6
Continuous
 62
     7
370
    25
100
AcDbCircle
 10
6212.0187553361
 20
5064.6994545927
 30
0.0
 40
12.0
100
AcDbArc
 50
0.0
 51
90.0
  0
LINE
  5
CB
330
1F
100
AcDbEntity
  8
0
  6
Continuous
 62
     7
370
    25
100
AcDbLine
 10
6219.0187556341
 20
5064.6994546821
 30
0.0
 11
6224.018754591
 21
5064.6994546821
 31
0.0
  0
LINE
  5
CC
330
1F
100
AcDbEntity
  8
0
  6
Continuous
 62
     7
370
    25
100
AcDbLine
 10
6224.018754591
 20
5064.6994546821
 30
0.0
 11
6224.018754591
 21
5063.6994563809
 31
0.0
  0
LINE
  5
CD
330
1F
100
AcDbEntity
  8
0
  6
Continuous
 62
     7
370
    25
100
AcDbLine
 10
5949.018767257
 20
5088.6994548907
 30
0.0
 11
5877.0187405541
 21
5088.6994548907
 31
0.0
  0
LINE
  5
CE
330
1F
100
AcDbEntity
  8
0
  6
Continuous
 62
     7
370
    25
100
AcDbLine
 10
5949.018767257
 20
5084.30619769
 30
0.0
 11
6224.8700393036
 21
5084.30619769
 31
0.0
  0
SPLINE
  5
CF
330
1F
100
AcDbEntity
  8
0
  6
Continuous
 62
     7
370
    25
100
AcDbSpline
210
0.0
220
0.0
230
1.0
 70
     8
 71
     3
 72
    14
 73
    10
 74
     0
 42
0.000000001
 43
0.00000001
 40
0.0
 40
0.0
 40
0.0
 40
0.0
 40
0.25
 40
0.25
 40
0.5
 40
0.5
 40
0.75
 40
0.75
 40
1.0
 40
1.0
 40
1.0
 40
1.0
 10
6227.748081677367
 20
5083.078852326013
 30
0.0
 10
6227.441107172657
 20
5083.131078238104
 30
0.0
 10
6227.15064935769
 20
5083.200061441305
 30
0.0
 10
6226.598659350473
 20
5083.365716694501
 30
0.0
 10
6226.334882749436
 20
5083.463504808708
 30
0.0
 10
6225.84759786628
 20
5083.678403114818
 30
0.0
 10
6225.624897595373
 20
5083.794699769204
 30
0.0
 10
6225.21764422231
 20
5084.041256754744
 30
0.0
 10
6225.032694066356
 20
5084.172067896221
 30
0.0
 10
6224.870037929019
 20
5084.306195412871
 30
0.0
  0
SPLINE
  5
D0
330
1F
100
AcDbEntity
  8
0
  6
Continuous
 62
     7
370
    25
100
AcDbSpline
210
0.0
220
0.0
230
1.0
 70
     8
 71
     3
 72
    22
 73
    18
 74
     0
 42
0.000000001
 43
0.00000001
 40
0.0
 40
0.0
 40
0.0
 40
0.0
 40
0.2499999999999998
 40
0.2499999999999998
 40
0.3749999999999997
 40
0.3749999999999997
 40
0.4999999999999998
 40
0.4999999999999998
 40
0.5624999999999997
 40
0.5624999999999997
 40
0.5937499999999997
 40
0.5937499999999997
 40
0.6249999999999997
 40
0.6249999999999997
 40
0.7499999999999998
 40
0.7499999999999998
 40
1.0
 40
1.0
 40
1.0
 40
1.0
 10
6320.289428994834
 20
5083.078852326013
 30
0.0
 10
6312.777553930334
 20
5081.800848710934
 30
0.0
 10
6305.202060744537
 20
5080.562640352922
 30
0.0
 10
6293.703482522355
 20
5079.208259849842
 30
0.0
 10
6289.847963761519
 20
5078.84093524402
 30
0.0
 10
6282.085249644397
 20
5078.336206853917
 30
0.0
 10
6278.177992745027
 20
5078.199434168894
 30
0.0
 10
6272.275154575498
 20
5078.192021917976
 30
0.0
 10
6270.300573596925
 20
5078.222213806965
 30
0.0
 10
6267.328111747207
 20
5078.316544738762
 30
0.0
 10
6266.335408137351
 20
5078.356172480319
 30
0.0
 10
6264.357160037431
 20
5078.450848892945
 30
0.0
 10
6263.370270101826
 20
5078.505931488431
 30
0.0
 10
6258.446681122707
 20
5078.818107502944
 30
0.0
 10
6254.542628365578
 20
5079.186286476195
 30
0.0
 10
6242.920948980324
 20
5080.547540533154
 30
0.0
 10
6235.293108272303
 20
5081.795208604385
 30
0.0
 10
6227.748081677367
 20
5083.078852326013
 30
0.0
  0
SPLINE
  5
D1
330
1F
100
AcDbEntity
  8
0
  6
Continuous
 62
     7
370
    25
100
AcDbSpline
210
0.0
220
0.0
230
1.0
 70
     8
 71
     3
 72
    14
 73
    10
 74
     0
 42
0.000000001
 43
0.00000001
 40
0.0
 40
0.0
 40
0.0
 40
0.0
 40
0.25
 40
0.25
 40
0.5
 40
0.5
 40
0.75
 40
0.75
 40
1.0
 40
1.0
 40
1.0
 40
1.0
 10
6323.167472743181
 20
5084.306195412871
 30
0.0
 10
6323.004797821254
 20
5084.172052406302
 30
0.0
 10
6322.822383376606
 20
5084.043002454609
 30
0.0
 10
6322.417295747694
 20
5083.797316715706
 30
0.0
 10
6322.193891328406
 20
5083.680308236139
 30
0.0
 10
6321.704605681592
 20
5083.464228297988
 30
0.0
 10
6321.444566439111
 20
5083.367668517378
 30
0.0
 10
6320.891685575587
 20
5083.201277012543
 30
0.0
 10
6320.59642659886
 20
5083.131082168016
 30
0.0
 10
6320.289428994834
 20
5083.078852326013
 30
0.0
  0
LINE
  5
D2
330
1F
100
AcDbEntity
  8
0
  6
Continuous
 62
     7
370
    25
100
AcDbLine
 10
6599.0187434152
 20
5084.30619769
 30
0.0
 11
6323.1674713686
 21
5084.30619769
 31
0.0
  0
LINE
  5
D3
330
1F
100
AcDbEntity
  8
0
  6
Continuous
 62
     7
370
    25
100
AcDbLine
 10
6671.0187701181
 20
5088.6994548907
 30
0.0
 11
6599.0187434152
 21
5088.6994548907
 31
0.0
  0
SPLINE
  5
D4
330
1F
100
AcDbEntity
  8
0
  6
Continuous
 62
     7
370
    25
100
AcDbSpline
210
0.0
220
0.0
230
1.0
 70
     8
 71
     3
 72
    11
 73
     7
 74
     0
 42
0.000000001
 43
0.00000001
 40
0.0
 40
0.0
 40
0.0
 40
0.0
 40
0.001953273774883
 40
0.4075569802449589
 40
0.7406860149700055
 40
1.0
 40
1.0
 40
1.0
 40
1.0
 10
6024.0187553361
 20
5405.748891161933
 30
0.0
 10
6024.015397590998
 20
5405.751981144756
 30
0.0
 10
6023.314793061358
 20
5406.396716196416
 30
0.0
 10
6022.045511184465
 20
5407.45560102533
 30
0.0
 10
6020.438102867007
 20
5408.499184851881
 30
0.0
 10
6019.77310754074
 20
5408.638473327815
 30
0.0
 10
6019.482037205988
 20
5408.699440287604
 30
0.0
  0
LINE
  5
D5
330
1F
100
AcDbEntity
  8
0
  6
Continuous
 62
     7
370
    25
100
AcDbLine
 10
6024.0187553361
 20
5405.7488911619
 30
0.0
 11
6024.0187553361
 21
5209.9661254158
 31
0.0
  0
SPLINE
  5
D6
330
1F
100
AcDbEntity
  8
0
  6
Continuous
 62
     7
370
    25
100
AcDbSpline
210
0.0
220
0.0
230
1.0
 70
     8
 71
     3
 72
    30
 73
    26
 74
     0
 42
0.000000001
 43
0.00000001
 40
0.0
 40
0.0
 40
0.0
 40
0.0
 40
0.0312499999999978
 40
0.0312499999999978
 40
0.0624999999999956
 40
0.0624999999999956
 40
0.0937499999999934
 40
0.0937499999999934
 40
0.1249999999999912
 40
0.1249999999999912
 40
0.1874999999999927
 40
0.1874999999999927
 40
0.2499999999999941
 40
0.2499999999999941
 40
0.3124999999999956
 40
0.3124999999999956
 40
0.374999999999997
 40
0.374999999999997
 40
0.4999999999999974
 40
0.4999999999999974
 40
0.6249999999999979
 40
0.6249999999999979
 40
0.7499999999999983
 40
0.7499999999999983
 40
1.0
 40
1.0
 40
1.0
 40
1.0
 10
6024.0187553361
 20
5209.966131292116
 30
0.0
 10
6023.825519417986
 20
5209.966131292116
 30
0.0
 10
6023.638618026344
 20
5209.998562310144
 30
0.0
 10
6023.275549490728
 20
5210.118385374929
 30
0.0
 10
6023.104570910821
 20
5210.204268719553
 30
0.0
 10
6022.785399957832
 20
5210.409712187421
 30
0.0
 10
6022.638234957799
 20
5210.528452193236
 30
0.0
 10
6022.366688514112
 20
5210.782407799641
 30
0.0
 10
6022.241118683293
 20
5210.918617391611
 30
0.0
 10
6021.886646475058
 20
5211.347380532357
 30
0.0
 10
6021.680094708564
 20
5211.659878847977
 30
0.0
 10
6021.313430907074
 20
5212.298668869857
 30
0.0
 10
6021.151472535897
 20
5212.628180458604
 30
0.0
 10
6020.856339972339
 20
5213.300875967729
 30
0.0
 10
6020.723093509725
 20
5213.644990549887
 30
0.0
 10
6020.480049272435
 20
5214.339212833233
 30
0.0
 10
6020.370326355112
 20
5214.689052715946
 30
0.0
 10
6020.06856731077
 20
5215.744961805308
 30
0.0
 10
6019.903551470964
 20
5216.45733249638
 30
0.0
 10
6019.623508129427
 20
5217.893934255538
 30
0.0
 10
6019.508707143365
 20
5218.619300131994
 30
0.0
 10
6019.319273998627
 20
5220.073072436724
 30
0.0
 10
6019.244636036412
 20
5220.801658731465
 30
0.0
 10
6019.070052152435
 20
5222.991792426243
 30
0.0
 10
6019.0187553361
 20
5224.458571637416
 30
0.0
 10
6019.0187553361
 20
5225.928139914143
 30
0.0
  0
LINE
  5
D7
330
1F
100
AcDbEntity
  8
0
  6
Continuous
 62
     7
370
    25
100
AcDbLine
 10
6019.0187601045
 20
5225.9281449785
 30
0.0
 11
6019.0187601045
 21
5408.6994402876
 31
0.0
  0
LINE
  5
D8
330
1F
100
AcDbEntity
  8
0
  6
Continuous
 62
     7
370
    25
100
AcDbLine
 10
6019.0187601045
 20
5408.6994402876
 30
0.0
 11
6019.482037206
 21
5408.6994402876
 31
0.0
  0
LINE
  5
D9
330
1F
100
AcDbEntity
  8
0
  6
Continuous
 62
     7
370
    25
100
AcDbLine
 10
6501.5187618926
 20
5214.6411710253
 30
0.0
 11
6455.5661288693
 21
5214.6411710253
 31
0.0
  0
SPLINE
  5
DA
330
1F
100
AcDbEntity
  8
0
  6
Continuous
 62
     7
370
    25
100
AcDbSpline
210
0.0
220
0.0
230
1.0
 70
     8
 71
     3
 72
    62
 73
    58
 74
     0
 42
0.000000001
 43
0.00000001
 40
0.0
 40
0.0
 40
0.0
 40
0.0
 40
0.0624999999999984
 40
0.0624999999999984
 40
0.1249999999999968
 40
0.1249999999999968
 40
0.1562499999999955
 40
0.1562499999999955
 40
0.1874999999999943
 40
0.1874999999999943
 40
0.2499999999999931
 40
0.2499999999999931
 40
0.2812499999999925
 40
0.2812499999999925
 40
0.2968749999999925
 40
0.2968749999999925
 40
0.3124999999999925
 40
0.3124999999999925
 40
0.3749999999999932
 40
0.3749999999999932
 40
0.4062499999999938
 40
0.4062499999999938
 40
0.4218749999999943
 40
0.4218749999999943
 40
0.4374999999999947
 40
0.4374999999999947
 40
0.4999999999999971
 40
0.4999999999999971
 40
0.5156249999999977
 40
0.5156249999999977
 40
0.5312499999999983
 40
0.5312499999999983
 40
0.5624999999999994
 40
0.5624999999999994
 40
0.6250000000000009
 40
0.6250000000000009
 40
0.6406250000000013
 40
0.6406250000000013
 40
0.6562500000000018
 40
0.6562500000000018
 40
0.687500000000002
 40
0.687500000000002
 40
0.7187500000000022
 40
0.7187500000000022
 40
0.7343750000000027
 40
0.7343750000000027
 40
0.7500000000000031
 40
0.7500000000000031
 40
0.8125000000000029
 40
0.8125000000000029
 40
0.8437500000000024
 40
0.8437500000000024
 40
0.8750000000000019
 40
0.8750000000000019
 40
0.937500000000001
 40
0.937500000000001
 40
1.0
 40
1.0
 40
1.0
 40
1.0
 10
6455.566130432656
 20
5214.641175584362
 30
0.0
 10
6455.191841557092
 20
5216.090790166094
 30
0.0
 10
6454.708631702425
 20
5217.516207687736
 30
0.0
 10
6453.515618645869
 20
5220.312348354027
 30
0.0
 10
6452.805972732735
 20
5221.683135451741
 30
0.0
 10
6451.553987044059
 20
5223.689854448231
 30
0.0
 10
6451.103013279096
 20
5224.353237114447
 30
0.0
 10
6450.150133018281
 20
5225.639791466784
 30
0.0
 10
6449.647496245011
 20
5226.264680557721
 30
0.0
 10
6448.060407519288
 20
5228.082656315418
 30
0.0
 10
6446.897308435429
 20
5229.219459488696
 30
0.0
 10
6444.984212168424
 20
5230.799385905922
 30
0.0
 10
6444.31831746842
 20
5231.305056203501
 30
0.0
 10
6443.274430436876
 20
5232.029460711844
 30
0.0
 10
6442.918816052244
 20
5232.265239614587
 30
0.0
 10
6442.200609384759
 20
5232.719682938869
 30
0.0
 10
6441.837014221743
 20
5232.939066314834
 30
0.0
 10
6439.99673760299
 20
5233.996855372381
 30
0.0
 10
6438.453640685005
 20
5234.718694865908
 30
0.0
 10
6436.02998301433
 20
5235.606537211377
 30
0.0
 10
6435.20383501315
 20
5235.869842114368
 30
0.0
 10
6433.935897862042
 20
5236.213115993407
 30
0.0
 10
6433.507880063086
 20
5236.31898250341
 30
0.0
 10
6432.652114597673
 20
5236.510788881495
 30
0.0
 10
6432.22319319658
 20
5236.59707717138
 30
0.0
 10
6430.073464905298
 20
5236.981015289186
 30
0.0
 10
6428.337419025826
 20
5237.137231737558
 30
0.0
 10
6426.146918448058
 20
5237.142070070632
 30
0.0
 10
6425.707788321116
 20
5237.13344836561
 30
0.0
 10
6424.827432716125
 20
5237.096701316343
 30
0.0
 10
6424.384958577286
 20
5237.068451419471
 30
0.0
 10
6423.065323759564
 20
5236.954822131212
 30
0.0
 10
6422.196233977727
 20
5236.840940081813
 30
0.0
 10
6419.619853793903
 20
5236.389183480651
 30
0.0
 10
6417.94321801513
 20
5235.941970909403
 30
0.0
 10
6415.898742428198
 20
5235.201903106419
 30
0.0
 10
6415.491391845937
 20
5235.044325361794
 30
0.0
 10
6414.688511947525
 20
5234.713514157886
 30
0.0
 10
6414.292807597256
 20
5234.540282997841
 30
0.0
 10
6413.122468307444
 20
5233.997814140203
 30
0.0
 10
6412.364576004729
 20
5233.605841930508
 30
0.0
 10
6410.891980160301
 20
5232.763885334942
 30
0.0
 10
6410.177281256043
 20
5232.313894007712
 30
0.0
 10
6409.137232898626
 20
5231.596442087473
 30
0.0
 10
6408.795890389885
 20
5231.350204998573
 30
0.0
 10
6408.12390047728
 20
5230.843630347589
 30
0.0
 10
6407.792509587752
 20
5230.582663342489
 30
0.0
 10
6406.173786663107
 20
5229.252084655807
 30
0.0
 10
6404.999253577505
 20
5228.106064759297
 30
0.0
 10
6403.402417359976
 20
5226.279848529147
 30
0.0
 10
6402.89778818003
 20
5225.653134495633
 30
0.0
 10
6401.942812569851
 20
5224.365163196721
 30
0.0
 10
6401.491238441565
 20
5223.701591047981
 30
0.0
 10
6400.23603433095
 20
5221.691585389634
 30
0.0
 10
6399.524919175152
 20
5220.318788021285
 30
0.0
 10
6398.329824045227
 20
5217.519075800704
 30
0.0
 10
6397.846006230981
 20
5216.092095810253
 30
0.0
 10
6397.471380239544
 20
5214.641175584362
 30
0.0
  0
LINE
  5
DB
330
1F
100
AcDbEntity
  8
0
  6
Continuous
 62
     7
370
    25
100
AcDbLine
 10
6397.4713815048
 20
5214.6411710253
 30
0.0
 11
6351.5187559321
 21
5214.6411710253
 31
0.0
  0
SPLINE
  5
DC
330
1F
100
AcDbEntity
  8
0
  6
Continuous
 62
     7
370
    25
100
AcDbSpline
210
0.0
220
0.0
230
1.0
 70
     8
 71
     3
 72
    20
 73
    16
 74
     0
 42
0.000000001
 43
0.00000001
 40
0.0
 40
0.0
 40
0.0
 40
0.0
 40
0.1250000000000009
 40
0.1250000000000009
 40
0.2500000000000018
 40
0.2500000000000018
 40
0.3750000000000027
 40
0.3750000000000027
 40
0.5000000000000036
 40
0.5000000000000036
 40
0.6250000000000044
 40
0.6250000000000044
 40
0.7500000000000053
 40
0.7500000000000053
 40
1.0
 40
1.0
 40
1.0
 40
1.0
 10
6351.5187553361
 20
5214.641175584362
 30
0.0
 10
6351.117156263771
 20
5214.641175584362
 30
0.0
 10
6350.722317050432
 20
5214.60913809471
 30
0.0
 10
6349.945362300474
 20
5214.484826743989
 30
0.0
 10
6349.560891589747
 20
5214.391729658767
 30
0.0
 10
6348.815460098044
 20
5214.14802649551
 30
0.0
 10
6348.460384167854
 20
5213.999812164671
 30
0.0
 10
6347.782521220191
 20
5213.655397301086
 30
0.0
 10
6347.457444000765
 20
5213.457389525447
 30
0.0
 10
6346.851455346305
 20
5213.023787174237
 30
0.0
 10
6346.571217623852
 20
5212.789350823338
 30
0.0
 10
6346.052200165111
 20
5212.288678620478
 30
0.0
 10
6345.812103074902
 20
5212.020544154061
 30
0.0
 10
6345.163702392122
 20
5211.185897176276
 30
0.0
 10
6344.825639739812
 20
5210.592089555883
 30
0.0
 10
6344.571120828642
 20
5209.966131292116
 30
0.0
  0
LINE
  5
DD
330
1F
100
AcDbEntity
  8
0
  6
Continuous
 62
     7
370
    25
100
AcDbLine
 10
6329.0187550381
 20
5209.9661254158
 30
0.0
 11
6344.5711193278
 21
5209.9661254158
 31
0.0
  0
LINE
  5
DE
330
1F
100
AcDbEntity
  8
0
  6
Continuous
 62
     7
370
    25
100
AcDbLine
 10
6329.0187550381
 20
5233.4562712183
 30
0.0
 11
6329.0187550381
 21
5209.9661254158
 31
0.0
  0
SPLINE
  5
DF
330
1F
100
AcDbEntity
  8
0
  6
Continuous
 62
     7
370
    25
100
AcDbSpline
210
0.0
220
0.0
230
1.0
 70
     8
 71
     3
 72
    22
 73
    18
 74
     0
 42
0.000000001
 43
0.00000001
 40
0.0
 40
0.0
 40
0.0
 40
0.0
 40
0.250000000000003
 40
0.250000000000003
 40
0.3750000000000029
 40
0.3750000000000029
 40
0.5000000000000028
 40
0.5000000000000028
 40
0.6250000000000026
 40
0.6250000000000026
 40
0.7500000000000024
 40
0.7500000000000024
 40
0.8750000000000022
 40
0.8750000000000022
 40
0.9375000000000011
 40
0.9375000000000011
 40
1.0
 40
1.0
 40
1.0
 40
1.0
 10
6329.0187553361
 20
5233.456271888517
 30
0.0
 10
6329.0187553361
 20
5235.377870677984
 30
0.0
 10
6328.875683762352
 20
5237.301314512481
 30
0.0
 10
6328.469521228173
 20
5240.190483022976
 30
0.0
 10
6328.301691912099
 20
5241.154162230995
 30
0.0
 10
6327.898207131139
 20
5243.082368494016
 30
0.0
 10
6327.663131668472
 20
5244.043985781062
 30
0.0
 10
6327.121611129259
 20
5245.951721018197
 30
0.0
 10
6326.815126200705
 20
5246.899198283952
 30
0.0
 10
6326.114286917492
 20
5248.776587572827
 30
0.0
 10
6325.719086664194
 20
5249.709132526394
 30
0.0
 10
6324.816852120113
 20
5251.520341331733
 30
0.0
 10
6324.311561320765
 20
5252.402471698329
 30
0.0
 10
6323.407415516021
 20
5253.658265695487
 30
0.0
 10
6323.083303269423
 20
5254.061819867818
 30
0.0
 10
6322.37622452905
 20
5254.8155197468
 30
0.0
 10
6321.993340208763
 20
5255.167539895066
 30
0.0
 10
6321.560102653567
 20
5255.4764268556
 30
0.0
  0
SPLINE
  5
E0
330
1F
100
AcDbEntity
  8
0
  6
Continuous
 62
     7
370
    25
100
AcDbSpline
210
0.0
220
0.0
230
1.0
 70
     8
 71
     3
 72
    38
 73
    34
 74
     0
 42
0.000000001
 43
0.00000001
 40
0.0
 40
0.0
 40
0.0
 40
0.0
 40
0.125
 40
0.125
 40
0.1875000000000001
 40
0.1875000000000001
 40
0.2500000000000003
 40
0.2500000000000003
 40
0.3125000000000005
 40
0.3125000000000005
 40
0.3750000000000007
 40
0.3750000000000007
 40
0.4375000000000009
 40
0.4375000000000009
 40
0.500000000000001
 40
0.500000000000001
 40
0.5625000000000012
 40
0.5625000000000012
 40
0.5937500000000013
 40
0.5937500000000013
 40
0.6250000000000014
 40
0.6250000000000014
 40
0.6875000000000011
 40
0.6875000000000011
 40
0.7187500000000009
 40
0.7187500000000009
 40
0.7500000000000006
 40
0.7500000000000006
 40
0.8125000000000004
 40
0.8125000000000004
 40
0.8750000000000003
 40
0.8750000000000003
 40
1.0
 40
1.0
 40
1.0
 40
1.0
 10
6226.477408018633
 20
5255.4764268556
 30
0.0
 10
6229.989492118568
 20
5257.980450271297
 30
0.0
 10
6233.571097554634
 20
5260.397650021944
 30
0.0
 10
6239.10220761333
 20
5263.804788021182
 30
0.0
 10
6240.972665457777
 20
5264.903574219089
 30
0.0
 10
6244.781545547282
 20
5267.004034477482
 30
0.0
 10
6246.719894957134
 20
5268.005821712281
 30
0.0
 10
6250.68462818525
 20
5269.880179152936
 30
0.0
 10
6252.695245523503
 20
5270.744944021103
 30
0.0
 10
6256.777039205244
 20
5272.287180253828
 30
0.0
 10
6258.849576994767
 20
5272.965269117947
 30
0.0
 10
6263.072851975319
 20
5274.089155547755
 30
0.0
 10
6265.224361439017
 20
5274.534932940913
 30
0.0
 10
6269.619565373905
 20
5275.141718664275
 30
0.0
 10
6271.813278001091
 20
5275.295105267758
 30
0.0
 10
6276.192800968092
 20
5275.296559317298
 30
0.0
 10
6278.378612024833
 20
5275.14465566699
 30
0.0
 10
6281.65161652446
 20
5274.696489999443
 30
0.0
 10
6282.744648510668
 20
5274.509868060561
 30
0.0
 10
6284.913288209094
 20
5274.069582096198
 30
0.0
 10
6285.987308240646
 20
5273.816514154484
 30
0.0
 10
6289.181333850021
 20
5272.968001992515
 30
0.0
 10
6291.273373467579
 20
5272.283467549413
 30
0.0
 10
6294.365950338463
 20
5271.11323252238
 30
0.0
 10
6295.388232437861
 20
5270.699474429347
 30
0.0
 10
6297.404963984318
 20
5269.835834698571
 30
0.0
 10
6298.401354202566
 20
5269.385234615002
 30
0.0
 10
6301.359113744521
 20
5267.984687284677
 30
0.0
 10
6303.289257349233
 20
5266.986300891082
 30
0.0
 10
6307.084925903891
 20
5264.891865700607
 30
0.0
 10
6308.950387869279
 20
5263.795713620164
 30
0.0
 10
6314.469990440188
 20
5260.39500886079
 30
0.0
 10
6318.048486705197
 20
5257.980116491567
 30
0.0
 10
6321.560102653567
 20
5255.4764268556
 30
0.0
  0
SPLINE
  5
E1
330
1F
100
AcDbEntity
  8
0
  6
Continuous
 62
     7
370
    25
100
AcDbSpline
210
0.0
220
0.0
230
1.0
 70
     8
 71
     3
 72
    24
 73
    20
 74
     0
 42
0.000000001
 43
0.00000001
 40
0.0
 40
0.0
 40
0.0
 40
0.0
 40
0.0624999999999996
 40
0.0624999999999996
 40
0.1249999999999992
 40
0.1249999999999992
 40
0.1874999999999988
 40
0.1874999999999988
 40
0.2499999999999984
 40
0.2499999999999984
 40
0.3124999999999981
 40
0.3124999999999981
 40
0.3749999999999977
 40
0.3749999999999977
 40
0.4999999999999969
 40
0.4999999999999969
 40
0.7499999999999984
 40
0.7499999999999984
 40
1.0
 40
1.0
 40
1.0
 40
1.0
 10
6226.477408018633
 20
5255.4764268556
 30
0.0
 10
6226.043817205962
 20
5255.167288031795
 30
0.0
 10
6225.653664343528
 20
5254.808636783502
 30
0.0
 10
6224.939378483663
 20
5254.044732192943
 30
0.0
 10
6224.614988429538
 20
5253.638930320506
 30
0.0
 10
6224.010344596354
 20
5252.795739847104
 30
0.0
 10
6223.732396887809
 20
5252.360898837674
 30
0.0
 10
6223.214521567536
 20
5251.477298589659
 30
0.0
 10
6222.974134547953
 20
5251.027581929558
 30
0.0
 10
6222.522348308983
 20
5250.116163707611
 30
0.0
 10
6222.311017942231
 20
5249.654429988878
 30
0.0
 10
6221.912601921839
 20
5248.721251285952
 30
0.0
 10
6221.725651694181
 20
5248.249871583962
 30
0.0
 10
6221.20086493997
 20
5246.835971609487
 30
0.0
 10
6220.896672246568
 20
5245.889218511539
 30
0.0
 10
6220.092901158056
 20
5243.041399103512
 30
0.0
 10
6219.700121259959
 20
5241.133089783851
 30
0.0
 10
6219.162688945794
 20
5237.304724943694
 30
0.0
 10
6219.0187553361
 20
5235.384527273211
 30
0.0
 10
6219.0187553361
 20
5233.456271888517
 30
0.0
  0
LINE
  5
E2
330
1F
100
AcDbEntity
  8
0
  6
Continuous
 62
     7
370
    25
100
AcDbLine
 10
6219.0187556341
 20
5209.9661254158
 30
0.0
 11
6219.0187556341
 21
5233.4562712183
 31
0.0
  0
LINE
  5
E3
330
1F
100
AcDbEntity
  8
0
  6
Continuous
 62
     7
370
    25
100
AcDbLine
 10
6203.4663913444
 20
5209.9661254158
 30
0.0
 11
6219.0187556341
 21
5209.9661254158
 31
0.0
  0
SPLINE
  5
E4
330
1F
100
AcDbEntity
  8
0
  6
Continuous
 62
     7
370
    25
100
AcDbSpline
210
0.0
220
0.0
230
1.0
 70
     8
 71
     3
 72
    20
 73
    16
 74
     0
 42
0.000000001
 43
0.00000001
 40
0.0
 40
0.0
 40
0.0
 40
0.0
 40
0.1250000000000009
 40
0.1250000000000009
 40
0.2500000000000018
 40
0.2500000000000018
 40
0.3750000000000027
 40
0.3750000000000027
 40
0.5000000000000036
 40
0.5000000000000036
 40
0.6250000000000044
 40
0.6250000000000044
 40
0.7500000000000053
 40
0.7500000000000053
 40
1.0
 40
1.0
 40
1.0
 40
1.0
 10
6196.5187553361
 20
5214.641175584362
 30
0.0
 10
6196.920354408429
 20
5214.641175584362
 30
0.0
 10
6197.315193621768
 20
5214.60913809471
 30
0.0
 10
6198.092148371727
 20
5214.484826743989
 30
0.0
 10
6198.476619082453
 20
5214.391729658767
 30
0.0
 10
6199.222050574156
 20
5214.14802649551
 30
0.0
 10
6199.577126504347
 20
5213.999812164671
 30
0.0
 10
6200.254989452011
 20
5213.655397301086
 30
0.0
 10
6200.580066671435
 20
5213.457389525447
 30
0.0
 10
6201.186055325896
 20
5213.023787174237
 30
0.0
 10
6201.466293048348
 20
5212.789350823338
 30
0.0
 10
6201.98531050709
 20
5212.288678620478
 30
0.0
 10
6202.225407597299
 20
5212.020544154061
 30
0.0
 10
6202.873808280079
 20
5211.185897176276
 30
0.0
 10
6203.211870932389
 20
5210.592089555883
 30
0.0
 10
6203.466389843558
 20
5209.966131292116
 30
0.0
  0
LINE
  5
E5
330
1F
100
AcDbEntity
  8
0
  6
Continuous
 62
     7
370
    25
100
AcDbLine
 10
6150.5661291674
 20
5214.6411710253
 30
0.0
 11
6196.5187547401
 21
5214.6411710253
 31
0.0
  0
SPLINE
  5
E6
330
1F
100
AcDbEntity
  8
0
  6
Continuous
 62
     7
370
    25
100
AcDbSpline
210
0.0
220
0.0
230
1.0
 70
     8
 71
     3
 72
    62
 73
    58
 74
     0
 42
0.000000001
 43
0.00000001
 40
0.0
 40
0.0
 40
0.0
 40
0.0
 40
0.0625000000000006
 40
0.0625000000000006
 40
0.1250000000000011
 40
0.1250000000000011
 40
0.1562500000000012
 40
0.1562500000000012
 40
0.1875000000000014
 40
0.1875000000000014
 40
0.2500000000000029
 40
0.2500000000000029
 40
0.2812500000000035
 40
0.2812500000000035
 40
0.2968750000000036
 40
0.2968750000000036
 40
0.3125000000000036
 40
0.3125000000000036
 40
0.3750000000000028
 40
0.3750000000000028
 40
0.4062500000000025
 40
0.4062500000000025
 40
0.4218750000000024
 40
0.4218750000000024
 40
0.4375000000000024
 40
0.4375000000000024
 40
0.5000000000000029
 40
0.5000000000000029
 40
0.5156250000000032
 40
0.5156250000000032
 40
0.5312500000000036
 40
0.5312500000000036
 40
0.5625000000000042
 40
0.5625000000000042
 40
0.6250000000000044
 40
0.6250000000000044
 40
0.6406250000000044
 40
0.6406250000000044
 40
0.6562500000000044
 40
0.6562500000000044
 40
0.6875000000000036
 40
0.6875000000000036
 40
0.7187500000000026
 40
0.7187500000000026
 40
0.7343750000000018
 40
0.7343750000000018
 40
0.7500000000000009
 40
0.7500000000000009
 40
0.8124999999999997
 40
0.8124999999999997
 40
0.8437499999999994
 40
0.8437499999999994
 40
0.8749999999999993
 40
0.8749999999999993
 40
0.9374999999999997
 40
0.9374999999999997
 40
1.0
 40
1.0
 40
1.0
 40
1.0
 10
6092.471380239544
 20
5214.641175584362
 30
0.0
 10
6092.845669115109
 20
5216.090790166094
 30
0.0
 10
6093.328878969775
 20
5217.516207687736
 30
0.0
 10
6094.521892026331
 20
5220.312348354027
 30
0.0
 10
6095.231537939465
 20
5221.683135451741
 30
0.0
 10
6096.483523628141
 20
5223.689854448231
 30
0.0
 10
6096.934497393105
 20
5224.353237114447
 30
0.0
 10
6097.887377653919
 20
5225.639791466784
 30
0.0
 10
6098.390014427189
 20
5226.264680557721
 30
0.0
 10
6099.977103152913
 20
5228.082656315418
 30
0.0
 10
6101.140202236771
 20
5229.219459488696
 30
0.0
 10
6103.053298503776
 20
5230.799385905922
 30
0.0
 10
6103.71919320378
 20
5231.305056203501
 30
0.0
 10
6104.763080235324
 20
5232.029460711844
 30
0.0
 10
6105.118694619956
 20
5232.265239614587
 30
0.0
 10
6105.836901287441
 20
5232.719682938869
 30
0.0
 10
6106.200496450458
 20
5232.939066314834
 30
0.0
 10
6108.04077306921
 20
5233.996855372381
 30
0.0
 10
6109.583869987195
 20
5234.718694865908
 30
0.0
 10
6112.007527657871
 20
5235.606537211377
 30
0.0
 10
6112.833675659051
 20
5235.869842114368
 30
0.0
 10
6114.101612810158
 20
5236.213115993408
 30
0.0
 10
6114.529630609114
 20
5236.31898250341
 30
0.0
 10
6115.385396074527
 20
5236.510788881495
 30
0.0
 10
6115.814317475621
 20
5236.59707717138
 30
0.0
 10
6117.964045766902
 20
5236.981015289186
 30
0.0
 10
6119.700091646375
 20
5237.137231737558
 30
0.0
 10
6121.890592224142
 20
5237.142070070632
 30
0.0
 10
6122.329722351084
 20
5237.13344836561
 30
0.0
 10
6123.210077956075
 20
5237.096701316343
 30
0.0
 10
6123.652552094914
 20
5237.068451419471
 30
0.0
 10
6124.972186912636
 20
5236.954822131212
 30
0.0
 10
6125.841276694472
 20
5236.840940081813
 30
0.0
 10
6128.417656878299
 20
5236.389183480651
 30
0.0
 10
6130.094292657071
 20
5235.941970909403
 30
0.0
 10
6132.138768244003
 20
5235.201903106419
 30
0.0
 10
6132.546118826263
 20
5235.044325361794
 30
0.0
 10
6133.348998724676
 20
5234.713514157886
 30
0.0
 10
6133.744703074944
 20
5234.540282997841
 30
0.0
 10
6134.915042364756
 20
5233.997814140203
 30
0.0
 10
6135.672934667471
 20
5233.605841930508
 30
0.0
 10
6137.1455305119
 20
5232.763885334942
 30
0.0
 10
6137.860229416157
 20
5232.313894007712
 30
0.0
 10
6138.900277773574
 20
5231.596442087473
 30
0.0
 10
6139.241620282315
 20
5231.350204998573
 30
0.0
 10
6139.913610194921
 20
5230.843630347589
 30
0.0
 10
6140.245001084449
 20
5230.582663342489
 30
0.0
 10
6141.863724009094
 20
5229.252084655807
 30
0.0
 10
6143.038257094696
 20
5228.106064759297
 30
0.0
 10
6144.635093312225
 20
5226.279848529147
 30
0.0
 10
6145.13972249217
 20
5225.653134495633
 30
0.0
 10
6146.09469810235
 20
5224.365163196722
 30
0.0
 10
6146.546272230637
 20
5223.701591047981
 30
0.0
 10
6147.80147634125
 20
5221.691585389634
 30
0.0
 10
6148.512591497049
 20
5220.318788021285
 30
0.0
 10
6149.707686626974
 20
5217.519075800704
 30
0.0
 10
6150.191504441219
 20
5216.092095810253
 30
0.0
 10
6150.566130432656
 20
5214.641175584362
 30
0.0
  0
LINE
  5
E7
330
1F
100
AcDbEntity
  8
0
  6
Continuous
 62
     7
370
    25
100
AcDbLine
 10
6046.5187487796
 20
5214.6411710253
 30
0.0
 11
6092.4713818029
 21
5214.6411710253
 31
0.0
  0
SPLINE
  5
E8
330
1F
100
AcDbEntity
  8
0
  6
Continuous
 62
     7
370
    25
100
AcDbSpline
210
0.0
220
0.0
230
1.0
 70
     8
 71
     3
 72
    22
 73
    18
 74
     0
 42
0.000000001
 43
0.00000001
 40
0.0
 40
0.0
 40
0.0
 40
0.0
 40
0.2500000000000087
 40
0.2500000000000087
 40
0.3750000000000137
 40
0.3750000000000137
 40
0.5000000000000185
 40
0.5000000000000185
 40
0.5625000000000177
 40
0.5625000000000177
 40
0.6250000000000167
 40
0.6250000000000167
 40
0.7500000000000111
 40
0.7500000000000111
 40
0.8750000000000057
 40
0.8750000000000057
 40
1.0
 40
1.0
 40
1.0
 40
1.0
 10
6039.571120828642
 20
5209.966131292116
 30
0.0
 10
6039.825797263741
 20
5210.592476966801
 30
0.0
 10
6040.163605963889
 20
5211.185236693827
 30
0.0
 10
6040.808923814091
 20
5212.016717855773
 30
0.0
 10
6041.049574537887
 20
5212.285949007399
 30
0.0
 10
6041.569630621777
 20
5212.78801511989
 30
0.0
 10
6041.849398456463
 20
5213.022000781242
 30
0.0
 10
6042.30069571538
 20
5213.34538566321
 30
0.0
 10
6042.456423073048
 20
5213.448563580118
 30
0.0
 10
6042.779112780809
 20
5213.645079050981
 30
0.0
 10
6042.946811900574
 20
5213.738735430935
 30
0.0
 10
6043.458155549996
 20
5213.998947255403
 30
0.0
 10
6043.812116215843
 20
5214.146433249503
 30
0.0
 10
6044.546919291935
 20
5214.387650099411
 30
0.0
 10
6044.928702184598
 20
5214.4815818733
 30
0.0
 10
6045.718064646403
 20
5214.609021855592
 30
0.0
 10
6046.11650006855
 20
5214.641175584362
 30
0.0
 10
6046.5187553361
 20
5214.641175584362
 30
0.0
  0
LINE
  5
E9
330
1F
100
AcDbEntity
  8
0
  6
Continuous
 62
     7
370
    25
100
AcDbLine
 10
6024.0187553361
 20
5209.9661254158
 30
0.0
 11
6039.5711270764
 21
5209.9661254158
 31
0.0
  0
LINE
  5
EA
330
1F
100
AcDbEntity
  8
0
  6
Continuous
 62
     7
370
    25
100
AcDbLine
 10
6524.0187553361
 20
5405.7488911619
 30
0.0
 11
6024.0187553361
 21
5405.7488911619
 31
0.0
  0
LINE
  5
EB
330
1F
100
AcDbEntity
  8
0
  6
Continuous
 62
     7
370
    25
100
AcDbLine
 10
6524.0187553361
 20
5209.9661254158
 30
0.0
 11
6524.0187553361
 21
5405.7488911619
 31
0.0
  0
LINE
  5
EC
330
1F
100
AcDbEntity
  8
0
  6
Continuous
 62
     7
370
    25
100
AcDbLine
 10
6508.4663835958
 20
5209.9661254158
 30
0.0
 11
6524.0187553361
 21
5209.9661254158
 31
0.0
  0
SPLINE
  5
ED
330
1F
100
AcDbEntity
  8
0
  6
Continuous
 62
     7
370
    25
100
AcDbSpline
210
0.0
220
0.0
230
1.0
 70
     8
 71
     3
 72
    22
 73
    18
 74
     0
 42
0.000000001
 43
0.00000001
 40
0.0
 40
0.0
 40
0.0
 40
0.0
 40
0.2500000000000087
 40
0.2500000000000087
 40
0.3750000000000137
 40
0.3750000000000137
 40
0.5000000000000185
 40
0.5000000000000185
 40
0.5625000000000177
 40
0.5625000000000177
 40
0.6250000000000167
 40
0.6250000000000167
 40
0.7500000000000111
 40
0.7500000000000111
 40
0.8750000000000057
 40
0.8750000000000057
 40
1.0
 40
1.0
 40
1.0
 40
1.0
 10
6508.466389843558
 20
5209.966131292116
 30
0.0
 10
6508.211713408459
 20
5210.592476966801
 30
0.0
 10
6507.873904708311
 20
5211.185236693827
 30
0.0
 10
6507.228586858109
 20
5212.016717855773
 30
0.0
 10
6506.987936134314
 20
5212.285949007399
 30
0.0
 10
6506.467880050423
 20
5212.78801511989
 30
0.0
 10
6506.188112215738
 20
5213.022000781242
 30
0.0
 10
6505.73681495682
 20
5213.34538566321
 30
0.0
 10
6505.581087599152
 20
5213.448563580118
 30
0.0
 10
6505.258397891392
 20
5213.645079050981
 30
0.0
 10
6505.090698771626
 20
5213.738735430935
 30
0.0
 10
6504.579355122204
 20
5213.998947255403
 30
0.0
 10
6504.225394456357
 20
5214.146433249503
 30
0.0
 10
6503.490591380266
 20
5214.387650099411
 30
0.0
 10
6503.108808487603
 20
5214.4815818733
 30
0.0
 10
6502.319446025797
 20
5214.609021855592
 30
0.0
 10
6501.921010603651
 20
5214.641175584362
 30
0.0
 10
6501.5187553361
 20
5214.641175584362
 30
0.0
  0
SPLINE
  5
EE
330
1F
100
AcDbEntity
  8
0
  6
Continuous
 62
     7
370
    25
100
AcDbSpline
210
0.0
220
0.0
230
1.0
 70
     8
 71
     3
 72
    26
 73
    22
 74
     0
 42
0.000000001
 43
0.00000001
 40
0.0
 40
0.0
 40
0.0
 40
0.0
 40
0.2499999999999947
 40
0.2499999999999947
 40
0.4999999999999893
 40
0.4999999999999893
 40
0.624999999999988
 40
0.624999999999988
 40
0.7499999999999867
 40
0.7499999999999867
 40
0.81249999999999
 40
0.81249999999999
 40
0.8749999999999933
 40
0.8749999999999933
 40
0.906249999999995
 40
0.906249999999995
 40
0.9374999999999967
 40
0.9374999999999967
 40
0.9687499999999983
 40
0.9687499999999983
 40
1.0
 40
1.0
 40
1.0
 40
1.0
 10
6529.0187553361
 20
5225.928139914143
 30
0.0
 10
6529.0187553361
 20
5224.458558695956
 30
0.0
 10
6528.967518139708
 20
5222.994283274698
 30
0.0
 10
6528.73534572383
 20
5220.078228003824
 30
0.0
 10
6528.556200774781
 20
5218.625402075685
 30
0.0
 10
6528.135146720489
 20
5216.462431799349
 30
0.0
 10
6527.969688158665
 20
5215.747658941097
 30
0.0
 10
6527.566249753419
 20
5214.335773683586
 30
0.0
 10
6527.328695595987
 20
5213.637314201499
 30
0.0
 10
6526.886812925262
 20
5212.629854266274
 30
0.0
 10
6526.724952688151
 20
5212.300264860348
 30
0.0
 10
6526.357394098158
 20
5211.659765716833
 30
0.0
 10
6526.151265677207
 20
5211.348064329057
 30
0.0
 10
6525.797844012246
 20
5210.920275339201
 30
0.0
 10
6525.672297220794
 20
5210.783861075502
 30
0.0
 10
6525.399365250369
 20
5210.528462582666
 30
0.0
 10
6525.251007538078
 20
5210.40901204395
 30
0.0
 10
6524.934241304347
 20
5210.205096553608
 30
0.0
 10
6524.762186040528
 20
5210.118630276189
 30
0.0
 10
6524.401831158854
 20
5209.999362904527
 30
0.0
 10
6524.211584367881
 20
5209.966131292116
 30
0.0
 10
6524.0187553361
 20
5209.966131292116
 30
0.0
  0
SPLINE
  5
EF
330
1F
100
AcDbEntity
  8
0
  6
Continuous
 62
     7
370
    25
100
AcDbSpline
210
0.0
220
0.0
230
1.0
 70
     8
 71
     3
 72
    11
 73
     7
 74
     0
 42
0.000000001
 43
0.00000001
 40
0.0
 40
0.0
 40
0.0
 40
0.0
 40
0.001953273774883
 40
0.4075569802449589
 40
0.7406860149700055
 40
1.0
 40
1.0
 40
1.0
 40
1.0
 10
6524.0187553361
 20
5405.748891161933
 30
0.0
 10
6524.022113081202
 20
5405.751981144756
 30
0.0
 10
6524.722717610843
 20
5406.396716196416
 30
0.0
 10
6525.991999487735
 20
5407.45560102533
 30
0.0
 10
6527.599407805194
 20
5408.499184851881
 30
0.0
 10
6528.26440313146
 20
5408.638473327815
 30
0.0
 10
6528.555473466212
 20
5408.699440287604
 30
0.0
  0
LINE
  5
F0
330
1F
100
AcDbEntity
  8
0
  6
Continuous
 62
     7
370
    25
100
AcDbLine
 10
6528.5554734662
 20
5408.6994402876
 30
0.0
 11
6529.0187505677
 21
5408.6994402876
 31
0.0
  0
LINE
  5
F1
330
1F
100
AcDbEntity
  8
0
  6
Continuous
 62
     7
370
    25
100
AcDbLine
 10
6529.0187505677
 20
5408.6994402876
 30
0.0
 11
6529.0187505677
 21
5225.9281449785
 31
0.0
  0
SPLINE
  5
F2
330
1F
100
AcDbEntity
  8
0
  6
Continuous
 62
     7
370
    25
100
AcDbSpline
210
0.0
220
0.0
230
1.0
 70
     8
 71
     3
 72
    38
 73
    34
 74
     0
 42
0.000000001
 43
0.00000001
 40
0.0
 40
0.0
 40
0.0
 40
0.0
 40
0.1249999999999994
 40
0.1249999999999994
 40
0.1874999999999991
 40
0.1874999999999991
 40
0.2499999999999987
 40
0.2499999999999987
 40
0.2812499999999986
 40
0.2812499999999986
 40
0.3124999999999985
 40
0.3124999999999985
 40
0.3749999999999983
 40
0.3749999999999983
 40
0.4062499999999984
 40
0.4062499999999984
 40
0.4374999999999986
 40
0.4374999999999986
 40
0.4999999999999987
 40
0.4999999999999987
 40
0.5624999999999988
 40
0.5624999999999988
 40
0.6249999999999989
 40
0.6249999999999989
 40
0.687499999999999
 40
0.687499999999999
 40
0.7499999999999991
 40
0.7499999999999991
 40
0.8124999999999993
 40
0.8124999999999993
 40
0.8749999999999993
 40
0.8749999999999993
 40
1.0
 40
1.0
 40
1.0
 40
1.0
 10
6320.289428994834
 20
5253.784535733627
 30
0.0
 10
6316.900754487278
 20
5256.328723560955
 30
0.0
 10
6313.441282263082
 20
5258.788565895871
 30
0.0
 10
6308.099154556989
 20
5262.258920067566
 30
0.0
 10
6306.292294219616
 20
5263.378932280091
 30
0.0
 10
6302.612017807938
 20
5265.522264730896
 30
0.0
 10
6300.738676026147
 20
5266.545701851931
 30
0.0
 10
6297.863857145586
 20
5267.984291163583
 30
0.0
 10
6296.894731769853
 20
5268.447644830431
 30
0.0
 10
6294.931526612765
 20
5269.336775134667
 30
0.0
 10
6293.935568725235
 20
5269.763294250923
 30
0.0
 10
6290.91868296771
 20
5270.971543694472
 30
0.0
 10
6288.875155238185
 20
5271.680043683942
 30
0.0
 10
6285.749654499138
 20
5272.560026563283
 30
0.0
 10
6284.697763876711
 20
5272.822825408056
 30
0.0
 10
6282.571672364575
 20
5273.280471849734
 30
0.0
 10
6281.498692748359
 20
5273.474727880232
 30
0.0
 10
6278.286578848579
 20
5273.940899893201
 30
0.0
 10
6276.141006789747
 20
5274.098735122692
 30
0.0
 10
6271.841211548664
 20
5274.096018003912
 30
0.0
 10
6269.686584546384
 20
5273.935372415501
 30
0.0
 10
6265.370424228375
 20
5273.301202623845
 30
0.0
 10
6263.26407345295
 20
5272.836818124441
 30
0.0
 10
6259.135303940476
 20
5271.670445186639
 30
0.0
 10
6257.112854791681
 20
5270.968556056778
 30
0.0
 10
6253.135082161173
 20
5269.376661792916
 30
0.0
 10
6251.177640037444
 20
5268.485593970677
 30
0.0
 10
6247.325221431807
 20
5266.559988135292
 30
0.0
 10
6245.444750174431
 20
5265.533135507965
 30
0.0
 10
6241.753654513253
 20
5263.384188257447
 30
0.0
 10
6239.943116635311
 20
5262.261965469726
 30
0.0
 10
6234.593662668854
 20
5258.786993303166
 30
0.0
 10
6231.135624761569
 20
5256.327874097981
 30
0.0
 10
6227.748081677367
 20
5253.784535733627
 30
0.0
  0
ARC
  5
F3
330
1F
100
AcDbEntity
  8
0
  6
Continuous
 62
     7
370
    25
100
AcDbCircle
 10
6208.218516778
 20
5240.4402194232
 30
0.0
 40
23.65322055434841
100
AcDbArc
 50
34.3443305135
 51
39.4714842073
  0
ARC
  5
F4
330
1F
100
AcDbEntity
  8
0
  6
Continuous
 62
     7
370
    25
100
AcDbCircle
 10
6339.8189938942
 20
5240.4402194232
 30
0.0
 40
23.65322055434841
100
AcDbArc
 50
140.5285157927
 51
145.6556694865
  0
LINE
  5
F5
330
1F
100
AcDbEntity
  8
0
  6
Continuous
 62
     7
370
    25
100
AcDbLine
 10
6227.7480831042
 20
5253.7845396271
 30
0.0
 11
6227.7480831042
 21
5083.0788486471
 31
0.0
  0
LINE
  5
F6
330
1F
100
AcDbEntity
  8
0
  6
Continuous
 62
     7
370
    25
100
AcDbLine
 10
6320.289427568
 20
5083.0788486471
 30
0.0
 11
6320.289427568
 21
5253.7845396271
 31
0.0
  0
SPLINE
  5
F7
330
1F
100
AcDbEntity
  8
0
  6
Continuous
 62
     7
370
    25
100
AcDbSpline
210
0.0
220
0.0
230
1.0
 70
     8
 71
     3
 72
    22
 73
    18
 74
     0
 42
0.000000001
 43
0.00000001
 40
0.0
 40
0.0
 40
0.0
 40
0.0
 40
0.2500000000000027
 40
0.2500000000000027
 40
0.5000000000000053
 40
0.5000000000000053
 40
0.6250000000000049
 40
0.6250000000000049
 40
0.7500000000000044
 40
0.7500000000000044
 40
0.875000000000004
 40
0.875000000000004
 40
0.9375000000000037
 40
0.9375000000000037
 40
0.9687500000000019
 40
0.9687500000000019
 40
1.0
 40
1.0
 40
1.0
 40
1.0
 10
6224.0187553361
 20
5231.216147505088
 30
0.0
 10
6224.0187553361
 20
5233.124662901442
 30
0.0
 10
6224.086013199671
 20
5235.031231765859
 30
0.0
 10
6224.339070383664
 20
5238.841494147552
 30
0.0
 10
6224.524459213585
 20
5240.745226016145
 30
0.0
 10
6224.904486133143
 20
5243.59726143248
 30
0.0
 10
6225.048383477872
 20
5244.547326032659
 30
0.0
 10
6225.379402544053
 20
5246.445407193552
 30
0.0
 10
6225.56643462296
 20
5247.394617015455
 30
0.0
 10
6226.001229459884
 20
5249.277547593841
 30
0.0
 10
6226.247083029359
 20
5250.212712705158
 30
0.0
 10
6226.704053079372
 20
5251.594637477857
 30
0.0
 10
6226.870951264587
 20
5252.050856938516
 30
0.0
 10
6227.159763925496
 20
5252.719358896676
 30
0.0
 10
6227.262708230423
 20
5252.93988319091
 30
0.0
 10
6227.488192211961
 20
5253.371895016234
 30
0.0
 10
6227.610034459058
 20
5253.582786772313
 30
0.0
 10
6227.748081677367
 20
5253.784535733627
 30
0.0
  0
LWPOLYLINE
  5
F8
330
1F
100
AcDbEntity
  8
0
  6
Continuous
 62
     7
370
    25
100
AcDbPolyline
 90
        9
 70
   128
 43
0.0
 10
6224.018754591
 20
5231.2161498537
 10
6223.9226830795
 20
5231.6531711092
 10
6223.6381528571
 20
5232.073398756
 10
6223.1761051014
 20
5232.4606948366
 10
6222.5542908207
 20
5232.8001581898
 10
6221.7966077521
 20
5233.0787502995
 10
6220.9321727648
 20
5233.2857572308
 10
6219.9942079976
 20
5233.4132217636
 10
6219.0187556341
 20
5233.4562712183
  0
SPLINE
  5
F9
330
1F
100
AcDbEntity
  8
0
  6
Continuous
 62
     7
370
    25
100
AcDbSpline
210
0.0
220
0.0
230
1.0
 70
     8
 71
     3
 72
    22
 73
    18
 74
     0
 42
0.000000001
 43
0.00000001
 40
0.0
 40
0.0
 40
0.0
 40
0.0
 40
0.0312499999999989
 40
0.0312499999999989
 40
0.0624999999999978
 40
0.0624999999999978
 40
0.1249999999999986
 40
0.1249999999999986
 40
0.2499999999999998
 40
0.2499999999999998
 40
0.3750000000000011
 40
0.3750000000000011
 40
0.5000000000000022
 40
0.5000000000000022
 40
0.7500000000000011
 40
0.7500000000000011
 40
1.0
 40
1.0
 40
1.0
 40
1.0
 10
6320.289428994834
 20
5253.784535733627
 30
0.0
 10
6320.42796378834
 20
5253.582074206055
 30
0.0
 10
6320.549350262968
 20
5253.371742029224
 30
0.0
 10
6320.773457837687
 20
5252.942550877499
 30
0.0
 10
6320.875824460106
 20
5252.723528391116
 30
0.0
 10
6321.163809121298
 20
5252.057773273116
 30
0.0
 10
6321.330968433576
 20
5251.601554789081
 30
0.0
 10
6321.78732154552
 20
5250.223310120188
 30
0.0
 10
6322.033087260383
 20
5249.28996349624
 30
0.0
 10
6322.467844901722
 20
5247.410004990363
 30
0.0
 10
6322.654784453006
 20
5246.462832397229
 30
0.0
 10
6322.986117167874
 20
5244.566187679886
 30
0.0
 10
6323.130377911902
 20
5243.615561783145
 30
0.0
 10
6323.511665174124
 20
5240.758713364164
 30
0.0
 10
6323.698009843164
 20
5238.847191683628
 30
0.0
 10
6323.951602911089
 20
5235.030426828265
 30
0.0
 10
6324.0187553361
 20
5233.122944283874
 30
0.0
 10
6324.0187553361
 20
5231.216147505088
 30
0.0
  0
LWPOLYLINE
  5
FA
330
1F
100
AcDbEntity
  8
0
  6
Continuous
 62
     7
370
    25
100
AcDbPolyline
 90
        9
 70
   128
 43
0.0
 10
6324.0187560812
 20
5231.2161498537
 10
6324.1148275927
 20
5231.6531711092
 10
6324.3993578151
 20
5232.073398756
 10
6324.8614055708
 20
5232.4606948366
 10
6325.4832198515
 20
5232.8001581898
 10
6326.2409029201
 20
5233.0787502995
 10
6327.1053379074
 20
5233.2857572308
 10
6328.0433026746
 20
5233.4132217636
 10
6329.0187550381
 20
5233.4562712183
  0
SPLINE
  5
FB
330
1F
100
AcDbEntity
  8
0
  6
Continuous
 62
     7
370
    25
100
AcDbSpline
210
0.0
220
0.0
230
1.0
 70
     8
 71
     3
 72
     8
 73
     4
 74
     0
 42
0.000000001
 43
0.00000001
 40
0.0
 40
0.0
 40
0.0
 40
0.0
 40
1.0
 40
1.0
 40
1.0
 40
1.0
 10
6323.152086520671
 20
5090.138353663119
 30
0.0
 10
6323.152086520671
 20
5088.194257832125
 30
0.0
 10
6323.157275893654
 20
5086.250205242407
 30
0.0
 10
6323.16747274318
 20
5084.306195412871
 30
0.0
  0
LINE
  5
FC
330
1F
100
AcDbEntity
  8
0
  6
Continuous
 62
     7
370
    25
100
AcDbLine
 10
6324.0187560812
 20
5231.2161498537
 30
0.0
 11
6324.0187560812
 21
5101.1614971628
 31
0.0
  0
SPLINE
  5
FD
330
1F
100
AcDbEntity
  8
0
  6
Continuous
 62
     7
370
    25
100
AcDbSpline
210
0.0
220
0.0
230
1.0
 70
     8
 71
     3
 72
    16
 73
    12
 74
     0
 42
0.000000001
 43
0.00000001
 40
0.0
 40
0.0
 40
0.0
 40
0.0
 40
0.25
 40
0.25
 40
0.5
 40
0.5
 40
0.625
 40
0.625
 40
0.75
 40
0.75
 40
1.0
 40
1.0
 40
1.0
 40
1.0
 10
6324.0187553361
 20
5101.161494192068
 30
0.0
 10
6324.0187553361
 20
5100.30994166362
 30
0.0
 10
6323.955677052732
 20
5099.441946012605
 30
0.0
 10
6323.780614200054
 20
5097.669377710957
 30
0.0
 10
6323.667657074514
 20
5096.764863780687
 30
0.0
 10
6323.503724212014
 20
5095.376928232239
 30
0.0
 10
6323.449825920262
 20
5094.907895830076
 30
0.0
 10
6323.351209547676
 20
5093.964588588552
 30
0.0
 10
6323.306585434247
 20
5093.491124509618
 30
0.0
 10
6323.195198244304
 20
5092.064817059598
 30
0.0
 10
6323.152086520671
 20
5091.106007691461
 30
0.0
 10
6323.152086520671
 20
5090.138353663119
 30
0.0
  0
SPLINE
  5
FE
330
1F
100
AcDbEntity
  8
0
  6
Continuous
 62
     7
370
    25
100
AcDbSpline
210
0.0
220
0.0
230
1.0
 70
     8
 71
     3
 72
     8
 73
     4
 74
     0
 42
0.000000001
 43
0.00000001
 40
0.0
 40
0.0
 40
0.0
 40
0.0
 40
1.0
 40
1.0
 40
1.0
 40
1.0
 10
6224.870037929019
 20
5084.306195412871
 30
0.0
 10
6224.880234778547
 20
5086.250205242407
 30
0.0
 10
6224.885424151529
 20
5088.194257832125
 30
0.0
 10
6224.885424151529
 20
5090.138353663119
 30
0.0
  0
SPLINE
  5
FF
330
1F
100
AcDbEntity
  8
0
  6
Continuous
 62
     7
370
    25
100
AcDbSpline
210
0.0
220
0.0
230
1.0
 70
     8
 71
     3
 72
    14
 73
    10
 74
     0
 42
0.000000001
 43
0.00000001
 40
0.0
 40
0.0
 40
0.0
 40
0.0
 40
0.25
 40
0.25
 40
0.5
 40
0.5
 40
0.75
 40
0.75
 40
1.0
 40
1.0
 40
1.0
 40
1.0
 10
6224.885424151529
 20
5090.138353663119
 30
0.0
 10
6224.885424151529
 20
5091.107808444684
 30
0.0
 10
6224.842212388196
 20
5092.064602444027
 30
0.0
 10
6224.694753897896
 20
5093.955783680954
 30
0.0
 10
6224.591166189324
 20
5094.89022482173
 30
0.0
 10
6224.372840380197
 20
5096.740451783277
 30
0.0
 10
6224.258116203569
 20
5097.658127536481
 30
0.0
 10
6224.08179531907
 20
5099.44124116826
 30
0.0
 10
6224.0187553361
 20
5100.311286103709
 30
0.0
 10
6224.0187553361
 20
5101.161494192068
 30
0.0
  0
LINE
  5
100
330
1F
100
AcDbEntity
  8
0
  6
Continuous
 62
     7
370
    25
100
AcDbLine
 10
6224.018754591
 20
5101.1614971628
 30
0.0
 11
6224.018754591
 21
5231.2161498537
 31
0.0
  0
LINE
  5
101
330
1F
100
AcDbEntity
  8
0
  6
Continuous
 62
     7
370
    25
100
AcDbLine
 10
5949.018767257
 20
5084.30619769
 30
0.0
 11
5949.018767257
 21
5248.699458765
 31
0.0
  0
LINE
  5
102
330
1F
100
AcDbEntity
  8
0
  6
Continuous
 62
     7
370
    25
100
AcDbLine
 10
5949.018767257
 20
5248.699458765
 30
0.0
 11
6005.018761535
 21
5248.699458765
 31
0.0
  0
LINE
  5
103
330
1F
100
AcDbEntity
  8
0
  6
Continuous
 62
     7
370
    25
100
AcDbLine
 10
6005.018761535
 20
5090.1383557191
 30
0.0
 11
6005.018761535
 21
5248.699458765
 31
0.0
  0
LINE
  5
104
330
1F
100
AcDbEntity
  8
0
  6
Continuous
 62
     7
370
    25
100
AcDbLine
 10
6224.8854247525
 20
5090.1383557191
 30
0.0
 11
6005.018761535
 21
5090.1383557191
 31
0.0
  0
SPLINE
  5
105
330
1F
100
AcDbEntity
  8
0
  6
Continuous
 62
     7
370
    25
100
AcDbSpline
210
0.0
220
0.0
230
1.0
 70
     8
 71
     3
 72
    26
 73
    22
 74
     0
 42
0.000000001
 43
0.00000001
 40
0.0
 40
0.0
 40
0.0
 40
0.0
 40
0.1249999999999968
 40
0.1249999999999968
 40
0.2499999999999935
 40
0.2499999999999935
 40
0.3124999999999922
 40
0.3124999999999922
 40
0.3749999999999909
 40
0.3749999999999909
 40
0.4999999999999936
 40
0.4999999999999936
 40
0.6249999999999962
 40
0.6249999999999962
 40
0.7499999999999988
 40
0.7499999999999988
 40
0.8750000000000014
 40
0.8750000000000014
 40
0.9375000000000008
 40
0.9375000000000008
 40
1.0
 40
1.0
 40
1.0
 40
1.0
 10
6538.0187553361
 20
5104.632525334167
 30
0.0
 10
6538.0187553361
 20
5104.089951660409
 30
0.0
 10
6538.073071237174
 20
5103.535503488076
 30
0.0
 10
6538.256589156883
 20
5102.401510345583
 30
0.0
 10
6538.386228782961
 20
5101.821992130972
 30
0.0
 10
6538.623665278693
 20
5100.933067716808
 30
0.0
 10
6538.710009572736
 20
5100.633784211452
 30
0.0
 10
6538.893234833083
 20
5100.035545875569
 30
0.0
 10
6538.990350639166
 20
5099.735700928076
 30
0.0
 10
6539.295735805985
 20
5098.83352304362
 30
0.0
 10
6539.517935604012
 20
5098.228535890268
 30
0.0
 10
6539.990074509571
 20
5097.009505335467
 30
0.0
 10
6540.240073155043
 20
5096.395474836992
 30
0.0
 10
6540.761312661537
 20
5095.156629387491
 30
0.0
 10
6541.033420049972
 20
5094.529982039435
 30
0.0
 10
6541.587501936325
 20
5093.278271813354
 30
0.0
 10
6541.869899122015
 20
5092.652153262847
 30
0.0
 10
6542.29807562626
 20
5091.711134438933
 30
0.0
 10
6542.441570851505
 20
5091.397156071233
 30
0.0
 10
6542.729574837656
 20
5090.768353624876
 30
0.0
 10
6542.874983307667
 20
5090.45157114139
 30
0.0
 10
6543.0187553361
 20
5090.138353663119
 30
0.0
  0
LINE
  5
106
330
1F
100
AcDbEntity
  8
0
  6
Continuous
 62
     7
370
    25
100
AcDbLine
 10
6323.1520859197
 20
5090.1383557191
 30
0.0
 11
6543.0187491372
 21
5090.1383557191
 31
0.0
  0
LINE
  5
107
330
1F
100
AcDbEntity
  8
0
  6
Continuous
 62
     7
370
    25
100
AcDbLine
 10
6538.0187539056
 20
5112.6049631109
 30
0.0
 11
6324.1349329844
 21
5112.6049631109
 31
0.0
  0
LINE
  5
108
330
1F
100
AcDbEntity
  8
0
  6
Continuous
 62
     7
370
    25
100
AcDbLine
 10
6538.0187539056
 20
5104.6325289478
 30
0.0
 11
6538.0187539056
 21
5248.1624805203
 31
0.0
  0
SPLINE
  5
109
330
1F
100
AcDbEntity
  8
0
  6
Continuous
 62
     7
370
    25
100
AcDbSpline
210
0.0
220
0.0
230
1.0
 70
     8
 71
     3
 72
     8
 73
     4
 74
     0
 42
0.000000001
 43
0.00000001
 40
0.0
 40
0.0
 40
0.0
 40
0.0
 40
0.0005369818089516
 40
0.0005369818089516
 40
0.0005369818089516
 40
0.0005369818089516
 10
6538.0187553361
 20
5248.162474378935
 30
0.0
 10
6538.0187553361
 20
5248.341468315252
 30
0.0
 10
6538.019190107792
 20
5248.520462790714
 30
0.0
 10
6538.02006420925
 20
5248.699454592719
 30
0.0
  0
LINE
  5
10A
330
1F
100
AcDbEntity
  8
0
  6
Continuous
 62
     7
370
    25
100
AcDbLine
 10
6543.0187491372
 20
5248.699458765
 30
0.0
 11
6543.0187491372
 21
5090.1383557191
 31
0.0
  0
SPLINE
  5
10B
330
1F
100
AcDbEntity
  8
0
  6
Continuous
 62
     7
370
    25
100
AcDbSpline
210
0.0
220
0.0
230
1.0
 70
     8
 71
     3
 72
    26
 73
    22
 74
     0
 42
0.000000001
 43
0.00000001
 40
0.0
 40
0.0
 40
0.0
 40
0.0
 40
0.1249999999999968
 40
0.1249999999999968
 40
0.2499999999999935
 40
0.2499999999999935
 40
0.3124999999999922
 40
0.3124999999999922
 40
0.3749999999999909
 40
0.3749999999999909
 40
0.4999999999999936
 40
0.4999999999999936
 40
0.6249999999999962
 40
0.6249999999999962
 40
0.7499999999999988
 40
0.7499999999999988
 40
0.8750000000000014
 40
0.8750000000000014
 40
0.9375000000000008
 40
0.9375000000000008
 40
1.0
 40
1.0
 40
1.0
 40
1.0
 10
6010.0187553361
 20
5104.632525334167
 30
0.0
 10
6010.0187553361
 20
5104.089951660409
 30
0.0
 10
6009.964439435026
 20
5103.535503488076
 30
0.0
 10
6009.780921515317
 20
5102.401510345583
 30
0.0
 10
6009.65128188924
 20
5101.821992130972
 30
0.0
 10
6009.413845393507
 20
5100.933067716808
 30
0.0
 10
6009.327501099465
 20
5100.633784211452
 30
0.0
 10
6009.144275839118
 20
5100.035545875569
 30
0.0
 10
6009.047160033035
 20
5099.735700928076
 30
0.0
 10
6008.741774866216
 20
5098.83352304362
 30
0.0
 10
6008.519575068189
 20
5098.228535890268
 30
0.0
 10
6008.047436162629
 20
5097.009505335467
 30
0.0
 10
6007.797437517157
 20
5096.395474836992
 30
0.0
 10
6007.276198010663
 20
5095.156629387491
 30
0.0
 10
6007.004090622228
 20
5094.529982039435
 30
0.0
 10
6006.450008735877
 20
5093.278271813354
 30
0.0
 10
6006.167611550185
 20
5092.652153262847
 30
0.0
 10
6005.739435045941
 20
5091.711134438933
 30
0.0
 10
6005.595939820695
 20
5091.397156071233
 30
0.0
 10
6005.307935834544
 20
5090.768353624876
 30
0.0
 10
6005.162527364533
 20
5090.45157114139
 30
0.0
 10
6005.0187553361
 20
5090.138353663119
 30
0.0
  0
LINE
  5
10C
330
1F
100
AcDbEntity
  8
0
  6
Continuous
 62
     7
370
    25
100
AcDbLine
 10
6223.9025776878
 20
5112.6049631109
 30
0.0
 11
6010.0187567666
 21
5112.6049631109
 31
0.0
  0
LINE
  5
10D
330
1F
100
AcDbEntity
  8
0
  6
Continuous
 62
     7
370
    25
100
AcDbLine
 10
6599.0187434152
 20
5084.30619769
 30
0.0
 11
6599.0187434152
 21
5248.699458765
 31
0.0
  0
LINE
  5
10E
330
1F
100
AcDbEntity
  8
0
  6
Continuous
 62
     7
370
    25
100
AcDbLine
 10
6543.0187491372
 20
5248.699458765
 30
0.0
 11
6599.0187434152
 21
5248.699458765
 31
0.0
  0
SPLINE
  5
10F
330
1F
100
AcDbEntity
  8
0
  6
Continuous
 62
     7
370
    25
100
AcDbSpline
210
0.0
220
0.0
230
1.0
 70
     8
 71
     3
 72
     8
 73
     4
 74
     0
 42
0.000000001
 43
0.00000001
 40
0.0
 40
0.0
 40
0.0
 40
0.0
 40
0.0005369818089516
 40
0.0005369818089516
 40
0.0005369818089516
 40
0.0005369818089516
 10
6010.01744646295
 20
5248.699454592719
 30
0.0
 10
6010.018320564408
 20
5248.520462790714
 30
0.0
 10
6010.0187553361
 20
5248.341468315252
 30
0.0
 10
6010.0187553361
 20
5248.162474378935
 30
0.0
  0
LINE
  5
110
330
1F
100
AcDbEntity
  8
0
  6
Continuous
 62
     7
370
    25
100
AcDbLine
 10
6010.0187567666
 20
5248.1624805203
 30
0.0
 11
6010.0187567666
 21
5104.6325289478
 31
0.0
  0
LWPOLYLINE
  5
111
330
1F
100
AcDbEntity
  8
0
  6
Continuous
 62
     7
370
    25
100
AcDbPolyline
 90
        9
 70
   128
 43
0.0
 10
6224.018754591
 20
5207.1411781778
 10
6223.9226830795
 20
5207.6922976246
 10
6223.6381528571
 20
5208.2222425213
 10
6223.1761051014
 20
5208.7106429806
 10
6222.5542908207
 20
5209.1387235394
 10
6221.7966077521
 20
5209.4900333157
 10
6220.9321727648
 20
5209.7511016598
 10
6219.9942079976
 20
5209.9118553867
 10
6219.0187556341
 20
5209.9661254158
  0
LWPOLYLINE
  5
112
330
1F
100
AcDbEntity
  8
0
  6
Continuous
 62
     7
370
    25
100
AcDbPolyline
 90
        9
 70
   128
 43
0.0
 10
6329.0187550381
 20
5209.9661254158
 10
6328.0433026746
 20
5209.9118553867
 10
6327.1053379074
 20
5209.7511016598
 10
6326.2409029201
 20
5209.4900333157
 10
6325.4832198515
 20
5209.1387235394
 10
6324.8614055708
 20
5208.7106429806
 10
6324.3993578151
 20
5208.2222425213
 10
6324.1148275927
 20
5207.6922976246
 10
6324.0187560812
 20
5207.1411781778
  0
LINE
  5
113
330
1F
100
AcDbEntity
  8
0
  6
Continuous
 62
     7
370
    25
100
AcDbLine
 10
6019.482037206
 20
5408.6994402876
 30
0.0
 11
6528.5554734662
 21
5408.6994402876
 31
0.0
  0
LINE
  5
114
330
1F
100
AcDbEntity
  8
0
  6
Continuous
 62
     7
370
    25
100
AcDbLine
 10
6524.0187553361
 20
5209.9661254158
 30
0.0
 11
6524.0187553361
 21
5207.1411781778
 31
0.0
  0
LINE
  5
115
330
1F
100
AcDbEntity
  8
0
  6
Continuous
 62
     7
370
    25
100
AcDbLine
 10
6534.0187457994
 20
5225.9281449785
 30
0.0
 11
6529.0187505677
 21
5225.9281449785
 31
0.0
  0
SPLINE
  5
116
330
1F
100
AcDbEntity
  8
0
  6
Continuous
 62
     7
370
    25
100
AcDbSpline
210
0.0
220
0.0
230
1.0
 70
     8
 71
     3
 72
    30
 73
    26
 74
     0
 42
0.000000001
 43
0.00000001
 40
0.0
 40
0.0
 40
0.0
 40
0.0
 40
0.0312500000000011
 40
0.0312500000000011
 40
0.0625000000000022
 40
0.0625000000000022
 40
0.0937500000000033
 40
0.0937500000000033
 40
0.1250000000000044
 40
0.1250000000000044
 40
0.1875000000000049
 40
0.1875000000000049
 40
0.2500000000000055
 40
0.2500000000000055
 40
0.3750000000000066
 40
0.3750000000000066
 40
0.4375000000000072
 40
0.4375000000000072
 40
0.5000000000000078
 40
0.5000000000000078
 40
0.6250000000000056
 40
0.6250000000000056
 40
0.7500000000000034
 40
0.7500000000000034
 40
1.0
 40
1.0
 40
1.0
 40
1.0
 10
6524.0187553361
 20
5207.141175584362
 30
0.0
 10
6524.264804647661
 20
5207.141175584362
 30
0.0
 10
6524.511118691264
 20
5207.15746306237
 30
0.0
 10
6524.993291171471
 20
5207.220243393905
 30
0.0
 10
6525.230279086003
 20
5207.266635846866
 30
0.0
 10
6525.696643552265
 20
5207.387282826862
 30
0.0
 10
6525.926018437201
 20
5207.461543455352
 30
0.0
 10
6526.377560314934
 20
5207.63644984597
 30
0.0
 10
6526.600778540643
 20
5207.73766201065
 30
0.0
 10
6527.252534925542
 20
5208.07543140392
 30
0.0
 10
6527.657712570436
 20
5208.342095767018
 30
0.0
 10
6528.421606278098
 20
5208.941148005893
 30
0.0
 10
6528.782174263857
 20
5209.276233389198
 30
0.0
 10
6529.779320074982
 20
5210.337091341273
 30
0.0
 10
6530.341923838025
 20
5211.121646090747
 30
0.0
 10
6531.081598497778
 20
5212.377361594208
 30
0.0
 10
6531.309826201875
 20
5212.80899973499
 30
0.0
 10
6531.729729912794
 20
5213.684046383547
 30
0.0
 10
6531.922299654018
 20
5214.128983747697
 30
0.0
 10
6532.454896027673
 20
5215.483037945239
 30
0.0
 10
6532.750632904338
 20
5216.414502959741
 30
0.0
 10
6533.237199000924
 20
5218.283736159786
 30
0.0
 10
6533.429724363891
 20
5219.225651102071
 30
0.0
 10
6533.882117010645
 20
5222.069395796346
 30
0.0
 10
6534.0187553361
 20
5223.988944384582
 30
0.0
 10
6534.0187553361
 20
5225.928139914143
 30
0.0
  0
ARC
  5
117
330
1F
100
AcDbEntity
  8
0
  6
Continuous
 62
     7
370
    25
100
AcDbCircle
 10
5912.6203689065
 20
5403.6994545927
 30
0.0
 40
5.000000000000768
100
AcDbArc
 50
90.0
 51
162.1082233943
  0
SPLINE
  5
118
330
1F
100
AcDbEntity
  8
0
  6
Continuous
 62
     7
370
    25
100
AcDbSpline
210
0.0
220
0.0
230
1.0
 70
     8
 71
     3
 72
    26
 73
    22
 74
     0
 42
0.000000001
 43
0.00000001
 40
0.0
 40
0.0
 40
0.0
 40
0.0
 40
0.1250000000000019
 40
0.1250000000000019
 40
0.2500000000000038
 40
0.2500000000000038
 40
0.3750000000000057
 40
0.3750000000000057
 40
0.4375000000000047
 40
0.4375000000000047
 40
0.5000000000000037
 40
0.5000000000000037
 40
0.6250000000000031
 40
0.6250000000000031
 40
0.7500000000000026
 40
0.7500000000000026
 40
0.875000000000002
 40
0.875000000000002
 40
0.937500000000001
 40
0.937500000000001
 40
1.0
 40
1.0
 40
1.0
 40
1.0
 10
5902.141167132118
 20
5403.699454592719
 30
0.0
 10
5902.490172263395
 20
5403.789003271501
 30
0.0
 10
5902.834882235157
 20
5403.878186535343
 30
0.0
 10
5903.515994857104
 20
5404.055814562439
 30
0.0
 10
5903.853710674184
 20
5404.144608134103
 30
0.0
 10
5904.51461891992
 20
5404.319727402112
 30
0.0
 10
5904.832430504291
 20
5404.404621036781
 30
0.0
 10
5905.289681265577
 20
5404.527612267795
 30
0.0
 10
5905.438833216935
 20
5404.567879071445
 30
0.0
 10
5905.730235549873
 20
5404.646815549929
 30
0.0
 10
5905.873136562151
 20
5404.685663413382
 30
0.0
 10
5906.283152360646
 20
5404.797478558144
 30
0.0
 10
5906.533364049475
 20
5404.866195043424
 30
0.0
 10
5906.983679055218
 20
5404.990460683147
 30
0.0
 10
5907.185612825348
 20
5405.046524476318
 30
0.0
 10
5907.512733471795
 20
5405.13764048652
 30
0.0
 10
5907.640374439227
 20
5405.173363311695
 30
0.0
 10
5907.772213806873
 20
5405.210306390155
 30
0.0
 10
5907.806030383788
 20
5405.219794507278
 30
0.0
 10
5907.850842148293
 20
5405.232371227376
 30
0.0
 10
5907.862176368846
 20
5405.235554776499
 30
0.0
 10
5907.862176368846
 20
5405.235554776499
 30
0.0
  0
LINE
  5
119
330
1F
100
AcDbEntity
  8
0
  6
Continuous
 62
     7
370
    25
100
AcDbLine
 10
5902.141174455
 20
5408.6994402876
 30
0.0
 11
5902.141174455
 21
5403.699445056
 31
0.0
  0
SPLINE
  5
11A
330
1F
100
AcDbEntity
  8
0
  6
Continuous
 62
     7
370
    25
100
AcDbSpline
210
0.0
220
0.0
230
1.0
 70
    24
 71
     3
 72
    12
 73
     8
 74
     0
 42
0.000000001
 43
0.00000001
 40
0.0
 40
0.0
 40
0.0
 40
0.0
 40
0.1086267946817693
 40
0.3216259317705484
 40
0.5447089791990405
 40
0.7724260165316228
 40
1.0
 40
1.0
 40
1.0
 40
1.0
 10
5912.62035645991
 20
5408.699440287604
 30
0.0
 10
5912.588360260811
 20
5408.699440287604
 30
0.0
 10
5912.493624819354
 20
5408.699440287604
 30
0.0
 10
5911.401251515207
 20
5408.699440287604
 30
0.0
 10
5909.036354111635
 20
5408.699440287604
 30
0.0
 10
5905.80132303186
 20
5408.699440287604
 30
0.0
 10
5903.360968391585
 20
5408.699440287604
 30
0.0
 10
5902.141174454981
 20
5408.699440287604
 30
0.0
  0
SPLINE
  5
11B
330
1F
100
AcDbEntity
  8
0
  6
Continuous
 62
     7
370
    25
100
AcDbSpline
210
0.0
220
0.0
230
1.0
 70
     8
 71
     3
 72
    30
 73
    26
 74
     0
 42
0.000000001
 43
0.00000001
 40
0.0
 40
0.0
 40
0.0
 40
0.0
 40
0.2499999999999978
 40
0.2499999999999978
 40
0.3749999999999943
 40
0.3749999999999943
 40
0.4999999999999909
 40
0.4999999999999909
 40
0.6249999999999875
 40
0.6249999999999875
 40
0.6874999999999891
 40
0.6874999999999891
 40
0.7499999999999908
 40
0.7499999999999908
 40
0.7812499999999879
 40
0.7812499999999879
 40
0.8124999999999849
 40
0.8124999999999849
 40
0.8749999999999868
 40
0.8749999999999868
 40
0.9062499999999901
 40
0.9062499999999901
 40
0.9374999999999933
 40
0.9374999999999933
 40
1.0
 40
1.0
 40
1.0
 40
1.0
 10
6014.0187553361
 20
5225.928139914143
 30
0.0
 10
6014.0187553361
 20
5223.98903034829
 30
0.0
 10
6014.15526941874
 20
5222.06599240229
 30
0.0
 10
6014.610465860226
 20
5219.210917720045
 30
0.0
 10
6014.80474691918
 20
5218.263015940014
 30
0.0
 10
6015.295716692654
 20
5216.384329057241
 30
0.0
 10
6015.58928028184
 20
5215.464625778402
 30
0.0
 10
6016.294903226237
 20
5213.673624772191
 30
0.0
 10
6016.706195659407
 20
5212.802013756966
 30
0.0
 10
6017.446102338219
 20
5211.544829706214
 30
0.0
 10
6017.7131330058
 20
5211.135492489641
 30
0.0
 10
6018.285704022092
 20
5210.3548771117
 30
0.0
 10
6018.592270891079
 20
5209.981601103042
 30
0.0
 10
6019.089301047735
 20
5209.452909618873
 30
0.0
 10
6019.261205736218
 20
5209.28190918677
 30
0.0
 10
6019.619150969751
 20
5208.951779192167
 30
0.0
 10
6019.805974509492
 20
5208.792091194746
 30
0.0
 10
6020.381746048286
 20
5208.340572443541
 30
0.0
 10
6020.78725535831
 20
5208.074271861744
 30
0.0
 10
6021.435217610297
 20
5207.73843598556
 30
0.0
 10
6021.659316888976
 20
5207.636628000809
 30
0.0
 10
6022.115222053136
 20
5207.460166376234
 30
0.0
 10
6022.346019674875
 20
5207.385708354031
 30
0.0
 10
6023.047234230134
 20
5207.205039943452
 30
0.0
 10
6023.526398565744
 20
5207.141175584362
 30
0.0
 10
6024.0187553361
 20
5207.141175584362
 30
0.0
  0
LINE
  5
11C
330
1F
100
AcDbEntity
  8
0
  6
Continuous
 62
     7
370
    25
100
AcDbLine
 10
6014.0187648728
 20
5225.9281449785
 30
0.0
 11
6019.0187601045
 21
5225.9281449785
 31
0.0
  0
LINE
  5
11D
330
1F
100
AcDbEntity
  8
0
  6
Continuous
 62
     7
370
    25
100
AcDbLine
 10
6024.0187553361
 20
5207.1411781778
 30
0.0
 11
6024.0187553361
 21
5209.9661254158
 31
0.0
  0
SPLINE
  5
11E
330
1F
100
AcDbEntity
  8
0
  6
Continuous
 62
     7
370
    25
100
AcDbSpline
210
0.0
220
0.0
230
1.0
 70
     8
 71
     3
 72
    22
 73
    18
 74
     0
 42
0.000000001
 43
0.00000001
 40
0.0
 40
0.0
 40
0.0
 40
0.0
 40
0.125
 40
0.125
 40
0.25
 40
0.25
 40
0.375
 40
0.375
 40
0.5
 40
0.5
 40
0.625
 40
0.625
 40
0.75
 40
0.75
 40
0.875
 40
0.875
 40
1.0
 40
1.0
 40
1.0
 40
1.0
 10
6640.175334303354
 20
5405.235554776499
 30
0.0
 10
6640.175334303354
 20
5405.235554776499
 30
0.0
 10
6640.220187907026
 20
5405.222947616871
 30
0.0
 10
6640.392528586416
 20
5405.174653350925
 30
0.0
 10
6640.522850263688
 20
5405.138178818114
 30
0.0
 10
6640.84939088903
 20
5405.04722118097
 30
0.0
 10
6641.045721685693
 20
5404.992704956085
 30
0.0
 10
6641.499663597438
 20
5404.867426003601
 30
0.0
 10
6641.752504393287
 20
5404.797988573899
 30
0.0
 10
6642.295362277639
 20
5404.649937340683
 30
0.0
 10
6642.589309848998
 20
5404.570256244845
 30
0.0
 10
6643.202921985454
 20
5404.405196202978
 30
0.0
 10
6643.520680660858
 20
5404.320319715966
 30
0.0
 10
6644.17666532337
 20
5404.146492236591
 30
0.0
 10
6644.517073153831
 20
5404.056976870155
 30
0.0
 10
6645.201823676097
 20
5403.878392736258
 30
0.0
 10
6645.547437176099
 20
5403.788977929522
 30
0.0
 10
6645.896343540083
 20
5403.699454592719
 30
0.0
  0
ARC
  5
11F
330
1F
100
AcDbEntity
  8
0
  6
Continuous
 62
     7
370
    25
100
AcDbCircle
 10
6635.4171417657
 20
5403.6994545927
 30
0.0
 40
5.000000000000768
100
AcDbArc
 50
17.8917766057
 51
90.0
  0
LINE
  5
120
330
1F
100
AcDbEntity
  8
0
  6
Continuous
 62
     7
370
    25
100
AcDbLine
 10
6645.8963362172
 20
5403.699445056
 30
0.0
 11
6645.8963362172
 21
5408.6994402876
 31
0.0
  0
SPLINE
  5
121
330
1F
100
AcDbEntity
  8
0
  6
Continuous
 62
     7
370
    25
100
AcDbSpline
210
0.0
220
0.0
230
1.0
 70
    24
 71
     3
 72
    12
 73
     8
 74
     0
 42
0.000000001
 43
0.00000001
 40
0.0
 40
0.0
 40
0.0
 40
0.0
 40
0.1732237858201983
 40
0.3891319678345218
 40
0.5956124303896493
 40
0.7977278100033823
 40
1.0
 40
1.0
 40
1.0
 40
1.0
 10
6645.896336217219
 20
5408.699440287604
 30
0.0
 10
6644.969653048599
 20
5408.699440287604
 30
0.0
 10
6642.887940983152
 20
5408.699440287604
 30
0.0
 10
6639.91939509839
 20
5408.699440287604
 30
0.0
 10
6637.423992403043
 20
5408.699440287604
 30
0.0
 10
6635.742731361835
 20
5408.699440287604
 30
0.0
 10
6635.525707980705
 20
5408.699440287604
 30
0.0
 10
6635.41715421229
 20
5408.699440287604
 30
0.0
  0
ARC
  5
122
330
1F
100
AcDbEntity
  8
0
  6
Continuous
 62
     7
370
    25
100
AcDbCircle
 10
6081.8795518346
 20
5349.057054155
 30
0.0
 40
187.8607964984851
100
AcDbArc
 50
163.0901645719
 51
214.1130805807
  0
ARC
  5
123
330
1F
100
AcDbEntity
  8
0
  6
Continuous
 62
     7
370
    25
100
AcDbCircle
 10
6081.8795518346
 20
5349.057054155
 30
0.0
 40
182.8607964984852
100
AcDbArc
 50
162.1082233943
 51
213.2860741181
  0
SPLINE
  5
124
330
1F
100
AcDbEntity
  8
0
  6
Continuous
 62
     7
370
    25
100
AcDbSpline
210
0.0
220
0.0
230
1.0
 70
     8
 71
     3
 72
    24
 73
    20
 74
     0
 42
0.000000001
 43
0.00000001
 40
0.0
 40
0.0
 40
0.0
 40
0.0
 40
0.1249999999999988
 40
0.1249999999999988
 40
0.2499999999999977
 40
0.2499999999999977
 40
0.3749999999999965
 40
0.3749999999999965
 40
0.4999999999999953
 40
0.4999999999999953
 40
0.6249999999999942
 40
0.6249999999999942
 40
0.749999999999993
 40
0.749999999999993
 40
0.8749999999999918
 40
0.8749999999999918
 40
0.9374999999999959
 40
0.9374999999999959
 40
1.0
 40
1.0
 40
1.0
 40
1.0
 10
5929.0187553361
 20
5248.699454592719
 30
0.0
 10
5929.0187553361
 20
5248.699454592719
 30
0.0
 10
5928.998805908077
 20
5248.662499251494
 30
0.0
 10
5928.921312568995
 20
5248.518865519321
 30
0.0
 10
5928.862744264022
 20
5248.410285256447
 30
0.0
 10
5928.714372584658
 20
5248.134970254953
 30
0.0
 10
5928.623968881414
 20
5247.967121659107
 30
0.0
 10
5928.414362815513
 20
5247.577497155266
 30
0.0
 10
5928.297812144814
 20
5247.360648899979
 30
0.0
 10
5928.043563994793
 20
5246.886967931176
 30
0.0
 10
5927.904847413246
 20
5246.628227117953
 30
0.0
 10
5927.616965583509
 20
5246.090454531392
 30
0.0
 10
5927.46682596812
 20
5245.809612375504
 30
0.0
 10
5927.154670634962
 20
5245.22479289996
 30
0.0
 10
5926.994122211868
 20
5244.923557373756
 30
0.0
 10
5926.752163662236
 20
5244.468849137023
 30
0.0
 10
5926.671055395216
 20
5244.316305603602
 30
0.0
 10
5926.507931896121
 20
5244.009269529764
 30
0.0
 10
5926.424986592091
 20
5243.853019933965
 30
0.0
 10
5926.343526825865
 20
5243.699454592719
 30
0.0
  0
ARC
  5
125
330
1F
100
AcDbEntity
  8
0
  6
Continuous
 62
     7
370
    25
100
AcDbCircle
 10
6466.1579588376
 20
5349.057054155
 30
0.0
 40
182.8607964984852
100
AcDbArc
 50
326.7139258819
 51
17.8917766057
  0
ARC
  5
126
330
1F
100
AcDbEntity
  8
0
  6
Continuous
 62
     7
370
    25
100
AcDbCircle
 10
6466.1579588376
 20
5349.057054155
 30
0.0
 40
187.8607964984851
100
AcDbArc
 50
325.8869194193
 51
16.9098354281
  0
SPLINE
  5
127
330
1F
100
AcDbEntity
  8
0
  6
Continuous
 62
     7
370
    25
100
AcDbSpline
210
0.0
220
0.0
230
1.0
 70
     8
 71
     3
 72
    24
 73
    20
 74
     0
 42
0.000000001
 43
0.00000001
 40
0.0
 40
0.0
 40
0.0
 40
0.0
 40
0.1249999999999988
 40
0.1249999999999988
 40
0.2499999999999977
 40
0.2499999999999977
 40
0.3749999999999965
 40
0.3749999999999965
 40
0.4999999999999953
 40
0.4999999999999953
 40
0.6249999999999942
 40
0.6249999999999942
 40
0.749999999999993
 40
0.749999999999993
 40
0.8749999999999918
 40
0.8749999999999918
 40
0.9374999999999959
 40
0.9374999999999959
 40
1.0
 40
1.0
 40
1.0
 40
1.0
 10
6619.0187553361
 20
5248.699454592719
 30
0.0
 10
6619.0187553361
 20
5248.699454592719
 30
0.0
 10
6619.038704764123
 20
5248.662499251494
 30
0.0
 10
6619.116198103206
 20
5248.518865519321
 30
0.0
 10
6619.174766408179
 20
5248.410285256447
 30
0.0
 10
6619.323138087542
 20
5248.134970254953
 30
0.0
 10
6619.413541790786
 20
5247.967121659107
 30
0.0
 10
6619.623147856687
 20
5247.577497155266
 30
0.0
 10
6619.739698527386
 20
5247.360648899979
 30
0.0
 10
6619.993946677408
 20
5246.886967931176
 30
0.0
 10
6620.132663258954
 20
5246.628227117953
 30
0.0
 10
6620.420545088691
 20
5246.090454531392
 30
0.0
 10
6620.57068470408
 20
5245.809612375504
 30
0.0
 10
6620.882840037239
 20
5245.22479289996
 30
0.0
 10
6621.043388460333
 20
5244.923557373756
 30
0.0
 10
6621.285347009964
 20
5244.468849137023
 30
0.0
 10
6621.366455276984
 20
5244.316305603602
 30
0.0
 10
6621.52957877608
 20
5244.009269529764
 30
0.0
 10
6621.612524080109
 20
5243.853019933965
 30
0.0
 10
6621.693983846335
 20
5243.699454592719
 30
0.0
  0
LINE
  5
128
330
1F
100
AcDbEntity
  8
0
  6
Continuous
 62
     7
370
    25
100
AcDbLine
 10
6599.0187434152
 20
5248.699458765
 30
0.0
 11
6619.018754144
 21
5248.699458765
 31
0.0
  0
LINE
  5
129
330
1F
100
AcDbEntity
  8
0
  6
Continuous
 62
     7
370
    25
100
AcDbLine
 10
6621.6939894155
 20
5243.6994486323
 30
0.0
 11
6604.0187684491
 21
5243.6994486323
 31
0.0
  0
LWPOLYLINE
  5
12A
330
1F
100
AcDbEntity
  8
0
  6
Continuous
 62
     7
370
    25
100
AcDbPolyline
 90
        9
 70
   128
 43
0.0
 10
6599.0187434152
 20
5248.699458765
 10
6599.1148261025
 20
5248.6033760777
 10
6599.3993488744
 20
5248.3188533058
 10
6599.8614040807
 20
5247.8567980995
 10
6600.4832295373
 20
5247.2349875441
 10
6601.2408939794
 20
5246.4773082009
 10
6602.1053401425
 20
5245.6128769388
 10
6603.0433086351
 20
5244.6749084463
 10
6604.0187684491
 20
5243.6994486323
  0
LINE
  5
12B
330
1F
100
AcDbEntity
  8
0
  6
Continuous
 62
     7
370
    25
100
AcDbLine
 10
5944.0187422231
 20
5243.6994486323
 30
0.0
 11
5926.3435212567
 21
5243.6994486323
 31
0.0
  0
LINE
  5
12C
330
1F
100
AcDbEntity
  8
0
  6
Continuous
 62
     7
370
    25
100
AcDbLine
 10
5929.0187565282
 20
5248.699458765
 30
0.0
 11
5949.018767257
 21
5248.699458765
 31
0.0
  0
LWPOLYLINE
  5
12D
330
1F
100
AcDbEntity
  8
0
  6
Continuous
 62
     7
370
    25
100
AcDbPolyline
 90
        9
 70
   128
 43
0.0
 10
5944.0187422231
 20
5243.6994486323
 10
5944.9942020371
 20
5244.6749084463
 10
5945.9321705297
 20
5245.6128769388
 10
5946.7966166928
 20
5246.4773082009
 10
5947.5542811349
 20
5247.2349875441
 10
5948.1761065915
 20
5247.8567980995
 10
5948.6381617978
 20
5248.3188533058
 10
5948.9226845697
 20
5248.6033760777
 10
5949.018767257
 20
5248.699458765
  0
LWPOLYLINE
  5
12E
330
1F
100
AcDbEntity
  8
0
  6
Continuous
 62
     7
370
    25
100
AcDbPolyline
 90
        8
 70
   128
 43
0.0
 10
6219.0187556341
 20
5117.4887888899
 10
6219.98044305
 20
5116.5270977488
 10
6220.9062186673
 20
5115.6013258567
 10
6221.7615117922
 20
5114.7460290065
 10
6222.514385511
 20
5113.9931552878
 10
6223.1367250577
 20
5113.3708157411
 10
6223.6052883461
 20
5112.9022561779
 10
6223.9025776878
 20
5112.6049631109
  0
LINE
  5
12F
330
1F
100
AcDbEntity
  8
0
  6
Continuous
 62
     7
370
    25
100
AcDbLine
 10
6219.0187556341
 20
5117.4887888899
 30
0.0
 11
6219.0187556341
 21
5207.1411781778
 31
0.0
  0
LINE
  5
130
330
1F
100
AcDbEntity
  8
0
  6
Continuous
 62
     7
370
    25
100
AcDbLine
 10
6219.0187556341
 20
5207.1411781778
 30
0.0
 11
6224.018754591
 21
5207.1411781778
 31
0.0
  0
LINE
  5
131
330
1F
100
AcDbEntity
  8
0
  6
Continuous
 62
     7
370
    25
100
AcDbLine
 10
6219.0187556341
 20
5207.1411781778
 30
0.0
 11
6219.0187556341
 21
5209.9661254158
 31
0.0
  0
LINE
  5
132
330
1F
100
AcDbEntity
  8
0
  6
Continuous
 62
     7
370
    25
100
AcDbLine
 10
6329.0187550381
 20
5209.9661254158
 30
0.0
 11
6329.0187550381
 21
5207.1411781778
 31
0.0
  0
LINE
  5
133
330
1F
100
AcDbEntity
  8
0
  6
Continuous
 62
     7
370
    25
100
AcDbLine
 10
6324.0187560812
 20
5207.1411781778
 30
0.0
 11
6329.0187550381
 21
5207.1411781778
 31
0.0
  0
LINE
  5
134
330
1F
100
AcDbEntity
  8
0
  6
Continuous
 62
     7
370
    25
100
AcDbLine
 10
6329.0187550381
 20
5207.1411781778
 30
0.0
 11
6329.0187550381
 21
5117.4887888899
 31
0.0
  0
LWPOLYLINE
  5
135
330
1F
100
AcDbEntity
  8
0
  6
Continuous
 62
     7
370
    25
100
AcDbPolyline
 90
        8
 70
   128
 43
0.0
 10
6324.1349329844
 20
5112.6049631109
 10
6324.4322223261
 20
5112.9022561779
 10
6324.9007856145
 20
5113.3708157411
 10
6325.5231251612
 20
5113.9931552878
 10
6326.27599888
 20
5114.7460290065
 10
6327.1312920049
 20
5115.6013258567
 10
6328.0570676222
 20
5116.5270977488
 10
6329.0187550381
 20
5117.4887888899
  0
LINE
  5
136
330
1F
100
AcDbEntity
  8
0
  6
Continuous
 62
     7
370
    25
100
AcDbLine
 10
6014.0187648728
 20
5225.9281449785
 30
0.0
 11
6014.0187648728
 21
5248.699458765
 31
0.0
  0
LINE
  5
137
330
1F
100
AcDbEntity
  8
0
  6
Continuous
 62
     7
370
    25
100
AcDbLine
 10
6709.0187577203
 20
5091.6994535198
 30
0.0
 11
6709.0187577203
 21
5093.699457573
 31
0.0
  0
LINE
  5
138
330
1F
100
AcDbEntity
  8
0
  6
Continuous
 62
     7
370
    25
100
AcDbLine
 10
5839.0187529519
 20
5093.699457573
 30
0.0
 11
5839.0187529519
 21
5091.6994535198
 31
0.0
  0
LINE
  5
139
330
1F
100
AcDbEntity
  8
0
  6
Continuous
 62
     7
370
    25
100
AcDbLine
 10
6534.0187457994
 20
5248.699458765
 30
0.0
 11
6534.0187457994
 21
5225.9281449785
 31
0.0
  0
LINE
  5
13A
330
1F
100
AcDbEntity
  8
0
  6
Continuous
 62
     7
370
    25
100
AcDbLine
 10
6604.0187684491
 20
5243.6994486323
 30
0.0
 11
6604.0187684491
 21
5093.699457573
 31
0.0
  0
LWPOLYLINE
  5
13B
330
1F
100
AcDbEntity
  8
0
  6
Continuous
 62
     7
370
    25
100
AcDbPolyline
 90
        9
 70
   128
 43
0.0
 10
6599.0187434152
 20
5088.6994548907
 10
6599.1148261025
 20
5088.7955301275
 10
6599.3993488744
 20
5089.08006035
 10
6599.8614040807
 20
5089.5421081057
 10
6600.4832295373
 20
5090.1639186611
 10
6601.2408939794
 20
5090.9216054549
 10
6602.1053401425
 20
5091.786036717
 10
6603.0433086351
 20
5092.7240052095
 10
6604.0187684491
 20
5093.699457573
  0
LWPOLYLINE
  5
13C
330
1F
100
AcDbEntity
  8
0
  6
Continuous
 62
     7
370
    25
100
AcDbPolyline
 90
       10
 70
   128
 43
0.0
 10
5944.0187422231
 20
5093.699457573
 10
5944.8870030835
 20
5092.8312116137
 10
5945.7288590863
 20
5091.9893556109
 10
5946.5187696412
 20
5091.1994525066
 10
5947.232684274
 20
5090.485515522
 10
5947.8489664987
 20
5089.8692332974
 10
5948.3488706544
 20
5089.3693291416
 10
5948.7172273591
 20
5089.0009947887
 10
5948.9428011373
 20
5088.7754135599
 10
5949.018767257
 20
5088.6994548907
  0
LINE
  5
13D
330
1F
100
AcDbEntity
  8
0
  6
Continuous
 62
     7
370
    25
100
AcDbLine
 10
5944.0187422231
 20
5093.699457573
 30
0.0
 11
5944.0187422231
 21
5243.6994486323
 31
0.0
  0
LINE
  5
13E
330
1F
100
AcDbEntity
  8
0
  6
Continuous
 62
     7
370
    25
100
AcDbLine
 10
6529.0187505677
 20
5248.699458765
 30
0.0
 11
6543.0187491372
 21
5248.699458765
 31
0.0
  0
LINE
  5
13F
330
1F
100
AcDbEntity
  8
0
  6
Continuous
 62
     7
370
    25
100
AcDbLine
 10
6635.4171542123
 20
5408.6994402876
 30
0.0
 11
6529.0187505677
 21
5408.6994402876
 31
0.0
  0
LINE
  5
140
330
1F
100
AcDbEntity
  8
0
  6
Continuous
 62
     7
370
    25
100
AcDbLine
 10
6005.018761535
 20
5248.699458765
 30
0.0
 11
6019.0187601045
 21
5248.699458765
 31
0.0
  0
LINE
  5
141
330
1F
100
AcDbEntity
  8
0
  6
Continuous
 62
     7
370
    25
100
AcDbLine
 10
6019.0187601045
 20
5408.6994402876
 30
0.0
 11
5912.6203564599
 21
5408.6994402876
 31
0.0
  0
LINE
  5
142
330
1F
100
AcDbEntity
  8
0
  6
Continuous
 62
     7
370
    25
100
AcDbLine
 10
6010.0187567666
 20
5117.4887888899
 30
0.0
 11
6219.0187556341
 21
5117.4887888899
 31
0.0
  0
LINE
  5
143
330
1F
100
AcDbEntity
  8
0
  6
Continuous
 62
     7
370
    25
100
AcDbLine
 10
6329.0187550381
 20
5117.4887888899
 30
0.0
 11
6538.0187539056
 21
5117.4887888899
 31
0.0
  0
CIRCLE
  5
144
330
1F
100
AcDbEntity
  8
0
  6
Continuous
 62
     7
370
    25
100
AcDbCircle
 10
6680.5187553361
 20
5152.6994545927
 30
0.0
 40
14.0
  0
CIRCLE
  5
145
330
1F
100
AcDbEntity
  8
0
  6
Continuous
 62
     7
370
    25
100
AcDbCircle
 10
6680.5187553361
 20
5152.6994545927
 30
0.0
 40
15.39970842444745
  0
CIRCLE
  5
146
330
1F
100
AcDbEntity
  8
0
  6
Continuous
 62
     7
370
    25
100
AcDbCircle
 10
5867.5187553361
 20
5152.6994545927
 30
0.0
 40
14.0
  0
CIRCLE
  5
147
330
1F
100
AcDbEntity
  8
0
  6
Continuous
 62
     7
370
    25
100
AcDbCircle
 10
6680.5187553361
 20
5362.6994545927
 30
0.0
 40
14.0
  0
CIRCLE
  5
148
330
1F
100
AcDbEntity
  8
0
  6
Continuous
 62
     7
370
    25
100
AcDbCircle
 10
6680.5187553361
 20
5362.6994545927
 30
0.0
 40
15.39970842444745
  0
CIRCLE
  5
149
330
1F
100
AcDbEntity
  8
0
  6
Continuous
 62
     7
370
    25
100
AcDbCircle
 10
5867.5187553361
 20
5362.6994545927
 30
0.0
 40
14.0
  0
CIRCLE
  5
14A
330
1F
100
AcDbEntity
  8
0
  6
Continuous
 62
     7
370
    25
100
AcDbCircle
 10
5867.5187553361
 20
5362.6994545927
 30
0.0
 40
15.39970842444745
  0
CIRCLE
  5
14B
330
1F
100
AcDbEntity
  8
0
  6
Continuous
 62
     7
370
    25
100
AcDbCircle
 10
5867.5187553361
 20
5152.6994545927
 30
0.0
 40
15.39970842444745
  0
CIRCLE
  5
14C
330
1F
100
AcDbEntity
  8
0
  6
Continuous
 62
     7
370
    25
100
AcDbCircle
 10
5867.5187553361
 20
5362.6994545927
 30
0.0
 40
18.89897948556609
  0
CIRCLE
  5
14D
330
1F
100
AcDbEntity
  8
0
  6
Continuous
 62
     7
370
    25
100
AcDbCircle
 10
5867.5187553361
 20
5152.6994545927
 30
0.0
 40
18.898979485567
  0
CIRCLE
  5
14E
330
1F
100
AcDbEntity
  8
0
  6
Continuous
 62
     7
370
    25
100
AcDbCircle
 10
6680.5187553361
 20
5152.6994545927
 30
0.0
 40
18.898979485567
  0
CIRCLE
  5
14F
330
1F
100
AcDbEntity
  8
0
  6
Continuous
 62
     7
370
    25
100
AcDbCircle
 10
6680.5187553361
 20
5362.6994545927
 30
0.0
 40
18.89897948556609
  0
LINE
  5
150
330
1F
100
AcDbEntity
  8
0
  6
Continuous
 62
     7
370
    25
100
AcDbLine
 10
6039.0187559321
 20
5207.1411781778
 30
0.0
 11
6024.0187553361
 21
5207.1411781778
 31
0.0
  0
SPLINE
  5
151
330
1F
100
AcDbEntity
  8
0
  6
Continuous
 62
     7
370
    25
100
AcDbSpline
210
0.0
220
0.0
230
1.0
 70
     8
 71
     3
 72
    10
 73
     6
 74
     0
 42
0.000000001
 43
0.00000001
 40
0.0
 40
0.0
 40
0.0
 40
0.0
 40
0.5
 40
0.5
 40
1.0
 40
1.0
 40
1.0
 40
1.0
 10
6039.0187553361
 20
5207.141175584362
 30
0.0
 10
6039.0187553361
 20
5207.657648788841
 30
0.0
 10
6039.07168547909
 20
5208.157999864772
 30
0.0
 10
6039.268724549557
 20
5209.123556644247
 30
0.0
 10
6039.407218957123
 20
5209.563034600981
 30
0.0
 10
6039.571120828642
 20
5209.966131292116
 30
0.0
  0
LINE
  5
152
330
1F
100
AcDbEntity
  8
0
  6
Continuous
 62
     7
370
    25
100
AcDbLine
 10
6524.0187553361
 20
5207.1411781778
 30
0.0
 11
6509.0187547401
 21
5207.1411781778
 31
0.0
  0
SPLINE
  5
153
330
1F
100
AcDbEntity
  8
0
  6
Continuous
 62
     7
370
    25
100
AcDbSpline
210
0.0
220
0.0
230
1.0
 70
     8
 71
     3
 72
    10
 73
     6
 74
     0
 42
0.000000001
 43
0.00000001
 40
0.0
 40
0.0
 40
0.0
 40
0.0
 40
0.5
 40
0.5
 40
1.0
 40
1.0
 40
1.0
 40
1.0
 10
6509.0187553361
 20
5207.141175584362
 30
0.0
 10
6509.0187553361
 20
5207.657648788841
 30
0.0
 10
6508.965825193111
 20
5208.157999864772
 30
0.0
 10
6508.768786122643
 20
5209.123556644247
 30
0.0
 10
6508.630291715077
 20
5209.563034600981
 30
0.0
 10
6508.466389843558
 20
5209.966131292116
 30
0.0
  0
LINE
  5
154
330
1F
100
AcDbEntity
  8
0
  6
Continuous
 62
     7
370
    25
100
AcDbLine
 10
6344.0187556341
 20
5207.1411781778
 30
0.0
 11
6329.0187550381
 21
5207.1411781778
 31
0.0
  0
SPLINE
  5
155
330
1F
100
AcDbEntity
  8
0
  6
Continuous
 62
     7
370
    25
100
AcDbSpline
210
0.0
220
0.0
230
1.0
 70
     8
 71
     3
 72
    10
 73
     6
 74
     0
 42
0.000000001
 43
0.00000001
 40
0.0
 40
0.0
 40
0.0
 40
0.0
 40
0.5
 40
0.5
 40
1.0
 40
1.0
 40
1.0
 40
1.0
 10
6344.571120828642
 20
5209.966131292116
 30
0.0
 10
6344.407220300013
 20
5209.563037903655
 30
0.0
 10
6344.268737207752
 20
5209.123585696689
 30
0.0
 10
6344.071712958813
 20
5208.158167494721
 30
0.0
 10
6344.0187553361
 20
5207.657646156702
 30
0.0
 10
6344.0187553361
 20
5207.141175584362
 30
0.0
  0
LINE
  5
156
330
1F
100
AcDbEntity
  8
0
  6
Continuous
 62
     7
370
    25
100
AcDbLine
 10
6219.0187556341
 20
5207.1411781778
 30
0.0
 11
6204.0187550381
 21
5207.1411781778
 31
0.0
  0
SPLINE
  5
157
330
1F
100
AcDbEntity
  8
0
  6
Continuous
 62
     7
370
    25
100
AcDbSpline
210
0.0
220
0.0
230
1.0
 70
     8
 71
     3
 72
    10
 73
     6
 74
     0
 42
0.000000001
 43
0.00000001
 40
0.0
 40
0.0
 40
0.0
 40
0.0
 40
0.5
 40
0.5
 40
1.0
 40
1.0
 40
1.0
 40
1.0
 10
6203.466389843558
 20
5209.966131292116
 30
0.0
 10
6203.630290372187
 20
5209.563037903655
 30
0.0
 10
6203.768773464449
 20
5209.123585696689
 30
0.0
 10
6203.965797713387
 20
5208.158167494721
 30
0.0
 10
6204.0187553361
 20
5207.657646156702
 30
0.0
 10
6204.0187553361
 20
5207.141175584362
 30
0.0
  0
LINE
  5
158
330
1F
100
AcDbEntity
  8
0
  6
Continuous
 62
     7
370
    25
100
AcDbLine
 10
5844.0187481835
 20
5408.6994402876
 30
0.0
 11
5844.0187481835
 21
5403.699445056
 31
0.0
  0
LINE
  5
159
330
1F
100
AcDbEntity
  8
0
  6
Continuous
 62
     7
370
    25
100
AcDbLine
 10
5839.0187529519
 20
5403.699445056
 30
0.0
 11
5844.0187481835
 21
5403.699445056
 31
0.0
  0
ARC
  5
15A
330
1F
100
AcDbEntity
  8
0
  6
Continuous
 62
     7
370
    25
100
AcDbCircle
 10
5844.0187553361
 20
5403.6994545927
 30
0.0
 40
5.0
100
AcDbArc
 50
90.0
 51
180.0
  0
LINE
  5
15B
330
1F
100
AcDbEntity
  8
0
  6
Continuous
 62
     7
370
    25
100
AcDbLine
 10
5839.0187529519
 20
5093.699457573
 30
0.0
 11
5839.0187529519
 21
5403.699445056
 31
0.0
  0
LINE
  5
15C
330
1F
100
AcDbEntity
  8
0
  6
Continuous
 62
     7
370
    25
100
AcDbLine
 10
5902.141174455
 20
5403.699445056
 30
0.0
 11
5844.0187481835
 21
5403.699445056
 31
0.0
  0
LINE
  5
15D
330
1F
100
AcDbEntity
  8
0
  6
Continuous
 62
     7
370
    25
100
AcDbLine
 10
5844.0187481835
 20
5408.6994402876
 30
0.0
 11
5902.141174455
 21
5408.6994402876
 31
0.0
  0
LWPOLYLINE
  5
15E
330
1F
100
AcDbEntity
  8
0
  6
Continuous
 62
     7
370
    25
100
AcDbPolyline
 90
       10
 70
   128
 43
0.0
 10
6704.0187624887
 20
5403.699445056
 10
6704.8869935468
 20
5404.5677059164
 10
6705.7288495496
 20
5405.4095619192
 10
6706.5187601045
 20
5406.1994426718
 10
6707.2327045396
 20
5406.9133871069
 10
6707.8489867642
 20
5407.5296693316
 10
6708.34889092
 20
5408.0295734873
 10
6708.7172178224
 20
5408.397930192
 10
6708.9427916005
 20
5408.6235039702
 10
6709.0187577203
 20
5408.6994402876
  0
LINE
  5
15F
330
1F
100
AcDbEntity
  8
0
  6
Continuous
 62
     7
370
    25
100
AcDbLine
 10
6709.0187577203
 20
5408.6994402876
 30
0.0
 11
6709.0187577203
 21
5093.699457573
 31
0.0
  0
LINE
  5
160
330
1F
100
AcDbEntity
  8
0
  6
Continuous
 62
     7
370
    25
100
AcDbLine
 10
6704.0187624887
 20
5403.699445056
 30
0.0
 11
6645.8963362172
 21
5403.699445056
 31
0.0
  0
LINE
  5
161
330
1F
100
AcDbEntity
  8
0
  6
Continuous
 62
     7
370
    25
100
AcDbLine
 10
6645.8963362172
 20
5408.6994402876
 30
0.0
 11
6709.0187577203
 21
5408.6994402876
 31
0.0
  0
ARC
  5
162
330
1F
100
AcDbEntity
  8
0
  6
Continuous
 62
     7
370
    25
100
AcDbCircle
 10
6121.5187553361
 20
5207.1411755844
 30
0.0
 40
30.00000000000007
100
AcDbArc
 50
194.4775121859
 51
345.5224878141
  0
LINE
  5
163
330
1F
100
AcDbEntity
  8
0
  6
Continuous
 62
     7
370
    25
100
AcDbLine
 10
6150.5661291674
 20
5199.6411704292
 30
0.0
 11
6196.5187547401
 21
5199.6411704292
 31
0.0
  0
LINE
  5
164
330
1F
100
AcDbEntity
  8
0
  6
Continuous
 62
     7
370
    25
100
AcDbLine
 10
6046.5187487796
 20
5199.6411704292
 30
0.0
 11
6092.4713818029
 21
5199.6411704292
 31
0.0
  0
ARC
  5
165
330
1F
100
AcDbEntity
  8
0
  6
Continuous
 62
     7
370
    25
100
AcDbCircle
 10
6196.5187553361
 20
5207.1411755844
 30
0.0
 40
7.5
100
AcDbArc
 50
270.0
 51
0.0
  0
ARC
  5
166
330
1F
100
AcDbEntity
  8
0
  6
Continuous
 62
     7
370
    25
100
AcDbCircle
 10
6046.5187553361
 20
5207.1411755844
 30
0.0
 40
7.5
100
AcDbArc
 50
180.0
 51
270.0
  0
LINE
  5
167
330
1F
100
AcDbEntity
  8
0
  6
Continuous
 62
     7
370
    25
100
AcDbLine
 10
6397.4713815048
 20
5199.6411704292
 30
0.0
 11
6351.5187559321
 21
5199.6411704292
 31
0.0
  0
ARC
  5
168
330
1F
100
AcDbEntity
  8
0
  6
Continuous
 62
     7
370
    25
100
AcDbCircle
 10
6426.5187553361
 20
5207.1411755844
 30
0.0
 40
30.00000000000007
100
AcDbArc
 50
194.4775121859
 51
345.5224878141
  0
LINE
  5
169
330
1F
100
AcDbEntity
  8
0
  6
Continuous
 62
     7
370
    25
100
AcDbLine
 10
6501.5187618926
 20
5199.6411704292
 30
0.0
 11
6455.5661288693
 21
5199.6411704292
 31
0.0
  0
ARC
  5
16A
330
1F
100
AcDbEntity
  8
0
  6
Continuous
 62
     7
370
    25
100
AcDbCircle
 10
6351.5187553361
 20
5207.1411755844
 30
0.0
 40
7.5
100
AcDbArc
 50
180.0
 51
270.0
  0
ARC
  5
16B
330
1F
100
AcDbEntity
  8
0
  6
Continuous
 62
     7
370
    25
100
AcDbCircle
 10
6501.5187553361
 20
5207.1411755844
 30
0.0
 40
7.5
100
AcDbArc
 50
270.0
 51
0.0
  0
LINE
  5
16C
330
1F
100
AcDbEntity
  8
0
  6
Continuous
 62
     8
370
    25
100
AcDbLine
 10
6708.6013165906
 20
5093.699457573
 30
0.0
 11
6709.0187577203
 21
5093.699457573
 31
0.0
  0
LINE
  5
16D
330
1F
100
AcDbEntity
  8
0
  6
Continuous
 62
     8
370
    25
100
AcDbLine
 10
5839.0187529519
 20
5093.699457573
 30
0.0
 11
5839.4361940816
 21
5093.699457573
 31
0.0
  0
LINE
  5
16E
330
1F
100
AcDbEntity
  8
0
  6
Continuous
 62
     8
370
    25
100
AcDbLine
 10
5876.6013292268
 20
5093.699457573
 30
0.0
 11
5944.0187422231
 21
5093.699457573
 31
0.0
  0
LINE
  5
16F
330
1F
100
AcDbEntity
  8
0
  6
Continuous
 62
     8
370
    25
100
AcDbLine
 10
6604.0187684491
 20
5093.699457573
 30
0.0
 11
6671.4361814454
 21
5093.699457573
 31
0.0
  0
LINE
  5
170
330
1F
100
AcDbEntity
  8
0
  6
Continuous
 62
     8
370
    25
100
AcDbLine
 10
5844.0187481835
 20
5403.699445056
 30
0.0
 11
5844.0187481835
 21
5096.699456202
 31
0.0
  0
LINE
  5
171
330
1F
100
AcDbEntity
  8
0
  6
Continuous
 62
     8
370
    25
100
AcDbLine
 10
6704.0187624887
 20
5096.699456202
 30
0.0
 11
6704.0187624887
 21
5403.699445056
 31
0.0
  0
ARC
  5
172
330
1F
100
AcDbEntity
  8
0
  6
Continuous
 62
     7
370
    25
100
AcDbCircle
 10
7131.7390082125
 20
5133.8004751072
 30
0.0
 40
5.000000000000423
100
AcDbArc
 50
135.5846914028
 51
180.0
  0
ARC
  5
173
330
1F
100
AcDbEntity
  8
0
  6
Continuous
 62
     7
370
    25
100
AcDbCircle
 10
7131.7390082125
 20
5171.5984340783
 30
0.0
 40
5.000000000001059
100
AcDbArc
 50
180.0
 51
224.4153085972
  0
ARC
  5
174
330
1F
100
AcDbEntity
  8
0
  6
Continuous
 62
     7
370
    25
100
AcDbCircle
 10
7131.7390082125
 20
5343.8004751072
 30
0.0
 40
5.000000000000423
100
AcDbArc
 50
135.5846914028
 51
180.0
  0
ARC
  5
175
330
1F
100
AcDbEntity
  8
0
  6
Continuous
 62
     7
370
    25
100
AcDbCircle
 10
7131.7390082125
 20
5381.5984340783
 30
0.0
 40
5.000000000000423
100
AcDbArc
 50
180.0
 51
224.4153085972
  0
ARC
  5
176
330
1F
100
AcDbEntity
  8
0
  6
Continuous
 62
     7
370
    25
100
AcDbCircle
 10
7126.7390082125
 20
5166.6994545927
 30
0.0
 40
2.0
100
AcDbArc
 50
0.0
 51
44.4153085972
  0
ARC
  5
177
330
1F
100
AcDbEntity
  8
0
  6
Continuous
 62
     7
370
    25
100
AcDbCircle
 10
7126.7390082125
 20
5138.6994545927
 30
0.0
 40
2.0
100
AcDbArc
 50
315.5846914028
 51
0.0
  0
ARC
  5
178
330
1F
100
AcDbEntity
  8
0
  6
Continuous
 62
     7
370
    25
100
AcDbCircle
 10
7126.7390082125
 20
5376.6994545927
 30
0.0
 40
2.0
100
AcDbArc
 50
0.0
 51
44.4153085972
  0
ARC
  5
179
330
1F
100
AcDbEntity
  8
0
  6
Continuous
 62
     7
370
    25
100
AcDbCircle
 10
7126.7390082125
 20
5348.6994545927
 30
0.0
 40
2.0
100
AcDbArc
 50
315.5846914028
 51
0.0
  0
SPLINE
  5
17A
330
1F
100
AcDbEntity
  8
0
  6
Continuous
 62
     7
370
    25
100
AcDbSpline
210
0.0
220
0.0
230
1.0
 70
     8
 71
     3
 72
    10
 73
     6
 74
     0
 42
0.000000001
 43
0.00000001
 40
0.0
 40
0.0
 40
0.0
 40
0.0
 40
0.0132008211101729
 40
0.6387219928740672
 40
1.0
 40
1.0
 40
1.0
 40
1.0
 10
7156.733407760058
 20
5274.0590744486
 30
0.0
 10
7156.733196714124
 20
5274.062600910187
 30
0.0
 10
7156.722985252408
 20
5274.233228824447
 30
0.0
 10
7156.747368752689
 20
5274.501979974259
 30
0.0
 10
7156.786021293484
 20
5274.762337670069
 30
0.0
 10
7156.800172412787
 20
5274.857657479301
 30
0.0
  0
LINE
  5
17B
330
1F
100
AcDbEntity
  8
0
  6
Continuous
 62
     7
370
    25
100
AcDbLine
 10
7156.7390068714
 20
5078.2455825081
 30
0.0
 11
7156.7390068714
 21
5274.0591340532
 31
0.0
  0
LINE
  5
17C
330
1F
100
AcDbEntity
  8
0
  6
Continuous
 62
     7
370
    25
100
AcDbLine
 10
7101.7390081007
 20
5408.6994402876
 30
0.0
 11
7101.7390081007
 21
5403.699445056
 31
0.0
  0
LINE
  5
17D
330
1F
100
AcDbEntity
  8
0
  6
Continuous
 62
     7
370
    25
100
AcDbLine
 10
7096.7390082125
 20
5403.699445056
 30
0.0
 11
7101.7390081007
 21
5403.699445056
 31
0.0
  0
ARC
  5
17E
330
1F
100
AcDbEntity
  8
0
  6
Continuous
 62
     7
370
    25
100
AcDbCircle
 10
7101.7390082125
 20
5403.6994545927
 30
0.0
 40
5.0
100
AcDbArc
 50
90.0
 51
180.0
  0
LINE
  5
17F
330
1F
100
AcDbEntity
  8
0
  6
Continuous
 62
     7
370
    25
100
AcDbLine
 10
7101.7390081007
 20
5023.699454481
 30
0.0
 11
7521.7390201334
 21
5023.699454481
 31
0.0
  0
LINE
  5
180
330
1F
100
AcDbEntity
  8
0
  6
Continuous
 62
     7
370
    25
100
AcDbLine
 10
7101.7390081007
 20
5403.699445056
 30
0.0
 11
7101.7390081007
 21
5023.699454481
 31
0.0
  0
LINE
  5
181
330
1F
100
AcDbEntity
  8
0
  6
Continuous
 62
     7
370
    25
100
AcDbLine
 10
7121.739008585
 20
5403.699445056
 30
0.0
 11
7101.7390081007
 21
5403.699445056
 31
0.0
  0
LINE
  5
182
330
1F
100
AcDbEntity
  8
0
  6
Continuous
 62
     7
370
    25
100
AcDbLine
 10
7121.739008585
 20
5093.699457573
 30
0.0
 11
7121.739008585
 21
5403.699445056
 31
0.0
  0
ARC
  5
183
330
1F
100
AcDbEntity
  8
0
  6
Continuous
 62
     7
370
    25
100
AcDbCircle
 10
7131.7390082125
 20
5093.6994545927
 30
0.0
 40
10.0
100
AcDbArc
 50
180.0
 51
270.0
  0
ARC
  5
184
330
1F
100
AcDbEntity
  8
0
  6
Continuous
 62
     7
370
    25
100
AcDbCircle
 10
7131.7390082125
 20
5053.6994545927
 30
0.0
 40
30.0
100
AcDbArc
 50
36.8698976458
 51
90.0
  0
LINE
  5
185
330
1F
100
AcDbEntity
  8
0
  6
Continuous
 62
     7
370
    25
100
AcDbLine
 10
7504.7390005831
 20
5071.6994539669
 30
0.0
 11
7155.7390085701
 21
5071.6994539669
 31
0.0
  0
ARC
  5
186
330
1F
100
AcDbEntity
  8
0
  6
Continuous
 62
     7
370
    25
100
AcDbCircle
 10
7504.7390082125
 20
5081.6994545927
 30
0.0
 40
10.0
100
AcDbArc
 50
270.0
 51
0.0
  0
LINE
  5
187
330
1F
100
AcDbEntity
  8
0
  6
Continuous
 62
     7
370
    25
100
AcDbLine
 10
7514.7390208487
 20
5091.6994535198
 30
0.0
 11
7514.7390208487
 21
5081.699455606
 31
0.0
  0
LINE
  5
188
330
1F
100
AcDbEntity
  8
0
  6
Continuous
 62
     7
370
    25
100
AcDbLine
 10
7521.7390201334
 20
5091.6994535198
 30
0.0
 11
7514.7390208487
 21
5091.6994535198
 31
0.0
  0
LINE
  5
189
330
1F
100
AcDbEntity
  8
0
  6
Continuous
 62
     7
370
    25
100
AcDbLine
 10
7521.7390201334
 20
5023.699454481
 30
0.0
 11
7521.7390201334
 21
5091.6994535198
 31
0.0
  0
LINE
  5
18A
330
1F
100
AcDbEntity
  8
0
  6
Continuous
 62
     7
370
    25
100
AcDbLine
 10
7096.7390082125
 20
5023.699454481
 30
0.0
 11
7096.7390082125
 21
5403.699445056
 31
0.0
  0
LINE
  5
18B
330
1F
100
AcDbEntity
  8
0
  6
Continuous
 62
     7
370
    25
100
AcDbLine
 10
7096.7390082125
 20
5023.699454481
 30
0.0
 11
7101.7390081007
 21
5023.699454481
 31
0.0
  0
LINE
  5
18C
330
1F
100
AcDbEntity
  8
0
  6
Continuous
 62
     7
370
    25
100
AcDbLine
 10
7101.7390081007
 20
5408.6994402876
 30
0.0
 11
7121.739008585
 21
5408.6994402876
 31
0.0
  0
LINE
  5
18D
330
1F
100
AcDbEntity
  8
0
  6
Continuous
 62
     7
370
    25
100
AcDbLine
 10
7121.739008585
 20
5408.6994402876
 30
0.0
 11
7121.739008585
 21
5403.699445056
 31
0.0
  0
LINE
  5
18E
330
1F
100
AcDbEntity
  8
0
  6
Continuous
 62
     7
370
    25
100
AcDbLine
 10
7521.7390201334
 20
5018.6994545927
 30
0.0
 11
7101.7390081007
 21
5018.6994545927
 31
0.0
  0
LINE
  5
18F
330
1F
100
AcDbEntity
  8
0
  6
Continuous
 62
     7
370
    25
100
AcDbLine
 10
7101.7390081007
 20
5018.6994545927
 30
0.0
 11
7101.7390081007
 21
5023.699454481
 31
0.0
  0
LINE
  5
190
330
1F
100
AcDbEntity
  8
0
  6
Continuous
 62
     7
370
    25
100
AcDbLine
 10
7521.7390201334
 20
5018.6994545927
 30
0.0
 11
7521.7390201334
 21
5023.699454481
 31
0.0
  0
ARC
  5
191
330
1F
100
AcDbEntity
  8
0
  6
Continuous
 62
     7
370
    25
100
AcDbCircle
 10
7101.7390082125
 20
5023.6994545927
 30
0.0
 40
5.0
100
AcDbArc
 50
180.0
 51
270.0
  0
LINE
  5
192
330
1F
100
AcDbEntity
  8
0
  6
Continuous
 62
     7
370
    25
100
AcDbLine
 10
7131.7390083615
 20
5083.6994522085
 30
0.0
 11
7131.7390083615
 21
5088.6994548907
 31
0.0
  0
ARC
  5
193
330
1F
100
AcDbEntity
  8
0
  6
Continuous
 62
     7
370
    25
100
AcDbCircle
 10
7131.7390082125
 20
5053.6994545927
 30
0.0
 40
35.0
100
AcDbArc
 50
41.0823331405
 51
90.0
  0
SPLINE
  5
194
330
1F
100
AcDbEntity
  8
0
  6
Continuous
 62
     7
370
    25
100
AcDbSpline
210
0.0
220
0.0
230
1.0
 70
     8
 71
     3
 72
    24
 73
    20
 74
     0
 42
0.000000001
 43
0.00000001
 40
0.0
 40
0.0
 40
0.0
 40
0.0
 40
0.1250000000000004
 40
0.1250000000000004
 40
0.2500000000000008
 40
0.2500000000000008
 40
0.3750000000000012
 40
0.3750000000000012
 40
0.5000000000000017
 40
0.5000000000000017
 40
0.6250000000000021
 40
0.6250000000000021
 40
0.7500000000000024
 40
0.7500000000000024
 40
0.8750000000000029
 40
0.8750000000000029
 40
0.9375000000000014
 40
0.9375000000000014
 40
1.0
 40
1.0
 40
1.0
 40
1.0
 10
7158.120820129027
 20
5076.699454592718
 30
0.0
 10
7158.120820129027
 20
5076.699454592718
 30
0.0
 10
7158.104430148314
 20
5076.66338996024
 30
0.0
 10
7158.040397843864
 20
5076.522874238879
 30
0.0
 10
7157.991854553929
 20
5076.416457702895
 30
0.0
 10
7157.867494053557
 20
5076.145034007879
 30
0.0
 10
7157.791659709248
 20
5075.979981065374
 30
0.0
 10
7157.612610349894
 20
5075.592590963421
 30
0.0
 10
7157.511893801472
 20
5075.375679200625
 30
0.0
 10
7157.290615754757
 20
5074.902471551095
 30
0.0
 10
7157.168541461211
 20
5074.642983121678
 30
0.0
 10
7156.911819407112
 20
5074.101702379691
 30
0.0
 10
7156.776920714425
 20
5073.819331995272
 30
0.0
 10
7156.494044107318
 20
5073.232446149425
 30
0.0
 10
7156.346160693354
 20
5072.928186992453
 30
0.0
 10
7156.121783438594
 20
5072.470876835275
 30
0.0
 10
7156.046258823808
 20
5072.31764689347
 30
0.0
 10
7155.893719467368
 20
5072.00963204035
 30
0.0
 10
7155.815807305848
 20
5071.853075403933
 30
0.0
 10
7155.739008212481
 20
5071.699454592719
 30
0.0
  0
LINE
  5
195
330
1F
100
AcDbEntity
  8
0
  6
Continuous
 62
     7
370
    25
100
AcDbLine
 10
7121.739008585
 20
5403.699445056
 30
0.0
 11
7126.7390075419
 21
5403.699445056
 31
0.0
  0
LINE
  5
196
330
1F
100
AcDbEntity
  8
0
  6
Continuous
 62
     7
370
    25
100
AcDbLine
 10
7126.7390075419
 20
5403.699445056
 30
0.0
 11
7126.7390075419
 21
5093.699457573
 31
0.0
  0
LINE
  5
197
330
1F
100
AcDbEntity
  8
0
  6
Continuous
 62
     7
370
    25
100
AcDbLine
 10
7121.739008585
 20
5093.699457573
 30
0.0
 11
7126.7390075419
 21
5093.699457573
 31
0.0
  0
ARC
  5
198
330
1F
100
AcDbEntity
  8
0
  6
Continuous
 62
     7
370
    25
100
AcDbCircle
 10
7131.7390082125
 20
5093.6994545927
 30
0.0
 40
5.0
100
AcDbArc
 50
180.0
 51
270.0
  0
ARC
  5
199
330
1F
100
AcDbEntity
  8
0
  6
Continuous
 62
     7
370
    25
100
AcDbCircle
 10
7121.7390082125
 20
5403.6994545927
 30
0.0
 40
5.0
100
AcDbArc
 50
0.0
 51
90.0
  0
LINE
  5
19A
330
1F
100
AcDbEntity
  8
0
  6
Continuous
 62
     7
370
    25
100
AcDbLine
 10
7158.1208213512
 20
5076.6994529238
 30
0.0
 11
7504.7390005831
 21
5076.6994529238
 31
0.0
  0
LINE
  5
19B
330
1F
100
AcDbEntity
  8
0
  6
Continuous
 62
     7
370
    25
100
AcDbLine
 10
7504.7390005831
 20
5071.6994539669
 30
0.0
 11
7504.7390005831
 21
5076.6994529238
 31
0.0
  0
LINE
  5
19C
330
1F
100
AcDbEntity
  8
0
  6
Continuous
 62
     7
370
    25
100
AcDbLine
 10
7514.7390208487
 20
5091.6994535198
 30
0.0
 11
7509.7389958147
 21
5091.6994535198
 31
0.0
  0
ARC
  5
19D
330
1F
100
AcDbEntity
  8
0
  6
Continuous
 62
     7
370
    25
100
AcDbCircle
 10
7514.7390082125
 20
5091.6994545927
 30
0.0
 40
5.0
100
AcDbArc
 50
90.0
 51
180.0
  0
LINE
  5
19E
330
1F
100
AcDbEntity
  8
0
  6
Continuous
 62
     7
370
    25
100
AcDbLine
 10
7514.7390208487
 20
5091.6994535198
 30
0.0
 11
7514.7390208487
 21
5096.699456202
 31
0.0
  0
LINE
  5
19F
330
1F
100
AcDbEntity
  8
0
  6
Continuous
 62
     7
370
    25
100
AcDbLine
 10
7514.7390208487
 20
5081.699455606
 30
0.0
 11
7509.7389958147
 21
5081.699455606
 31
0.0
  0
LINE
  5
1A0
330
1F
100
AcDbEntity
  8
0
  6
Continuous
 62
     7
370
    25
100
AcDbLine
 10
7509.7389958147
 20
5081.699455606
 30
0.0
 11
7509.7389958147
 21
5091.6994535198
 31
0.0
  0
ARC
  5
1A1
330
1F
100
AcDbEntity
  8
0
  6
Continuous
 62
     7
370
    25
100
AcDbCircle
 10
7504.7390082125
 20
5081.6994545927
 30
0.0
 40
5.000000000000909
100
AcDbArc
 50
270.0
 51
0.0
  0
LINE
  5
1A2
330
1F
100
AcDbEntity
  8
0
  6
Continuous
 62
     7
370
    25
100
AcDbLine
 10
7514.7390208487
 20
5096.699456202
 30
0.0
 11
7521.7390201334
 21
5096.699456202
 31
0.0
  0
LINE
  5
1A3
330
1F
100
AcDbEntity
  8
0
  6
Continuous
 62
     7
370
    25
100
AcDbLine
 10
7521.7390201334
 20
5091.6994535198
 30
0.0
 11
7521.7390201334
 21
5096.699456202
 31
0.0
  0
LINE
  5
1A4
330
1F
100
AcDbEntity
  8
0
  6
Continuous
 62
     7
370
    25
100
AcDbLine
 10
7541.7390010599
 20
5091.6994535198
 30
0.0
 11
7521.7390201334
 21
5091.6994535198
 31
0.0
  0
LINE
  5
1A5
330
1F
100
AcDbEntity
  8
0
  6
Continuous
 62
     7
370
    25
100
AcDbLine
 10
7521.7390201334
 20
5096.699456202
 30
0.0
 11
7536.7390058283
 21
5096.699456202
 31
0.0
  0
ARC
  5
1A6
330
1F
100
AcDbEntity
  8
0
  6
Continuous
 62
     7
370
    25
100
AcDbCircle
 10
7536.7390082125
 20
5091.6994545927
 30
0.0
 40
5.0
100
AcDbArc
 50
0.0
 51
90.0
  0
LINE
  5
1A7
330
1F
100
AcDbEntity
  8
0
  6
Continuous
 62
     7
370
    25
100
AcDbLine
 10
7536.7390058283
 20
5018.6994545927
 30
0.0
 11
7521.7390201334
 21
5018.6994545927
 31
0.0
  0
LINE
  5
1A8
330
1F
100
AcDbEntity
  8
0
  6
Continuous
 62
     7
370
    25
100
AcDbLine
 10
7521.7390201334
 20
5023.699454481
 30
0.0
 11
7541.7390010599
 21
5023.699454481
 31
0.0
  0
ARC
  5
1A9
330
1F
100
AcDbEntity
  8
0
  6
Continuous
 62
     7
370
    25
100
AcDbCircle
 10
7536.7390082125
 20
5023.6994545927
 30
0.0
 40
5.0
100
AcDbArc
 50
270.0
 51
0.0
  0
LINE
  5
1AA
330
1F
100
AcDbEntity
  8
0
  6
Continuous
 62
     7
370
    25
100
AcDbLine
 10
7541.7390010599
 20
5091.6994535198
 30
0.0
 11
7541.7390010599
 21
5023.699454481
 31
0.0
  0
LINE
  5
1AB
330
1F
100
AcDbEntity
  8
0
  6
Continuous
 62
     7
370
    25
100
AcDbLine
 10
7128.7390097324
 20
5166.6994565001
 30
0.0
 11
7128.7390097324
 21
5138.6994519105
 31
0.0
  0
LINE
  5
1AC
330
1F
100
AcDbEntity
  8
0
  6
Continuous
 62
     7
370
    25
100
AcDbLine
 10
7128.7390097324
 20
5376.6994648447
 30
0.0
 11
7128.7390097324
 21
5348.6994677057
 31
0.0
  0
SPLINE
  5
1AD
330
1F
100
AcDbEntity
  8
0
  6
Continuous
 62
     7
370
    25
100
AcDbSpline
210
0.0
220
0.0
230
1.0
 70
     8
 71
     3
 72
    26
 73
    22
 74
     0
 42
0.000000001
 43
0.00000001
 40
0.0
 40
0.0
 40
0.0
 40
0.0
 40
0.1250000000000019
 40
0.1250000000000019
 40
0.2500000000000038
 40
0.2500000000000038
 40
0.3750000000000057
 40
0.3750000000000057
 40
0.4375000000000047
 40
0.4375000000000047
 40
0.5000000000000037
 40
0.5000000000000037
 40
0.6250000000000031
 40
0.6250000000000031
 40
0.7500000000000026
 40
0.7500000000000026
 40
0.875000000000002
 40
0.875000000000002
 40
0.937500000000001
 40
0.937500000000001
 40
1.0
 40
1.0
 40
1.0
 40
1.0
 10
7126.739008212481
 20
5403.699454592719
 30
0.0
 10
7126.739008212481
 20
5403.789003271501
 30
0.0
 10
7126.767200529512
 20
5403.878186535343
 30
0.0
 10
7126.87816539399
 20
5404.055814562439
 30
0.0
 10
7126.961370766203
 20
5404.144608134103
 30
0.0
 10
7127.184380456006
 20
5404.319727402112
 30
0.0
 10
7127.322120950924
 20
5404.404621036781
 30
0.0
 10
7127.569257245632
 20
5404.527612267795
 30
0.0
 10
7127.658433444962
 20
5404.567879071445
 30
0.0
 10
7127.851182589287
 20
5404.646815549929
 30
0.0
 10
7127.95533203682
 20
5404.685663413382
 30
0.0
 10
7128.285068013035
 20
5404.797478558144
 30
0.0
 10
7128.528393283009
 20
5404.866195043424
 30
0.0
 10
7129.066094052969
 20
5404.990460683147
 30
0.0
 10
7129.36490302742
 20
5405.046524476318
 30
0.0
 10
7129.991913697576
 20
5405.13764048652
 30
0.0
 10
7130.321419291666
 20
5405.173363311695
 30
0.0
 10
7130.842272775527
 20
5405.210306390155
 30
0.0
 10
7131.020787483957
 20
5405.219794507278
 30
0.0
 10
7131.378077667683
 20
5405.232371227376
 30
0.0
 10
7131.557926648523
 20
5405.235554776499
 30
0.0
 10
7131.739008212481
 20
5405.235554776499
 30
0.0
  0
LINE
  5
1AE
330
1F
100
AcDbEntity
  8
0
  6
Continuous
 62
     7
370
    25
100
AcDbLine
 10
7131.7390083615
 20
5405.2355461588
 30
0.0
 11
7131.7390083615
 21
5248.699458765
 31
0.0
  0
SPLINE
  5
1AF
330
1F
100
AcDbEntity
  8
0
  6
Continuous
 62
     7
370
    25
100
AcDbSpline
210
0.0
220
0.0
230
1.0
 70
     8
 71
     3
 72
    24
 73
    20
 74
     0
 42
0.000000001
 43
0.00000001
 40
0.0
 40
0.0
 40
0.0
 40
0.0
 40
0.1249999999999988
 40
0.1249999999999988
 40
0.2499999999999977
 40
0.2499999999999977
 40
0.3749999999999965
 40
0.3749999999999965
 40
0.4999999999999953
 40
0.4999999999999953
 40
0.6249999999999942
 40
0.6249999999999942
 40
0.749999999999993
 40
0.749999999999993
 40
0.8749999999999918
 40
0.8749999999999918
 40
0.9374999999999959
 40
0.9374999999999959
 40
1.0
 40
1.0
 40
1.0
 40
1.0
 10
7131.739008212481
 20
5248.699454592719
 30
0.0
 10
7131.386024518012
 20
5248.699454592719
 30
0.0
 10
7131.040413872828
 20
5248.662499251494
 30
0.0
 10
7130.363099546564
 20
5248.518865519321
 30
0.0
 10
7130.029033315536
 20
5248.410285256447
 30
0.0
 10
7129.406168633646
 20
5248.134970254953
 30
0.0
 10
7129.112259182027
 20
5247.967121659107
 30
0.0
 10
7128.565118084956
 20
5247.577497155266
 30
0.0
 10
7128.318291459542
 20
5247.360648899979
 30
0.0
 10
7127.873079400862
 20
5246.886967931176
 30
0.0
 10
7127.674143139549
 20
5246.628227117953
 30
0.0
 10
7127.336286797383
 20
5246.090454531392
 30
0.0
 10
7127.195247708056
 20
5245.809612375504
 30
0.0
 10
7126.967020320808
 20
5245.22479289996
 30
0.0
 10
7126.881365505054
 20
5244.923557373756
 30
0.0
 10
7126.796153560756
 20
5244.468849137023
 30
0.0
 10
7126.774809712236
 20
5244.316305603602
 30
0.0
 10
7126.746234772374
 20
5244.009269529764
 30
0.0
 10
7126.739008212481
 20
5243.853019933965
 30
0.0
 10
7126.739008212481
 20
5243.699454592719
 30
0.0
  0
LINE
  5
1B0
330
1F
100
AcDbEntity
  8
0
  6
Continuous
 62
     7
370
    25
100
AcDbLine
 10
7131.7390083615
 20
5408.6994402876
 30
0.0
 11
7131.7390083615
 21
5405.2355461588
 31
0.0
  0
SPLINE
  5
1B1
330
1F
100
AcDbEntity
  8
0
  6
Continuous
 62
     7
370
    25
100
AcDbSpline
210
0.0
220
0.0
230
1.0
 70
    24
 71
     3
 72
    12
 73
     8
 74
     0
 42
0.000000001
 43
0.00000001
 40
0.0
 40
0.0
 40
0.0
 40
0.0
 40
0.1086267946817693
 40
0.3216259317705484
 40
0.5447089791990405
 40
0.7724260165316228
 40
1.0
 40
1.0
 40
1.0
 40
1.0
 10
7131.739008361493
 20
5408.699440287604
 30
0.0
 10
7131.158978783252
 20
5408.699440287604
 30
0.0
 10
7129.441607354752
 20
5408.699440287604
 30
0.0
 10
7126.656916404952
 20
5408.699440287604
 30
0.0
 10
7123.951335923527
 20
5408.699440287604
 30
0.0
 10
7122.095252726676
 20
5408.699440287604
 30
0.0
 10
7121.857731755621
 20
5408.699440287604
 30
0.0
 10
7121.73900858501
 20
5408.699440287604
 30
0.0
  0
LINE
  5
1B2
330
1F
100
AcDbEntity
  8
0
  6
Continuous
 62
     7
370
    25
100
AcDbLine
 10
7131.7390083615
 20
5248.699458765
 30
0.0
 11
7131.7390083615
 21
5088.6994548907
 31
0.0
  0
ARC
  5
1B3
330
1F
100
AcDbEntity
  8
0
  6
Continuous
 62
     7
370
    25
100
AcDbCircle
 10
6400.7795162125
 20
5090.1383536631
 30
0.0
 40
747.9594920000028
100
AcDbArc
 50
359.5532359132
 51
12.2390884428
  0
SPLINE
  5
1B4
330
1F
100
AcDbEntity
  8
0
  6
Continuous
 62
     7
370
    25
100
AcDbSpline
210
0.0
220
0.0
230
1.0
 70
     8
 71
     3
 72
    11
 73
     7
 74
     0
 42
0.000000001
 43
0.00000001
 40
0.0
 40
0.0
 40
0.0
 40
0.0
 40
0.001953273774883
 40
0.4075569802449589
 40
0.7406860149700055
 40
1.0
 40
1.0
 40
1.0
 40
1.0
 10
7145.093674892579
 20
5405.748891161933
 30
0.0
 10
7145.092280234623
 20
5405.751981144756
 30
0.0
 10
7144.801280277495
 20
5406.396716196416
 30
0.0
 10
7144.015084572931
 20
5407.45560102533
 30
0.0
 10
7142.392515752737
 20
5408.499184851881
 30
0.0
 10
7141.099113895168
 20
5408.638473327815
 30
0.0
 10
7140.532988244687
 20
5408.699440287604
 30
0.0
  0
ARC
  5
1B5
330
1F
100
AcDbEntity
  8
0
  6
Continuous
 62
     7
370
    25
100
AcDbCircle
 10
6961.9106700287
 20
5323.4323633383
 30
0.0
 40
200.8283381837595
100
AcDbArc
 50
330.4395109405
 51
24.1976085959
  0
LINE
  5
1B6
330
1F
100
AcDbEntity
  8
0
  6
Continuous
 62
     7
370
    25
100
AcDbLine
 10
7138.200945342
 20
5408.6994402876
 30
0.0
 11
7140.5329882447
 21
5408.6994402876
 31
0.0
  0
LINE
  5
1B7
330
1F
100
AcDbEntity
  8
0
  6
Continuous
 62
     7
370
    25
100
AcDbLine
 10
7131.7390083615
 20
5408.6994402876
 30
0.0
 11
7138.200945342
 21
5408.6994402876
 31
0.0
  0
SPLINE
  5
1B8
330
1F
100
AcDbEntity
  8
0
  6
Continuous
 62
     7
370
    25
100
AcDbSpline
210
0.0
220
0.0
230
1.0
 70
     8
 71
     3
 72
    22
 73
    18
 74
     0
 42
0.000000001
 43
0.00000001
 40
0.0
 40
0.0
 40
0.0
 40
0.0
 40
0.2500000000000027
 40
0.2500000000000027
 40
0.5000000000000053
 40
0.5000000000000053
 40
0.6250000000000049
 40
0.6250000000000049
 40
0.7500000000000044
 40
0.7500000000000044
 40
0.875000000000004
 40
0.875000000000004
 40
0.9375000000000037
 40
0.9375000000000037
 40
0.9687500000000019
 40
0.9687500000000019
 40
1.0
 40
1.0
 40
1.0
 40
1.0
 10
7145.925545342875
 20
5231.216147505088
 30
0.0
 10
7146.403756866293
 20
5233.124662901442
 30
0.0
 10
7146.862920195024
 20
5235.031231765859
 30
0.0
 10
7147.745206120023
 20
5238.841494147552
 30
0.0
 10
7148.168327322512
 20
5240.745226016145
 30
0.0
 10
7148.776857512185
 20
5243.59726143248
 30
0.0
 10
7148.975336648096
 20
5244.547326032659
 30
0.0
 10
7149.363595801059
 20
5246.445407193552
 30
0.0
 10
7149.553598476825
 20
5247.394617015455
 30
0.0
 10
7149.922522380026
 20
5249.277547593841
 30
0.0
 10
7150.101728670811
 20
5250.212712705158
 30
0.0
 10
7150.360950860279
 20
5251.594637477857
 30
0.0
 10
7150.445578819704
 20
5252.050856938516
 30
0.0
 10
7150.56829153189
 20
5252.719358896676
 30
0.0
 10
7150.608551703994
 20
5252.93988319091
 30
0.0
 10
7150.687018490827
 20
5253.371895016234
 30
0.0
 10
7150.72511597903
 20
5253.582786772313
 30
0.0
 10
7150.761389473221
 20
5253.784535733627
 30
0.0
  0
LWPOLYLINE
  5
1B9
330
1F
100
AcDbEntity
  8
0
  6
Continuous
 62
     7
370
    25
100
AcDbPolyline
 90
        9
 70
   128
 43
0.0
 10
7145.9255471174
 20
5231.2161498537
 10
7145.0534715597
 20
5231.6531711092
 10
7144.2149087135
 20
5232.073398756
 10
7143.4420860652
 20
5232.4606948366
 10
7142.7647016291
 20
5232.8001581898
 10
7142.2087877337
 20
5233.0787502995
 10
7141.7957051937
 20
5233.2857572308
 10
7141.5413311962
 20
5233.4132217636
 10
7141.4554409031
 20
5233.4562712183
  0
ARC
  5
1BA
330
1F
100
AcDbEntity
  8
0
  6
Continuous
 62
     7
370
    25
100
AcDbCircle
 10
7153.9739678999
 20
5254.3871941868
 30
0.0
 40
3.268614667654917
100
AcDbArc
 50
160.5343577137
 51
190.6247622559
  0
LINE
  5
1BB
330
1F
100
AcDbEntity
  8
0
  6
Continuous
 62
     7
370
    25
100
AcDbLine
 10
7150.7613911573
 20
5253.7845396271
 30
0.0
 11
7150.7613911573
 21
5083.0788486471
 31
0.0
  0
LINE
  5
1BC
330
1F
100
AcDbEntity
  8
0
  6
Continuous
 62
     8
370
    25
100
AcDbLine
 10
7128.1675800029
 20
5168.0991672745
 30
0.0
 11
7128.1675800029
 21
5137.2997485867
 31
0.0
  0
LINE
  5
1BD
330
1F
100
AcDbEntity
  8
0
  6
Continuous
 62
     8
370
    25
100
AcDbLine
 10
7128.1675800029
 20
5378.099160718
 30
0.0
 11
7128.1675800029
 21
5347.2997420302
 31
0.0
  0
ARC
  5
1BE
330
1F
100
AcDbEntity
  8
0
  6
Continuous
 62
     8
370
    25
100
AcDbCircle
 10
6961.9106700287
 20
5323.4323633383
 30
0.0
 40
195.8283381837591
100
AcDbArc
 50
332.2030154406
 51
25.8118649141
  0
ARC
  5
1BF
330
1F
100
AcDbEntity
  8
0
  6
Continuous
 62
     8
370
    25
100
AcDbCircle
 10
6961.9106700287
 20
5323.4323633383
 30
0.0
 40
205.828338183759
100
AcDbArc
 50
328.7858404021
 51
333.3829674654
  0
LINE
  5
1C0
330
1F
100
AcDbEntity
  8
0
  6
Continuous
 62
     8
370
    25
100
AcDbLine
 10
7145.9255471174
 20
5154.9519025555
 30
0.0
 11
7145.9255471174
 21
5231.2161498537
 31
0.0
  0
SPLINE
  5
1C1
330
1F
100
AcDbEntity
  8
0
  6
Continuous
 62
     8
370
    25
100
AcDbSpline
210
0.0
220
0.0
230
1.0
 70
     8
 71
     3
 72
    16
 73
    12
 74
     0
 42
0.000000001
 43
0.00000001
 40
0.0
 40
0.0
 40
0.0
 40
0.0
 40
0.049968192988674
 40
0.1248785349362924
 40
0.2154256587024927
 40
0.3060064593016631
 40
0.3992004614147846
 40
0.4924214160798132
 40
0.6186005058118208
 40
0.7448176387258207
 40
1.0
 40
1.0
 40
1.0
 40
1.0
 10
7156.729768151436
 20
5274.058865832343
 30
0.0
 10
7156.729695566661
 20
5274.058441832779
 30
0.0
 10
7156.729514165656
 20
5274.057382189812
 30
0.0
 10
7156.628352081124
 20
5273.638014410249
 30
0.0
 10
7156.420783519157
 20
5272.786813755572
 30
0.0
 10
7156.086076695559
 20
5271.447361462739
 30
0.0
 10
7155.646752728583
 20
5269.744542331833
 30
0.0
 10
7155.045473277994
 20
5267.4971780491
 30
0.0
 10
7154.251229691297
 20
5264.678106371388
 30
0.0
 10
7152.905749885527
 20
5260.138251778841
 30
0.0
 10
7151.62098606877
 20
5256.331510226122
 30
0.0
 10
7150.761391157303
 20
5253.78453962709
 30
0.0
  0
ARC
  5
1C2
330
1F
100
AcDbEntity
  8
0
  6
Continuous
 62
     7
370
    25
100
AcDbCircle
 10
6524.0187553361
 20
4572.865090788
 30
0.0
 40
5.0
100
AcDbArc
 50
270.0
 51
0.0
  0
ARC
  5
1C3
330
1F
100
AcDbEntity
  8
0
  6
Continuous
 62
     7
370
    25
100
AcDbCircle
 10
6024.0187553361
 20
4572.865090788
 30
0.0
 40
5.0
100
AcDbArc
 50
180.0
 51
270.0
  0
LINE
  5
1C4
330
1F
100
AcDbEntity
  8
0
  6
Continuous
 62
     7
370
    25
100
AcDbLine
 10
6024.0187553361
 20
4567.8650911456
 30
0.0
 11
6524.0187553361
 21
4567.8650911456
 31
0.0
  0
ARC
  5
1C5
330
1F
100
AcDbEntity
  8
0
  6
Continuous
 62
     7
370
    25
100
AcDbCircle
 10
5894.0187553361
 20
4598.865090788
 30
0.0
 40
5.0
100
AcDbArc
 50
0.0
 51
90.0
  0
ARC
  5
1C6
330
1F
100
AcDbEntity
  8
0
  6
Continuous
 62
     7
370
    25
100
AcDbCircle
 10
6654.0187553361
 20
4598.865090788
 30
0.0
 40
5.0
100
AcDbArc
 50
90.0
 51
180.0
  0
ARC
  5
1C7
330
1F
100
AcDbEntity
  8
0
  6
Continuous
 62
     7
370
    25
100
AcDbCircle
 10
5848.6197758505
 20
4598.865090788
 30
0.0
 40
5.0
100
AcDbArc
 50
45.5846914028
 51
90.0
  0
ARC
  5
1C8
330
1F
100
AcDbEntity
  8
0
  6
Continuous
 62
     7
370
    25
100
AcDbCircle
 10
5886.4177348217
 20
4598.865090788
 30
0.0
 40
5.0
100
AcDbArc
 50
90.0
 51
134.4153085972
  0
ARC
  5
1C9
330
1F
100
AcDbEntity
  8
0
  6
Continuous
 62
     7
370
    25
100
AcDbCircle
 10
6661.6197758505
 20
4598.865090788
 30
0.0
 40
5.0
100
AcDbArc
 50
45.5846914028
 51
90.0
  0
ARC
  5
1CA
330
1F
100
AcDbEntity
  8
0
  6
Continuous
 62
     7
370
    25
100
AcDbCircle
 10
6699.4177348217
 20
4598.865090788
 30
0.0
 40
5.0
100
AcDbArc
 50
90.0
 51
134.4153085972
  0
ARC
  5
1CB
330
1F
100
AcDbEntity
  8
0
  6
Continuous
 62
     7
370
    25
100
AcDbCircle
 10
5881.5187553361
 20
4603.865090788
 30
0.0
 40
2.000000000000675
100
AcDbArc
 50
270.0
 51
314.4153085972
  0
ARC
  5
1CC
330
1F
100
AcDbEntity
  8
0
  6
Continuous
 62
     7
370
    25
100
AcDbCircle
 10
5853.5187553361
 20
4603.865090788
 30
0.0
 40
2.000000000000039
100
AcDbArc
 50
225.5846914028
 51
270.0
  0
ARC
  5
1CD
330
1F
100
AcDbEntity
  8
0
  6
Continuous
 62
     7
370
    25
100
AcDbCircle
 10
6694.5187553361
 20
4603.865090788
 30
0.0
 40
2.000000000000039
100
AcDbArc
 50
270.0
 51
314.4153085972
  0
ARC
  5
1CE
330
1F
100
AcDbEntity
  8
0
  6
Continuous
 62
     7
370
    25
100
AcDbCircle
 10
6666.5187553361
 20
4603.865090788
 30
0.0
 40
2.000000000000039
100
AcDbArc
 50
225.5846914028
 51
270.0
  0
LINE
  5
1CF
330
1F
100
AcDbEntity
  8
0
  6
Continuous
 62
     7
370
    25
100
AcDbLine
 10
6543.0187491372
 20
4581.8650897151
 30
0.0
 11
6599.0187434152
 21
4581.8650897151
 31
0.0
  0
LINE
  5
1D0
330
1F
100
AcDbEntity
  8
0
  6
Continuous
 62
     7
370
    25
100
AcDbLine
 10
5949.018767257
 20
4581.8650897151
 30
0.0
 11
6005.018761535
 21
4581.8650897151
 31
0.0
  0
LINE
  5
1D1
330
1F
100
AcDbEntity
  8
0
  6
Continuous
 62
     7
370
    25
100
AcDbLine
 10
5893.0187431768
 20
4563.86509049
 30
0.0
 11
6655.0187674954
 21
4563.86509049
 31
0.0
  0
LINE
  5
1D2
330
1F
100
AcDbEntity
  8
0
  6
Continuous
 62
     7
370
    25
100
AcDbLine
 10
6709.0187577203
 20
4628.8650908998
 30
0.0
 11
5844.0187481835
 21
4628.8650908998
 31
0.0
  0
LINE
  5
1D3
330
1F
100
AcDbEntity
  8
0
  6
Continuous
 62
     7
370
    25
100
AcDbLine
 10
5844.0187481835
 20
4628.8650908998
 30
0.0
 11
5844.0187481835
 21
4633.865090788
 31
0.0
  0
LINE
  5
1D4
330
1F
100
AcDbEntity
  8
0
  6
Continuous
 62
     7
370
    25
100
AcDbLine
 10
5844.0187481835
 20
4633.865090788
 30
0.0
 11
6704.0187624887
 21
4633.865090788
 31
0.0
  0
ARC
  5
1D5
330
1F
100
AcDbEntity
  8
0
  6
Continuous
 62
     7
370
    25
100
AcDbCircle
 10
6704.0187553361
 20
4628.865090788
 30
0.0
 40
5.0
100
AcDbArc
 50
0.0
 51
90.0
  0
LINE
  5
1D6
330
1F
100
AcDbEntity
  8
0
  6
Continuous
 62
     7
370
    25
100
AcDbLine
 10
5844.0187481835
 20
4628.8650908998
 30
0.0
 11
5839.0187529519
 21
4628.8650908998
 31
0.0
  0
ARC
  5
1D7
330
1F
100
AcDbEntity
  8
0
  6
Continuous
 62
     7
370
    25
100
AcDbCircle
 10
5844.0187553361
 20
4628.865090788
 30
0.0
 40
5.0
100
AcDbArc
 50
90.0
 51
180.0
  0
LINE
  5
1D8
330
1F
100
AcDbEntity
  8
0
  6
Continuous
 62
     7
370
    25
100
AcDbLine
 10
6019.0187601045
 20
4598.865090639
 30
0.0
 11
5912.6203564599
 21
4598.865090639
 31
0.0
  0
SPLINE
  5
1D9
330
1F
100
AcDbEntity
  8
0
  6
Continuous
 62
     7
370
    25
100
AcDbSpline
210
0.0
220
0.0
230
1.0
 70
     8
 71
     3
 72
    12
 73
     8
 74
     0
 42
0.000000001
 43
0.00000001
 40
0.0
 40
0.0
 40
0.0
 40
0.0
 40
0.1086267946817693
 40
0.3216259317705484
 40
0.5447089791990405
 40
0.7724260165316228
 40
1.0
 40
1.0
 40
1.0
 40
1.0
 10
5912.62035645991
 20
4598.865090638983
 30
0.0
 10
5912.588360260811
 20
4599.445120217223
 30
0.0
 10
5912.493624819354
 20
4601.162491645724
 30
0.0
 10
5911.401251515207
 20
4603.947182595522
 30
0.0
 10
5909.036354111635
 20
4606.652763076949
 30
0.0
 10
5905.80132303186
 20
4608.508846273799
 30
0.0
 10
5903.360968391585
 20
4608.746367244854
 30
0.0
 10
5902.141174454981
 20
4608.865090415466
 30
0.0
  0
LINE
  5
1DA
330
1F
100
AcDbEntity
  8
0
  6
Continuous
 62
     7
370
    25
100
AcDbLine
 10
5844.0187481835
 20
4608.8650904155
 30
0.0
 11
5902.141174455
 21
4608.8650904155
 31
0.0
  0
LINE
  5
1DB
330
1F
100
AcDbEntity
  8
0
  6
Continuous
 62
     7
370
    25
100
AcDbLine
 10
5844.0187481835
 20
4628.8650908998
 30
0.0
 11
5844.0187481835
 21
4608.8650904155
 31
0.0
  0
LINE
  5
1DC
330
1F
100
AcDbEntity
  8
0
  6
Continuous
 62
     7
370
    25
100
AcDbLine
 10
6645.8963362172
 20
4608.8650904155
 30
0.0
 11
6709.0187577203
 21
4608.8650904155
 31
0.0
  0
SPLINE
  5
1DD
330
1F
100
AcDbEntity
  8
0
  6
Continuous
 62
     7
370
    25
100
AcDbSpline
210
0.0
220
0.0
230
1.0
 70
     8
 71
     3
 72
    12
 73
     8
 74
     0
 42
0.000000001
 43
0.00000001
 40
0.0
 40
0.0
 40
0.0
 40
0.0
 40
0.1732237858201983
 40
0.3891319678345218
 40
0.5956124303896493
 40
0.7977278100033823
 40
1.0
 40
1.0
 40
1.0
 40
1.0
 10
6645.896336217219
 20
4608.865090415466
 30
0.0
 10
6644.969653048599
 20
4608.795810303091
 30
0.0
 10
6642.887940983152
 20
4608.640178636618
 30
0.0
 10
6639.91939509839
 20
4607.285713909255
 30
0.0
 10
6637.423992403043
 20
4605.022628703342
 30
0.0
 10
6635.742731361835
 20
4602.118344619413
 30
0.0
 10
6635.525707980705
 20
4599.949788934554
 30
0.0
 10
6635.41715421229
 20
4598.865090638983
 30
0.0
  0
LINE
  5
1DE
330
1F
100
AcDbEntity
  8
0
  6
Continuous
 62
     7
370
    25
100
AcDbLine
 10
6635.4171542123
 20
4598.865090639
 30
0.0
 11
6529.0187505677
 21
4598.865090639
 31
0.0
  0
LINE
  5
1DF
330
1F
100
AcDbEntity
  8
0
  6
Continuous
 62
     7
370
    25
100
AcDbLine
 10
6529.0187505677
 20
4598.865090639
 30
0.0
 11
6529.0187505677
 21
4592.4031536585
 31
0.0
  0
LINE
  5
1E0
330
1F
100
AcDbEntity
  8
0
  6
Continuous
 62
     7
370
    25
100
AcDbLine
 10
6528.5554734662
 20
4590.0711107558
 30
0.0
 11
6529.0187505677
 21
4592.4031536585
 31
0.0
  0
LINE
  5
1E1
330
1F
100
AcDbEntity
  8
0
  6
Continuous
 62
     7
370
    25
100
AcDbLine
 10
6019.482037206
 20
4590.0711107558
 30
0.0
 11
6528.5554734662
 21
4590.0711107558
 31
0.0
  0
LINE
  5
1E2
330
1F
100
AcDbEntity
  8
0
  6
Continuous
 62
     7
370
    25
100
AcDbLine
 10
6019.0187601045
 20
4592.4031536585
 30
0.0
 11
6019.482037206
 21
4590.0711107558
 31
0.0
  0
LINE
  5
1E3
330
1F
100
AcDbEntity
  8
0
  6
Continuous
 62
     7
370
    25
100
AcDbLine
 10
6019.0187601045
 20
4598.865090639
 30
0.0
 11
6019.0187601045
 21
4592.4031536585
 31
0.0
  0
LINE
  5
1E4
330
1F
100
AcDbEntity
  8
0
  6
Continuous
 62
     7
370
    25
100
AcDbLine
 10
6709.0187577203
 20
4628.8650908998
 30
0.0
 11
6709.0187577203
 21
4608.8650904155
 31
0.0
  0
LINE
  5
1E5
330
1F
100
AcDbEntity
  8
0
  6
Continuous
 62
     7
370
    25
100
AcDbLine
 10
5844.0187481835
 20
4608.8650904155
 30
0.0
 11
5839.0187529519
 21
4608.8650904155
 31
0.0
  0
LINE
  5
1E6
330
1F
100
AcDbEntity
  8
0
  6
Continuous
 62
     7
370
    25
100
AcDbLine
 10
5839.0187529519
 20
4608.8650904155
 30
0.0
 11
5839.0187529519
 21
4628.8650908998
 31
0.0
  0
LINE
  5
1E7
330
1F
100
AcDbEntity
  8
0
  6
Continuous
 62
     7
370
    25
100
AcDbLine
 10
5902.141174455
 20
4608.8650904155
 30
0.0
 11
5902.141174455
 21
4603.8650914585
 31
0.0
  0
LINE
  5
1E8
330
1F
100
AcDbEntity
  8
0
  6
Continuous
 62
     7
370
    25
100
AcDbLine
 10
5902.141174455
 20
4603.8650914585
 30
0.0
 11
5844.0187481835
 21
4603.8650914585
 31
0.0
  0
LINE
  5
1E9
330
1F
100
AcDbEntity
  8
0
  6
Continuous
 62
     7
370
    25
100
AcDbLine
 10
5844.0187481835
 20
4608.8650904155
 30
0.0
 11
5844.0187481835
 21
4603.8650914585
 31
0.0
  0
LINE
  5
1EA
330
1F
100
AcDbEntity
  8
0
  6
Continuous
 62
     7
370
    25
100
AcDbLine
 10
6704.0187624887
 20
4603.8650914585
 30
0.0
 11
6645.8963362172
 21
4603.8650914585
 31
0.0
  0
LINE
  5
1EB
330
1F
100
AcDbEntity
  8
0
  6
Continuous
 62
     7
370
    25
100
AcDbLine
 10
6645.8963362172
 20
4603.8650914585
 30
0.0
 11
6645.8963362172
 21
4608.8650904155
 31
0.0
  0
ARC
  5
1EC
330
1F
100
AcDbEntity
  8
0
  6
Continuous
 62
     7
370
    25
100
AcDbCircle
 10
6704.0187553361
 20
4608.865090788
 30
0.0
 40
5.0
100
AcDbArc
 50
270.0
 51
0.0
  0
SPLINE
  5
1ED
330
1F
100
AcDbEntity
  8
0
  6
Continuous
 62
     7
370
    25
100
AcDbSpline
210
0.0
220
0.0
230
1.0
 70
     8
 71
     3
 72
    11
 73
     7
 74
     0
 42
0.000000001
 43
0.00000001
 40
0.0
 40
0.0
 40
0.0
 40
0.0
 40
0.001953273774883
 40
0.4075569802449589
 40
0.7406860149700055
 40
1.0
 40
1.0
 40
1.0
 40
1.0
 10
6524.0187553361
 20
4585.510424107897
 30
0.0
 10
6524.022113081202
 20
4585.511818765853
 30
0.0
 10
6524.722717610843
 20
4585.802818722981
 30
0.0
 10
6525.991999487735
 20
4586.589014427544
 30
0.0
 10
6527.599407805194
 20
4588.211583247738
 30
0.0
 10
6528.26440313146
 20
4589.504985105308
 30
0.0
 10
6528.555473466212
 20
4590.071110755789
 30
0.0
  0
LINE
  5
1EE
330
1F
100
AcDbEntity
  8
0
  6
Continuous
 62
     7
370
    25
100
AcDbLine
 10
6529.0187505677
 20
4592.4031536585
 30
0.0
 11
6529.0187505677
 21
4572.8650901025
 31
0.0
  0
ARC
  5
1EF
330
1F
100
AcDbEntity
  8
0
  6
Continuous
 62
     7
370
    25
100
AcDbCircle
 10
5844.0187553361
 20
4608.865090788
 30
0.0
 40
5.0
100
AcDbArc
 50
180.0
 51
270.0
  0
SPLINE
  5
1F0
330
1F
100
AcDbEntity
  8
0
  6
Continuous
 62
     7
370
    25
100
AcDbSpline
210
0.0
220
0.0
230
1.0
 70
     8
 71
     3
 72
    22
 73
    18
 74
     0
 42
0.000000001
 43
0.00000001
 40
0.0
 40
0.0
 40
0.0
 40
0.0
 40
0.125
 40
0.125
 40
0.25
 40
0.25
 40
0.375
 40
0.375
 40
0.5
 40
0.5
 40
0.625
 40
0.625
 40
0.75
 40
0.75
 40
0.875
 40
0.875
 40
1.0
 40
1.0
 40
1.0
 40
1.0
 10
6640.175334303354
 20
4598.865090787995
 30
0.0
 10
6640.175334303354
 20
4599.226972446399
 30
0.0
 10
6640.220187907026
 20
4599.579694076872
 30
0.0
 10
6640.392528586416
 20
4600.268269634122
 30
0.0
 10
6640.522850263688
 20
4600.607709261311
 30
0.0
 10
6640.84939088903
 20
4601.235162774267
 30
0.0
 10
6641.045721685693
 20
4601.52724924639
 30
0.0
 10
6641.499663597438
 20
4602.071395444144
 30
0.0
 10
6641.752504393287
 20
4602.317148348669
 30
0.0
 10
6642.295362277639
 20
4602.754494366756
 30
0.0
 10
6642.589309848998
 20
4602.948850029051
 30
0.0
 10
6643.202921985454
 20
4603.281121971493
 30
0.0
 10
6643.520680660858
 20
4603.418682239449
 30
0.0
 10
6644.17666532337
 20
4603.640606900833
 30
0.0
 10
6644.517073153831
 20
4603.725063590304
 30
0.0
 10
6645.201823676097
 20
4603.836912476275
 30
0.0
 10
6645.547437176099
 20
4603.865090787995
 30
0.0
 10
6645.896343540083
 20
4603.865090787995
 30
0.0
  0
LINE
  5
1F1
330
1F
100
AcDbEntity
  8
0
  6
Continuous
 62
     7
370
    25
100
AcDbLine
 10
6640.1753334001
 20
4598.865090639
 30
0.0
 11
6635.4171542123
 21
4598.865090639
 31
0.0
  0
SPLINE
  5
1F2
330
1F
100
AcDbEntity
  8
0
  6
Continuous
 62
     7
370
    25
100
AcDbSpline
210
0.0
220
0.0
230
1.0
 70
     8
 71
     3
 72
    26
 73
    22
 74
     0
 42
0.000000001
 43
0.00000001
 40
0.0
 40
0.0
 40
0.0
 40
0.0
 40
0.1250000000000019
 40
0.1250000000000019
 40
0.2500000000000038
 40
0.2500000000000038
 40
0.3750000000000057
 40
0.3750000000000057
 40
0.4375000000000047
 40
0.4375000000000047
 40
0.5000000000000037
 40
0.5000000000000037
 40
0.6250000000000031
 40
0.6250000000000031
 40
0.7500000000000026
 40
0.7500000000000026
 40
0.875000000000002
 40
0.875000000000002
 40
0.937500000000001
 40
0.937500000000001
 40
1.0
 40
1.0
 40
1.0
 40
1.0
 10
5902.141167132118
 20
4603.865090787995
 30
0.0
 10
5902.490172263395
 20
4603.865090787995
 30
0.0
 10
5902.834882235157
 20
4603.836898470964
 30
0.0
 10
5903.515994857104
 20
4603.725933606486
 30
0.0
 10
5903.853710674184
 20
4603.642728234273
 30
0.0
 10
5904.51461891992
 20
4603.41971854447
 30
0.0
 10
5904.832430504291
 20
4603.281978049552
 30
0.0
 10
5905.289681265577
 20
4603.034841754844
 30
0.0
 10
5905.438833216935
 20
4602.945665555514
 30
0.0
 10
5905.730235549873
 20
4602.752916411188
 30
0.0
 10
5905.873136562151
 20
4602.648766963656
 30
0.0
 10
5906.283152360646
 20
4602.319030987441
 30
0.0
 10
5906.533364049475
 20
4602.075705717466
 30
0.0
 10
5906.983679055218
 20
4601.538004947507
 30
0.0
 10
5907.185612825348
 20
4601.239195973056
 30
0.0
 10
5907.512733471795
 20
4600.6121853029
 30
0.0
 10
5907.640374439227
 20
4600.28267970881
 30
0.0
 10
5907.772213806873
 20
4599.761826224949
 30
0.0
 10
5907.806030383788
 20
4599.583311516519
 30
0.0
 10
5907.850842148293
 20
4599.226021332793
 30
0.0
 10
5907.862176368846
 20
4599.046172351953
 30
0.0
 10
5907.862176368846
 20
4598.865090787995
 30
0.0
  0
LINE
  5
1F3
330
1F
100
AcDbEntity
  8
0
  6
Continuous
 62
     7
370
    25
100
AcDbLine
 10
5912.6203564599
 20
4598.865090639
 30
0.0
 11
5907.8621772721
 21
4598.865090639
 31
0.0
  0
SPLINE
  5
1F4
330
1F
100
AcDbEntity
  8
0
  6
Continuous
 62
     7
370
    25
100
AcDbSpline
210
0.0
220
0.0
230
1.0
 70
     8
 71
     3
 72
    11
 73
     7
 74
     0
 42
0.000000001
 43
0.00000001
 40
0.0
 40
0.0
 40
0.0
 40
0.0
 40
0.001953273774883
 40
0.4075569802449589
 40
0.7406860149700055
 40
1.0
 40
1.0
 40
1.0
 40
1.0
 10
6024.0187553361
 20
4585.510424107897
 30
0.0
 10
6024.015397590998
 20
4585.511818765853
 30
0.0
 10
6023.314793061358
 20
4585.802818722981
 30
0.0
 10
6022.045511184465
 20
4586.589014427544
 30
0.0
 10
6020.438102867007
 20
4588.211583247738
 30
0.0
 10
6019.77310754074
 20
4589.504985105308
 30
0.0
 10
6019.482037205988
 20
4590.071110755789
 30
0.0
  0
LINE
  5
1F5
330
1F
100
AcDbEntity
  8
0
  6
Continuous
 62
     7
370
    25
100
AcDbLine
 10
6019.0187601045
 20
4572.8650901025
 30
0.0
 11
6019.0187601045
 21
4592.4031536585
 31
0.0
  0
LINE
  5
1F6
330
1F
100
AcDbEntity
  8
0
  6
Continuous
 62
     7
370
    25
100
AcDbLine
 10
6524.0187553361
 20
4585.5104241079
 30
0.0
 11
6024.0187553361
 21
4585.5104241079
 31
0.0
  0
LINE
  5
1F7
330
1F
100
AcDbEntity
  8
0
  6
Continuous
 62
     7
370
    25
100
AcDbLine
 10
5907.8621772721
 20
4598.865090639
 30
0.0
 11
5899.0187553361
 21
4598.865090639
 31
0.0
  0
LINE
  5
1F8
330
1F
100
AcDbEntity
  8
0
  6
Continuous
 62
     7
370
    25
100
AcDbLine
 10
6649.0187553361
 20
4598.865090639
 30
0.0
 11
6640.1753334001
 21
4598.865090639
 31
0.0
  0
LINE
  5
1F9
330
1F
100
AcDbEntity
  8
0
  6
Continuous
 62
     7
370
    25
100
AcDbLine
 10
5881.5187422231
 20
4601.8650892681
 30
0.0
 11
5853.5187450841
 21
4601.8650892681
 31
0.0
  0
LINE
  5
1FA
330
1F
100
AcDbEntity
  8
0
  6
Continuous
 62
     7
370
    25
100
AcDbLine
 10
6694.5187655881
 20
4601.8650892681
 30
0.0
 11
6666.5187684491
 21
4601.8650892681
 31
0.0
  0
LINE
  5
1FB
330
1F
100
AcDbEntity
  8
0
  6
Continuous
 62
     7
370
    25
100
AcDbLine
 10
6599.0187434152
 20
4581.8650897151
 30
0.0
 11
6599.0187434152
 21
4598.865090639
 31
0.0
  0
LINE
  5
1FC
330
1F
100
AcDbEntity
  8
0
  6
Continuous
 62
     7
370
    25
100
AcDbLine
 10
6529.0187505677
 20
4581.8650897151
 30
0.0
 11
6543.0187491372
 21
4581.8650897151
 31
0.0
  0
LINE
  5
1FD
330
1F
100
AcDbEntity
  8
0
  6
Continuous
 62
     7
370
    25
100
AcDbLine
 10
6543.0187491372
 20
4598.865090639
 30
0.0
 11
6543.0187491372
 21
4581.8650897151
 31
0.0
  0
LINE
  5
1FE
330
1F
100
AcDbEntity
  8
0
  6
Continuous
 62
     7
370
    25
100
AcDbLine
 10
5949.018767257
 20
4581.8650897151
 30
0.0
 11
5949.018767257
 21
4598.865090639
 31
0.0
  0
LINE
  5
1FF
330
1F
100
AcDbEntity
  8
0
  6
Continuous
 62
     7
370
    25
100
AcDbLine
 10
6005.018761535
 20
4581.8650897151
 30
0.0
 11
6005.018761535
 21
4598.865090639
 31
0.0
  0
LINE
  5
200
330
1F
100
AcDbEntity
  8
0
  6
Continuous
 62
     7
370
    25
100
AcDbLine
 10
6019.0187601045
 20
4581.8650897151
 30
0.0
 11
6005.018761535
 21
4581.8650897151
 31
0.0
  0
LINE
  5
201
330
1F
100
AcDbEntity
  8
0
  6
Continuous
 62
     7
370
    25
100
AcDbLine
 10
6010.0187567666
 20
4598.865090639
 30
0.0
 11
6010.0187567666
 21
4587.0064857906
 31
0.0
  0
SPLINE
  5
202
330
1F
100
AcDbEntity
  8
0
  6
Continuous
 62
     7
370
    25
100
AcDbSpline
210
0.0
220
0.0
230
1.0
 70
     8
 71
     3
 72
    26
 73
    22
 74
     0
 42
0.000000001
 43
0.00000001
 40
0.0
 40
0.0
 40
0.0
 40
0.0
 40
0.1249999999999968
 40
0.1249999999999968
 40
0.2499999999999935
 40
0.2499999999999935
 40
0.3124999999999922
 40
0.3124999999999922
 40
0.3749999999999909
 40
0.3749999999999909
 40
0.4999999999999936
 40
0.4999999999999936
 40
0.6249999999999962
 40
0.6249999999999962
 40
0.7499999999999988
 40
0.7499999999999988
 40
0.8750000000000014
 40
0.8750000000000014
 40
0.9375000000000008
 40
0.9375000000000008
 40
1.0
 40
1.0
 40
1.0
 40
1.0
 10
6010.0187553361
 20
4587.006485444864
 30
0.0
 10
6010.0187553361
 20
4586.566154665374
 30
0.0
 10
6009.964439435026
 20
4586.157015327272
 30
0.0
 10
6009.780921515317
 20
4585.394880246524
 30
0.0
 10
6009.65128188924
 20
4585.041951442548
 30
0.0
 10
6009.413845393507
 20
4584.552676110585
 30
0.0
 10
6009.327501099465
 20
4584.396514660316
 30
0.0
 10
6009.144275839118
 20
4584.100658792766
 30
0.0
 10
6009.047160033035
 20
4583.96046400975
 30
0.0
 10
6008.741774866216
 20
4583.56180531219
 30
0.0
 10
6008.519575068189
 20
4583.325186620606
 30
0.0
 10
6008.047436162629
 20
4582.905926090026
 30
0.0
 10
6007.797437517157
 20
4582.723310250169
 30
0.0
 10
6007.276198010663
 20
4582.410107782427
 30
0.0
 10
6007.004090622228
 20
4582.279321967187
 30
0.0
 10
6006.450008735877
 20
4582.071586652472
 30
0.0
 10
6006.167611550185
 20
4581.994207314508
 30
0.0
 10
6005.739435045941
 20
4581.916767838608
 30
0.0
 10
6005.595939820695
 20
4581.897406981907
 30
0.0
 10
6005.307935834544
 20
4581.871567162805
 30
0.0
 10
6005.162527364533
 20
4581.865090787995
 30
0.0
 10
6005.0187553361
 20
4581.865090787995
 30
0.0
  0
LINE
  5
203
330
1F
100
AcDbEntity
  8
0
  6
Continuous
 62
     7
370
    25
100
AcDbLine
 10
6538.0187539056
 20
4587.0064857906
 30
0.0
 11
6538.0187539056
 21
4598.865090639
 31
0.0
  0
SPLINE
  5
204
330
1F
100
AcDbEntity
  8
0
  6
Continuous
 62
     7
370
    25
100
AcDbSpline
210
0.0
220
0.0
230
1.0
 70
     8
 71
     3
 72
    26
 73
    22
 74
     0
 42
0.000000001
 43
0.00000001
 40
0.0
 40
0.0
 40
0.0
 40
0.0
 40
0.1249999999999968
 40
0.1249999999999968
 40
0.2499999999999935
 40
0.2499999999999935
 40
0.3124999999999922
 40
0.3124999999999922
 40
0.3749999999999909
 40
0.3749999999999909
 40
0.4999999999999936
 40
0.4999999999999936
 40
0.6249999999999962
 40
0.6249999999999962
 40
0.7499999999999988
 40
0.7499999999999988
 40
0.8750000000000014
 40
0.8750000000000014
 40
0.9375000000000008
 40
0.9375000000000008
 40
1.0
 40
1.0
 40
1.0
 40
1.0
 10
6538.0187553361
 20
4587.006485444864
 30
0.0
 10
6538.0187553361
 20
4586.566154665374
 30
0.0
 10
6538.073071237174
 20
4586.157015327272
 30
0.0
 10
6538.256589156883
 20
4585.394880246524
 30
0.0
 10
6538.386228782961
 20
4585.041951442548
 30
0.0
 10
6538.623665278693
 20
4584.552676110585
 30
0.0
 10
6538.710009572736
 20
4584.396514660316
 30
0.0
 10
6538.893234833083
 20
4584.100658792766
 30
0.0
 10
6538.990350639166
 20
4583.96046400975
 30
0.0
 10
6539.295735805985
 20
4583.56180531219
 30
0.0
 10
6539.517935604012
 20
4583.325186620606
 30
0.0
 10
6539.990074509571
 20
4582.905926090026
 30
0.0
 10
6540.240073155043
 20
4582.723310250169
 30
0.0
 10
6540.761312661537
 20
4582.410107782427
 30
0.0
 10
6541.033420049972
 20
4582.279321967187
 30
0.0
 10
6541.587501936325
 20
4582.071586652472
 30
0.0
 10
6541.869899122015
 20
4581.994207314508
 30
0.0
 10
6542.29807562626
 20
4581.916767838608
 30
0.0
 10
6542.441570851505
 20
4581.897406981907
 30
0.0
 10
6542.729574837656
 20
4581.871567162805
 30
0.0
 10
6542.874983307667
 20
4581.865090787995
 30
0.0
 10
6543.0187553361
 20
4581.865090787995
 30
0.0
  0
LINE
  5
205
330
1F
100
AcDbEntity
  8
0
  6
Continuous
 62
     7
370
    25
100
AcDbLine
 10
5872.0187453225
 20
4215.8650781518
 30
0.0
 11
5844.0187481835
 21
4215.8650781518
 31
0.0
  0
LINE
  5
206
330
1F
100
AcDbEntity
  8
0
  6
Continuous
 62
     7
370
    25
100
AcDbLine
 10
5844.0187481835
 20
4215.8650781518
 30
0.0
 11
5844.0187481835
 21
4220.8651031858
 31
0.0
  0
LINE
  5
207
330
1F
100
AcDbEntity
  8
0
  6
Continuous
 62
     7
370
    25
100
AcDbLine
 10
5844.0187481835
 20
4220.8651031858
 30
0.0
 11
5872.0187453225
 21
4220.8651031858
 31
0.0
  0
LINE
  5
208
330
1F
100
AcDbEntity
  8
0
  6
Continuous
 62
     7
370
    25
100
AcDbLine
 10
5872.0187453225
 20
4215.8650781518
 30
0.0
 11
5872.0187453225
 21
4220.8651031858
 31
0.0
  0
ARC
  5
209
330
1F
100
AcDbEntity
  8
0
  6
Continuous
 62
     7
370
    25
100
AcDbCircle
 10
6704.0187553361
 20
4215.865090788
 30
0.0
 40
5.0
100
AcDbArc
 50
0.0
 51
90.0
  0
LINE
  5
20A
330
1F
100
AcDbEntity
  8
0
  6
Continuous
 62
     7
370
    25
100
AcDbLine
 10
6704.0187624887
 20
4215.8650781518
 30
0.0
 11
6709.0187577203
 21
4215.8650781518
 31
0.0
  0
LINE
  5
20B
330
1F
100
AcDbEntity
  8
0
  6
Continuous
 62
     7
370
    25
100
AcDbLine
 10
6704.0187624887
 20
4220.8651031858
 30
0.0
 11
6704.0187624887
 21
4215.8650781518
 31
0.0
  0
LINE
  5
20C
330
1F
100
AcDbEntity
  8
0
  6
Continuous
 62
     7
370
    25
100
AcDbLine
 10
6676.0187653497
 20
4220.8651031858
 30
0.0
 11
6704.0187624887
 21
4220.8651031858
 31
0.0
  0
LINE
  5
20D
330
1F
100
AcDbEntity
  8
0
  6
Continuous
 62
     7
370
    25
100
AcDbLine
 10
6704.0187624887
 20
4215.8650781518
 30
0.0
 11
6676.0187653497
 21
4215.8650781518
 31
0.0
  0
LINE
  5
20E
330
1F
100
AcDbEntity
  8
0
  6
Continuous
 62
     7
370
    25
100
AcDbLine
 10
6676.0187653497
 20
4220.8651031858
 30
0.0
 11
6676.0187653497
 21
4215.8650781518
 31
0.0
  0
LINE
  5
20F
330
1F
100
AcDbEntity
  8
0
  6
Continuous
 62
     7
370
    25
100
AcDbLine
 10
6671.0187701181
 20
4215.8650781518
 30
0.0
 11
6676.0187653497
 21
4215.8650781518
 31
0.0
  0
ARC
  5
210
330
1F
100
AcDbEntity
  8
0
  6
Continuous
 62
     7
370
    25
100
AcDbCircle
 10
6676.0187553361
 20
4215.865090788
 30
0.0
 40
5.0
100
AcDbArc
 50
90.0
 51
180.0
  0
ARC
  5
211
330
1F
100
AcDbEntity
  8
0
  6
Continuous
 62
     7
370
    25
100
AcDbCircle
 10
5844.0187553361
 20
4215.865090788
 30
0.0
 40
5.0
100
AcDbArc
 50
90.0
 51
180.0
  0
LINE
  5
212
330
1F
100
AcDbEntity
  8
0
  6
Continuous
 62
     7
370
    25
100
AcDbLine
 10
5839.0187529519
 20
4215.8650781518
 30
0.0
 11
5844.0187481835
 21
4215.8650781518
 31
0.0
  0
ARC
  5
213
330
1F
100
AcDbEntity
  8
0
  6
Continuous
 62
     7
370
    25
100
AcDbCircle
 10
5872.0187553361
 20
4215.865090788
 30
0.0
 40
5.0
100
AcDbArc
 50
0.0
 51
90.0
  0
LINE
  5
214
330
1F
100
AcDbEntity
  8
0
  6
Continuous
 62
     7
370
    25
100
AcDbLine
 10
5872.0187453225
 20
4215.8650781518
 30
0.0
 11
5877.0187405541
 21
4215.8650781518
 31
0.0
  0
LINE
  5
215
330
1F
100
AcDbEntity
  8
0
  6
Continuous
 62
     7
370
    25
100
AcDbLine
 10
5859.0187636808
 20
4193.8650931722
 30
0.0
 11
5872.0187453225
 21
4193.8650931722
 31
0.0
  0
ARC
  5
216
330
1F
100
AcDbEntity
  8
0
  6
Continuous
 62
     7
370
    25
100
AcDbCircle
 10
5859.0187553361
 20
4208.865090788
 30
0.0
 40
15.0
100
AcDbArc
 50
180.0
 51
270.0
  0
LINE
  5
217
330
1F
100
AcDbEntity
  8
0
  6
Continuous
 62
     7
370
    25
100
AcDbLine
 10
5844.0187481835
 20
4215.8650781518
 30
0.0
 11
5844.0187481835
 21
4208.8650788671
 31
0.0
  0
LINE
  5
218
330
1F
100
AcDbEntity
  8
0
  6
Continuous
 62
     7
370
    25
100
AcDbLine
 10
5872.0187453225
 20
4193.8650931722
 30
0.0
 11
5872.0187453225
 21
4215.8650781518
 31
0.0
  0
LINE
  5
219
330
1F
100
AcDbEntity
  8
0
  6
Continuous
 62
     7
370
    25
100
AcDbLine
 10
6676.0187653497
 20
4215.8650781518
 30
0.0
 11
6676.0187653497
 21
4193.8650931722
 31
0.0
  0
LINE
  5
21A
330
1F
100
AcDbEntity
  8
0
  6
Continuous
 62
     7
370
    25
100
AcDbLine
 10
6704.0187624887
 20
4208.8650788671
 30
0.0
 11
6704.0187624887
 21
4215.8650781518
 31
0.0
  0
ARC
  5
21B
330
1F
100
AcDbEntity
  8
0
  6
Continuous
 62
     7
370
    25
100
AcDbCircle
 10
6689.0187553361
 20
4208.865090788
 30
0.0
 40
15.0
100
AcDbArc
 50
270.0
 51
0.0
  0
LINE
  5
21C
330
1F
100
AcDbEntity
  8
0
  6
Continuous
 62
     7
370
    25
100
AcDbLine
 10
6676.0187653497
 20
4193.8650931722
 30
0.0
 11
6689.0187469914
 21
4193.8650931722
 31
0.0
  0
LINE
  5
21D
330
1F
100
AcDbEntity
  8
0
  6
Continuous
 62
     7
370
    25
100
AcDbLine
 10
6704.0187624887
 20
4208.8650788671
 30
0.0
 11
6709.0187577203
 21
4208.8650788671
 31
0.0
  0
LINE
  5
21E
330
1F
100
AcDbEntity
  8
0
  6
Continuous
 62
     7
370
    25
100
AcDbLine
 10
6709.0187577203
 20
4215.8650781518
 30
0.0
 11
6709.0187577203
 21
4208.8650788671
 31
0.0
  0
LINE
  5
21F
330
1F
100
AcDbEntity
  8
0
  6
Continuous
 62
     7
370
    25
100
AcDbLine
 10
5839.0187529519
 20
4208.8650788671
 30
0.0
 11
5844.0187481835
 21
4208.8650788671
 31
0.0
  0
LINE
  5
220
330
1F
100
AcDbEntity
  8
0
  6
Continuous
 62
     7
370
    25
100
AcDbLine
 10
5839.0187529519
 20
4208.8650788671
 30
0.0
 11
5839.0187529519
 21
4215.8650781518
 31
0.0
  0
LINE
  5
221
330
1F
100
AcDbEntity
  8
0
  6
Continuous
 62
     7
370
    25
100
AcDbLine
 10
5877.0187405541
 20
4215.8650781518
 30
0.0
 11
5877.0187405541
 21
4188.8650979406
 31
0.0
  0
LWPOLYLINE
  5
222
330
1F
100
AcDbEntity
  8
0
  6
Continuous
 62
     7
370
    25
100
AcDbPolyline
 90
        9
 70
   128
 43
0.0
 10
5877.0187405541
 20
4188.8650979406
 10
5876.9226876691
 20
4188.9611508256
 10
5876.6381648973
 20
4189.2457033998
 10
5876.176109691
 20
4189.7077288037
 10
5875.5542842343
 20
4190.3295542604
 10
5874.7966197923
 20
4191.0872485047
 10
5873.9321736291
 20
4191.9516648656
 10
5872.9942051366
 20
4192.8896333581
 10
5872.0187453225
 20
4193.8650931722
  0
LINE
  5
223
330
1F
100
AcDbEntity
  8
0
  6
Continuous
 62
     7
370
    25
100
AcDbLine
 10
6671.0187701181
 20
4193.8650931722
 30
0.0
 11
6671.0187701181
 21
4215.8650781518
 31
0.0
  0
LINE
  5
224
330
1F
100
AcDbEntity
  8
0
  6
Continuous
 62
     7
370
    25
100
AcDbLine
 10
6671.0187701181
 20
4193.8650931722
 30
0.0
 11
6676.0187653497
 21
4193.8650931722
 31
0.0
  0
ARC
  5
225
330
1F
100
AcDbEntity
  8
0
  6
Continuous
 62
     7
370
    25
100
AcDbCircle
 10
5859.0187553361
 20
4208.865090788
 30
0.0
 40
20.0
100
AcDbArc
 50
180.0
 51
270.0
  0
LINE
  5
226
330
1F
100
AcDbEntity
  8
0
  6
Continuous
 62
     7
370
    25
100
AcDbLine
 10
5859.0187636808
 20
4188.8650979406
 30
0.0
 11
5859.0187636808
 21
4193.8650931722
 31
0.0
  0
ARC
  5
227
330
1F
100
AcDbEntity
  8
0
  6
Continuous
 62
     7
370
    25
100
AcDbCircle
 10
6689.0187553361
 20
4208.865090788
 30
0.0
 40
20.0
100
AcDbArc
 50
270.0
 51
0.0
  0
LINE
  5
228
330
1F
100
AcDbEntity
  8
0
  6
Continuous
 62
     7
370
    25
100
AcDbLine
 10
6689.0187469914
 20
4193.8650931722
 30
0.0
 11
6689.0187469914
 21
4188.8650979406
 31
0.0
  0
LINE
  5
229
330
1F
100
AcDbEntity
  8
0
  6
Continuous
 62
     7
370
    25
100
AcDbLine
 10
5877.0187405541
 20
4188.8650979406
 30
0.0
 11
5859.0187636808
 21
4188.8650979406
 31
0.0
  0
LINE
  5
22A
330
1F
100
AcDbEntity
  8
0
  6
Continuous
 62
     7
370
    25
100
AcDbLine
 10
6676.0187653497
 20
4193.8650931722
 30
0.0
 11
6676.0187653497
 21
4188.8650979406
 31
0.0
  0
ARC
  5
22B
330
1F
100
AcDbEntity
  8
0
  6
Continuous
 62
     7
370
    25
100
AcDbCircle
 10
6676.0187553361
 20
4193.865090788
 30
0.0
 40
5.0
100
AcDbArc
 50
180.0
 51
270.0
  0
LINE
  5
22C
330
1F
100
AcDbEntity
  8
0
  6
Continuous
 62
     7
370
    25
100
AcDbLine
 10
6689.0187469914
 20
4188.8650979406
 30
0.0
 11
6676.0187653497
 21
4188.8650979406
 31
0.0
  0
LINE
  5
22D
330
1F
100
AcDbEntity
  8
0
  6
Continuous
 62
     7
370
    25
100
AcDbLine
 10
5844.0187481835
 20
4598.865090639
 30
0.0
 11
5844.0187481835
 21
4603.8650914585
 31
0.0
  0
LINE
  5
22E
330
1F
100
AcDbEntity
  8
0
  6
Continuous
 62
     7
370
    25
100
AcDbLine
 10
5839.0187529519
 20
4598.865090639
 30
0.0
 11
5844.0187481835
 21
4598.865090639
 31
0.0
  0
LINE
  5
22F
330
1F
100
AcDbEntity
  8
0
  6
Continuous
 62
     7
370
    25
100
AcDbLine
 10
5839.0187529519
 20
4608.8650904155
 30
0.0
 11
5839.0187529519
 21
4598.865090639
 31
0.0
  0
LINE
  5
230
330
1F
100
AcDbEntity
  8
0
  6
Continuous
 62
     7
370
    25
100
AcDbLine
 10
6704.0187624887
 20
4603.8650914585
 30
0.0
 11
6704.0187624887
 21
4598.865090639
 31
0.0
  0
LINE
  5
231
330
1F
100
AcDbEntity
  8
0
  6
Continuous
 62
     7
370
    25
100
AcDbLine
 10
6704.0187624887
 20
4598.865090639
 30
0.0
 11
6709.0187577203
 21
4598.865090639
 31
0.0
  0
LINE
  5
232
330
1F
100
AcDbEntity
  8
0
  6
Continuous
 62
     7
370
    25
100
AcDbLine
 10
6709.0187577203
 20
4598.865090639
 30
0.0
 11
6709.0187577203
 21
4608.8650904155
 31
0.0
  0
LINE
  5
233
330
1F
100
AcDbEntity
  8
0
  6
Continuous
 62
     7
370
    25
100
AcDbLine
 10
5844.0187481835
 20
4598.865090639
 30
0.0
 11
5844.0187481835
 21
4572.4832776493
 31
0.0
  0
SPLINE
  5
234
330
1F
100
AcDbEntity
  8
0
  6
Continuous
 62
     7
370
    25
100
AcDbSpline
210
0.0
220
0.0
230
1.0
 70
     8
 71
     3
 72
    24
 73
    20
 74
     0
 42
0.000000001
 43
0.00000001
 40
0.0
 40
0.0
 40
0.0
 40
0.0
 40
0.1250000000000004
 40
0.1250000000000004
 40
0.2500000000000008
 40
0.2500000000000008
 40
0.3750000000000012
 40
0.3750000000000012
 40
0.5000000000000017
 40
0.5000000000000017
 40
0.6250000000000021
 40
0.6250000000000021
 40
0.7500000000000024
 40
0.7500000000000024
 40
0.8750000000000029
 40
0.8750000000000029
 40
0.9375000000000014
 40
0.9375000000000014
 40
1.0
 40
1.0
 40
1.0
 40
1.0
 10
5844.0187553361
 20
4572.483278871448
 30
0.0
 10
5843.670110715951
 20
4572.483278871448
 30
0.0
 10
5843.328350465318
 20
4572.499668852161
 30
0.0
 10
5842.657896733762
 20
4572.56370115661
 30
0.0
 10
5842.326226285113
 20
4572.612244446545
 30
0.0
 10
5841.70540352685
 20
4572.736604946918
 30
0.0
 10
5841.412967874298
 20
4572.812439291228
 30
0.0
 10
5840.863359262973
 20
4572.991488650582
 30
0.0
 10
5840.614104477725
 20
4573.092205199004
 30
0.0
 10
5840.165580385547
 20
4573.313483245719
 30
0.0
 10
5839.964351192615
 20
4573.435557539265
 30
0.0
 10
5839.621965742602
 20
4573.692279593363
 30
0.0
 10
5839.479428552516
 20
4573.82717828605
 30
0.0
 10
5839.249132212929
 20
4574.110054893158
 30
0.0
 10
5839.162167030882
 20
4574.257938307122
 30
0.0
 10
5839.076188589679
 20
4574.482315561881
 30
0.0
 10
5839.054708321337
 20
4574.557840176668
 30
0.0
 10
5839.025989125224
 20
4574.710379533108
 30
0.0
 10
5839.0187553361
 20
4574.788291694628
 30
0.0
 10
5839.0187553361
 20
4574.865090787995
 30
0.0
  0
LINE
  5
235
330
1F
100
AcDbEntity
  8
0
  6
Continuous
 62
     7
370
    25
100
AcDbLine
 10
5839.0187529519
 20
4574.8650904304
 30
0.0
 11
5839.0187529519
 21
4598.865090639
 31
0.0
  0
SPLINE
  5
236
330
1F
100
AcDbEntity
  8
0
  6
Continuous
 62
     7
370
    25
100
AcDbSpline
210
0.0
220
0.0
230
1.0
 70
     8
 71
     3
 72
    12
 73
     8
 74
     0
 42
0.000000001
 43
0.00000001
 40
0.0
 40
0.0
 40
0.0
 40
0.0
 40
0.2914065519771489
 40
0.5585646230956697
 40
0.7527827784909384
 40
0.9118696819255787
 40
0.9999999999999999
 40
0.9999999999999999
 40
0.9999999999999999
 40
0.9999999999999999
 10
6655.018767495448
 20
4568.848426223385
 30
0.0
 10
6655.110194921825
 20
4569.302276387135
 30
0.0
 10
6655.285441928484
 20
4570.17221099889
 30
0.0
 10
6656.448594273942
 20
4571.348790972611
 30
0.0
 10
6657.824619399252
 20
4572.110497352367
 30
0.0
 10
6659.041788307214
 20
4572.443625698947
 30
0.0
 10
6659.762010980873
 20
4572.472857000297
 30
0.0
 10
6660.018762727076
 20
4572.483277649271
 30
0.0
  0
SPLINE
  5
237
330
1F
100
AcDbEntity
  8
0
  6
Continuous
 62
     7
370
    25
100
AcDbSpline
210
0.0
220
0.0
230
1.0
 70
     8
 71
     3
 72
    12
 73
     8
 74
     0
 42
0.000000001
 43
0.00000001
 40
0.0
 40
0.0
 40
0.0
 40
0.0
 40
0.1606220926547332
 40
0.3205152316982106
 40
0.5398894472433317
 40
0.7629879789548147
 40
1.0
 40
1.0
 40
1.0
 40
1.0
 10
5888.018747945124
 20
4572.483277649271
 30
0.0
 10
5888.488569790289
 20
4572.448660809726
 30
0.0
 10
5889.426081281214
 20
4572.379584232747
 30
0.0
 10
5890.803412450389
 20
4571.833592208223
 30
0.0
 10
5891.973641587047
 20
4571.002886363563
 30
0.0
 10
5892.839877217499
 20
4569.926044798274
 30
0.0
 10
5892.957931227617
 20
4569.214801615531
 30
0.0
 10
5893.018743176753
 20
4568.848426223385
 30
0.0
  0
LINE
  5
238
330
1F
100
AcDbEntity
  8
0
  6
Continuous
 62
     7
370
    25
100
AcDbLine
 10
5888.0187479451
 20
4572.4832776493
 30
0.0
 11
5844.0187481835
 21
4572.4832776493
 31
0.0
  0
LINE
  5
239
330
1F
100
AcDbEntity
  8
0
  6
Continuous
 62
     7
370
    25
100
AcDbLine
 10
6704.0187624887
 20
4572.4832776493
 30
0.0
 11
6704.0187624887
 21
4598.865090639
 31
0.0
  0
LINE
  5
23A
330
1F
100
AcDbEntity
  8
0
  6
Continuous
 62
     7
370
    25
100
AcDbLine
 10
6704.0187624887
 20
4572.4832776493
 30
0.0
 11
6660.0187627271
 21
4572.4832776493
 31
0.0
  0
SPLINE
  5
23B
330
1F
100
AcDbEntity
  8
0
  6
Continuous
 62
     7
370
    25
100
AcDbSpline
210
0.0
220
0.0
230
1.0
 70
     8
 71
     3
 72
    24
 73
    20
 74
     0
 42
0.000000001
 43
0.00000001
 40
0.0
 40
0.0
 40
0.0
 40
0.0
 40
0.1249999999999996
 40
0.1249999999999996
 40
0.2499999999999992
 40
0.2499999999999992
 40
0.3749999999999988
 40
0.3749999999999988
 40
0.4999999999999983
 40
0.4999999999999983
 40
0.6249999999999979
 40
0.6249999999999979
 40
0.7499999999999976
 40
0.7499999999999976
 40
0.8749999999999971
 40
0.8749999999999971
 40
0.9374999999999986
 40
0.9374999999999986
 40
1.0
 40
1.0
 40
1.0
 40
1.0
 10
6704.0187553361
 20
4572.483278871448
 30
0.0
 10
6704.36739995625
 20
4572.483278871448
 30
0.0
 10
6704.709160206882
 20
4572.499668852161
 30
0.0
 10
6705.379613938439
 20
4572.56370115661
 30
0.0
 10
6705.711284387087
 20
4572.612244446545
 30
0.0
 10
6706.33210714535
 20
4572.736604946918
 30
0.0
 10
6706.624542797902
 20
4572.812439291228
 30
0.0
 10
6707.174151409227
 20
4572.991488650582
 30
0.0
 10
6707.423406194475
 20
4573.092205199004
 30
0.0
 10
6707.871930286653
 20
4573.313483245719
 30
0.0
 10
6708.073159479586
 20
4573.435557539265
 30
0.0
 10
6708.415544929599
 20
4573.692279593363
 30
0.0
 10
6708.558082119685
 20
4573.82717828605
 30
0.0
 10
6708.788378459271
 20
4574.110054893158
 30
0.0
 10
6708.875343641318
 20
4574.257938307122
 30
0.0
 10
6708.961322082521
 20
4574.482315561881
 30
0.0
 10
6708.982802350863
 20
4574.557840176668
 30
0.0
 10
6709.011521546978
 20
4574.710379533108
 30
0.0
 10
6709.018755336101
 20
4574.788291694631
 30
0.0
 10
6709.0187553361
 20
4574.865090787995
 30
0.0
  0
LINE
  5
23C
330
1F
100
AcDbEntity
  8
0
  6
Continuous
 62
     7
370
    25
100
AcDbLine
 10
6709.0187577203
 20
4598.865090639
 30
0.0
 11
6709.0187577203
 21
4574.8650904304
 31
0.0
  0
LINE
  5
23D
330
1F
100
AcDbEntity
  8
0
  6
Continuous
 62
     7
370
    25
100
AcDbLine
 10
5839.0187529519
 20
4225.8650984174
 30
0.0
 11
5844.0187481835
 21
4225.8650984174
 31
0.0
  0
LINE
  5
23E
330
1F
100
AcDbEntity
  8
0
  6
Continuous
 62
     7
370
    25
100
AcDbLine
 10
5844.0187481835
 20
4220.8651031858
 30
0.0
 11
5844.0187481835
 21
4225.8650984174
 31
0.0
  0
LINE
  5
23F
330
1F
100
AcDbEntity
  8
0
  6
Continuous
 62
     7
370
    25
100
AcDbLine
 10
5839.0187529519
 20
4225.8650984174
 30
0.0
 11
5839.0187529519
 21
4215.8650781518
 31
0.0
  0
LINE
  5
240
330
1F
100
AcDbEntity
  8
0
  6
Continuous
 62
     7
370
    25
100
AcDbLine
 10
6704.0187624887
 20
4225.8650984174
 30
0.0
 11
6704.0187624887
 21
4220.8651031858
 31
0.0
  0
LINE
  5
241
330
1F
100
AcDbEntity
  8
0
  6
Continuous
 62
     7
370
    25
100
AcDbLine
 10
6704.0187624887
 20
4225.8650984174
 30
0.0
 11
6709.0187577203
 21
4225.8650984174
 31
0.0
  0
LINE
  5
242
330
1F
100
AcDbEntity
  8
0
  6
Continuous
 62
     7
370
    25
100
AcDbLine
 10
6709.0187577203
 20
4215.8650781518
 30
0.0
 11
6709.0187577203
 21
4225.8650984174
 31
0.0
  0
LINE
  5
243
330
1F
100
AcDbEntity
  8
0
  6
Continuous
 62
     7
370
    25
100
AcDbLine
 10
5844.0187481835
 20
4225.8650984174
 30
0.0
 11
5872.0187453225
 21
4225.8650984174
 31
0.0
  0
LINE
  5
244
330
1F
100
AcDbEntity
  8
0
  6
Continuous
 62
     7
370
    25
100
AcDbLine
 10
5872.0187453225
 20
4220.8651031858
 30
0.0
 11
5872.0187453225
 21
4225.8650984174
 31
0.0
  0
ARC
  5
245
330
1F
100
AcDbEntity
  8
0
  6
Continuous
 62
     7
370
    25
100
AcDbCircle
 10
6676.0187553361
 20
4215.865090788
 30
0.0
 40
10.0
100
AcDbArc
 50
90.0
 51
180.0
  0
LINE
  5
246
330
1F
100
AcDbEntity
  8
0
  6
Continuous
 62
     7
370
    25
100
AcDbLine
 10
6676.0187653497
 20
4225.8650984174
 30
0.0
 11
6676.0187653497
 21
4220.8651031858
 31
0.0
  0
LINE
  5
247
330
1F
100
AcDbEntity
  8
0
  6
Continuous
 62
     7
370
    25
100
AcDbLine
 10
6666.0187450841
 20
4215.8650781518
 30
0.0
 11
6671.0187701181
 21
4215.8650781518
 31
0.0
  0
ARC
  5
248
330
1F
100
AcDbEntity
  8
0
  6
Continuous
 62
     7
370
    25
100
AcDbCircle
 10
5872.0187553361
 20
4215.865090788
 30
0.0
 40
10.0
100
AcDbArc
 50
0.0
 51
90.0
  0
LINE
  5
249
330
1F
100
AcDbEntity
  8
0
  6
Continuous
 62
     7
370
    25
100
AcDbLine
 10
5877.0187405541
 20
4215.8650781518
 30
0.0
 11
5882.0187655881
 21
4215.8650781518
 31
0.0
  0
LINE
  5
24A
330
1F
100
AcDbEntity
  8
0
  6
Continuous
 62
     7
370
    25
100
AcDbLine
 10
6676.0187653497
 20
4225.8650984174
 30
0.0
 11
6704.0187624887
 21
4225.8650984174
 31
0.0
  0
LINE
  5
24B
330
1F
100
AcDbEntity
  8
0
  6
Continuous
 62
     7
370
    25
100
AcDbLine
 10
5882.0187655881
 20
4215.8650781518
 30
0.0
 11
5882.0187655881
 21
4210.8650829202
 31
0.0
  0
LINE
  5
24C
330
1F
100
AcDbEntity
  8
0
  6
Continuous
 62
     7
370
    25
100
AcDbLine
 10
5877.0187405541
 20
4210.8650829202
 30
0.0
 11
5882.0187655881
 21
4210.8650829202
 31
0.0
  0
LINE
  5
24D
330
1F
100
AcDbEntity
  8
0
  6
Continuous
 62
     7
370
    25
100
AcDbLine
 10
6666.0187450841
 20
4210.8650829202
 30
0.0
 11
6666.0187450841
 21
4215.8650781518
 31
0.0
  0
LINE
  5
24E
330
1F
100
AcDbEntity
  8
0
  6
Continuous
 62
     7
370
    25
100
AcDbLine
 10
6666.0187450841
 20
4210.8650829202
 30
0.0
 11
6671.0187701181
 21
4210.8650829202
 31
0.0
  0
LINE
  5
24F
330
1F
100
AcDbEntity
  8
0
  6
Continuous
 62
     7
370
    25
100
AcDbLine
 10
6666.0187450841
 20
4210.8650829202
 30
0.0
 11
6666.0187450841
 21
4205.8650876886
 31
0.0
  0
ARC
  5
250
330
1F
100
AcDbEntity
  8
0
  6
Continuous
 62
     7
370
    25
100
AcDbCircle
 10
6666.0187553361
 20
4200.865090788
 30
0.0
 40
5.0
100
AcDbArc
 50
0.0
 51
90.0
  0
LINE
  5
251
330
1F
100
AcDbEntity
  8
0
  6
Continuous
 62
     7
370
    25
100
AcDbLine
 10
5882.0187655881
 20
4205.8650876886
 30
0.0
 11
5882.0187655881
 21
4210.8650829202
 31
0.0
  0
ARC
  5
252
330
1F
100
AcDbEntity
  8
0
  6
Continuous
 62
     7
370
    25
100
AcDbCircle
 10
5882.0187553361
 20
4200.865090788
 30
0.0
 40
5.0
100
AcDbArc
 50
90.0
 51
180.0
  0
LINE
  5
253
330
1F
100
AcDbEntity
  8
0
  6
Continuous
 62
     7
370
    25
100
AcDbLine
 10
5844.0187481835
 20
4572.4832776493
 30
0.0
 11
5844.0187481835
 21
4225.8650984174
 31
0.0
  0
LINE
  5
254
330
1F
100
AcDbEntity
  8
0
  6
Continuous
 62
     7
370
    25
100
AcDbLine
 10
5839.0187529519
 20
4225.8650984174
 30
0.0
 11
5839.0187529519
 21
4574.8650904304
 31
0.0
  0
LINE
  5
255
330
1F
100
AcDbEntity
  8
0
  6
Continuous
 62
     7
370
    25
100
AcDbLine
 10
6704.0187624887
 20
4225.8650984174
 30
0.0
 11
6704.0187624887
 21
4572.4832776493
 31
0.0
  0
LINE
  5
256
330
1F
100
AcDbEntity
  8
0
  6
Continuous
 62
     7
370
    25
100
AcDbLine
 10
6709.0187577203
 20
4574.8650904304
 30
0.0
 11
6709.0187577203
 21
4225.8650984174
 31
0.0
  0
LINE
  5
257
330
1F
100
AcDbEntity
  8
0
  6
Continuous
 62
     7
370
    25
100
AcDbLine
 10
5893.0187431768
 20
4568.8484262234
 30
0.0
 11
5893.0187431768
 21
4283.8650967485
 31
0.0
  0
LINE
  5
258
330
1F
100
AcDbEntity
  8
0
  6
Continuous
 62
     7
370
    25
100
AcDbLine
 10
5893.0187431768
 20
4283.8650967485
 30
0.0
 11
5888.0187479451
 21
4283.8650967485
 31
0.0
  0
LINE
  5
259
330
1F
100
AcDbEntity
  8
0
  6
Continuous
 62
     7
370
    25
100
AcDbLine
 10
5888.0187479451
 20
4283.8650967485
 30
0.0
 11
5888.0187479451
 21
4572.4832776493
 31
0.0
  0
LINE
  5
25A
330
1F
100
AcDbEntity
  8
0
  6
Continuous
 62
     7
370
    25
100
AcDbLine
 10
6655.0187674954
 20
4283.8650967485
 30
0.0
 11
6655.0187674954
 21
4568.8484262234
 31
0.0
  0
LINE
  5
25B
330
1F
100
AcDbEntity
  8
0
  6
Continuous
 62
     7
370
    25
100
AcDbLine
 10
6660.0187627271
 20
4572.4832776493
 30
0.0
 11
6660.0187627271
 21
4283.8650967485
 31
0.0
  0
LINE
  5
25C
330
1F
100
AcDbEntity
  8
0
  6
Continuous
 62
     7
370
    25
100
AcDbLine
 10
6655.0187674954
 20
4283.8650967485
 30
0.0
 11
6660.0187627271
 21
4283.8650967485
 31
0.0
  0
ARC
  5
25D
330
1F
100
AcDbEntity
  8
0
  6
Continuous
 62
     7
370
    25
100
AcDbCircle
 10
5943.0187553361
 20
4283.865090788
 30
0.0
 40
55.0
100
AcDbArc
 50
180.0
 51
270.0
  0
LINE
  5
25E
330
1F
100
AcDbEntity
  8
0
  6
Continuous
 62
     7
370
    25
100
AcDbLine
 10
6212.0187563494
 20
4228.8650895959
 30
0.0
 11
5943.0187550977
 21
4228.8650895959
 31
0.0
  0
LINE
  5
25F
330
1F
100
AcDbEntity
  8
0
  6
Continuous
 62
     7
370
    25
100
AcDbLine
 10
6212.0187563494
 20
4210.8650829202
 30
0.0
 11
6212.0187563494
 21
4228.8650895959
 31
0.0
  0
LINE
  5
260
330
1F
100
AcDbEntity
  8
0
  6
Continuous
 62
     7
370
    25
100
AcDbLine
 10
5882.0187655881
 20
4210.8650829202
 30
0.0
 11
6212.0187563494
 21
4210.8650829202
 31
0.0
  0
LINE
  5
261
330
1F
100
AcDbEntity
  8
0
  6
Continuous
 62
     7
370
    25
100
AcDbLine
 10
6336.0187543228
 20
4210.8650829202
 30
0.0
 11
6666.0187450841
 21
4210.8650829202
 31
0.0
  0
LINE
  5
262
330
1F
100
AcDbEntity
  8
0
  6
Continuous
 62
     7
370
    25
100
AcDbLine
 10
6336.0187543228
 20
4228.8650895959
 30
0.0
 11
6336.0187543228
 21
4210.8650829202
 31
0.0
  0
LINE
  5
263
330
1F
100
AcDbEntity
  8
0
  6
Continuous
 62
     7
370
    25
100
AcDbLine
 10
6605.0187555745
 20
4228.8650895959
 30
0.0
 11
6336.0187543228
 21
4228.8650895959
 31
0.0
  0
ARC
  5
264
330
1F
100
AcDbEntity
  8
0
  6
Continuous
 62
     7
370
    25
100
AcDbCircle
 10
6605.0187553361
 20
4283.865090788
 30
0.0
 40
55.0
100
AcDbArc
 50
270.0
 51
0.0
  0
ARC
  5
265
330
1F
100
AcDbEntity
  8
0
  6
Continuous
 62
     7
370
    25
100
AcDbCircle
 10
5943.0187553361
 20
4283.865090788
 30
0.0
 40
50.0
100
AcDbArc
 50
180.0
 51
270.0
  0
LINE
  5
266
330
1F
100
AcDbEntity
  8
0
  6
Continuous
 62
     7
370
    25
100
AcDbLine
 10
5943.0187550977
 20
4233.8650848275
 30
0.0
 11
5943.0187550977
 21
4228.8650895959
 31
0.0
  0
ARC
  5
267
330
1F
100
AcDbEntity
  8
0
  6
Continuous
 62
     7
370
    25
100
AcDbCircle
 10
6605.0187553361
 20
4283.865090788
 30
0.0
 40
50.0
100
AcDbArc
 50
270.0
 51
0.0
  0
LINE
  5
268
330
1F
100
AcDbEntity
  8
0
  6
Continuous
 62
     7
370
    25
100
AcDbLine
 10
6605.0187555745
 20
4233.8650848275
 30
0.0
 11
6605.0187555745
 21
4228.8650895959
 31
0.0
  0
LINE
  5
269
330
1F
100
AcDbEntity
  8
0
  6
Continuous
 62
     7
370
    25
100
AcDbLine
 10
6329.0187550381
 20
4233.8650848275
 30
0.0
 11
6336.0187543228
 21
4233.8650848275
 31
0.0
  0
LINE
  5
26A
330
1F
100
AcDbEntity
  8
0
  6
Continuous
 62
     7
370
    25
100
AcDbLine
 10
6336.0187543228
 20
4233.8650848275
 30
0.0
 11
6336.0187543228
 21
4228.8650895959
 31
0.0
  0
LINE
  5
26B
330
1F
100
AcDbEntity
  8
0
  6
Continuous
 62
     7
370
    25
100
AcDbLine
 10
6336.0187543228
 20
4228.8650895959
 30
0.0
 11
6324.0187560812
 21
4228.8650895959
 31
0.0
  0
ARC
  5
26C
330
1F
100
AcDbEntity
  8
0
  6
Continuous
 62
     7
370
    25
100
AcDbCircle
 10
6329.0187553361
 20
4228.865090788
 30
0.0
 40
5.0
100
AcDbArc
 50
90.0
 51
180.0
  0
LINE
  5
26D
330
1F
100
AcDbEntity
  8
0
  6
Continuous
 62
     7
370
    25
100
AcDbLine
 10
6212.0187563494
 20
4233.8650848275
 30
0.0
 11
6219.0187556341
 21
4233.8650848275
 31
0.0
  0
ARC
  5
26E
330
1F
100
AcDbEntity
  8
0
  6
Continuous
 62
     7
370
    25
100
AcDbCircle
 10
6219.0187553361
 20
4228.865090788
 30
0.0
 40
5.0
100
AcDbArc
 50
0.0
 51
90.0
  0
LINE
  5
26F
330
1F
100
AcDbEntity
  8
0
  6
Continuous
 62
     7
370
    25
100
AcDbLine
 10
6224.018754591
 20
4228.8650895959
 30
0.0
 11
6212.0187563494
 21
4228.8650895959
 31
0.0
  0
LINE
  5
270
330
1F
100
AcDbEntity
  8
0
  6
Continuous
 62
     7
370
    25
100
AcDbLine
 10
6212.0187563494
 20
4233.8650848275
 30
0.0
 11
6212.0187563494
 21
4228.8650895959
 31
0.0
  0
LINE
  5
271
330
1F
100
AcDbEntity
  8
0
  6
Continuous
 62
     7
370
    25
100
AcDbLine
 10
5943.0187550977
 20
4233.8650848275
 30
0.0
 11
6212.0187563494
 21
4233.8650848275
 31
0.0
  0
LINE
  5
272
330
1F
100
AcDbEntity
  8
0
  6
Continuous
 62
     7
370
    25
100
AcDbLine
 10
6336.0187543228
 20
4233.8650848275
 30
0.0
 11
6605.0187555745
 21
4233.8650848275
 31
0.0
  0
LINE
  5
273
330
1F
100
AcDbEntity
  8
0
  6
Continuous
 62
     7
370
    25
100
AcDbLine
 10
6224.018754591
 20
4228.8650895959
 30
0.0
 11
6224.018754591
 21
4210.8650829202
 31
0.0
  0
LINE
  5
274
330
1F
100
AcDbEntity
  8
0
  6
Continuous
 62
     7
370
    25
100
AcDbLine
 10
6212.0187563494
 20
4210.8650829202
 30
0.0
 11
6224.018754591
 21
4210.8650829202
 31
0.0
  0
LINE
  5
275
330
1F
100
AcDbEntity
  8
0
  6
Continuous
 62
     7
370
    25
100
AcDbLine
 10
6324.0187560812
 20
4210.8650829202
 30
0.0
 11
6336.0187543228
 21
4210.8650829202
 31
0.0
  0
LINE
  5
276
330
1F
100
AcDbEntity
  8
0
  6
Continuous
 62
     7
370
    25
100
AcDbLine
 10
6324.0187560812
 20
4210.8650829202
 30
0.0
 11
6324.0187560812
 21
4228.8650895959
 31
0.0
  0
LINE
  5
277
330
1F
100
AcDbEntity
  8
0
  6
Continuous
 62
     7
370
    25
100
AcDbLine
 10
6336.0187543228
 20
4210.8650829202
 30
0.0
 11
6336.0187543228
 21
4205.8650876886
 31
0.0
  0
LINE
  5
278
330
1F
100
AcDbEntity
  8
0
  6
Continuous
 62
     7
370
    25
100
AcDbLine
 10
6336.0187543228
 20
4205.8650876886
 30
0.0
 11
6329.0187550381
 21
4205.8650876886
 31
0.0
  0
ARC
  5
279
330
1F
100
AcDbEntity
  8
0
  6
Continuous
 62
     7
370
    25
100
AcDbCircle
 10
6329.0187553361
 20
4210.865090788
 30
0.0
 40
5.0
100
AcDbArc
 50
180.0
 51
270.0
  0
LINE
  5
27A
330
1F
100
AcDbEntity
  8
0
  6
Continuous
 62
     7
370
    25
100
AcDbLine
 10
6219.0187556341
 20
4205.8650876886
 30
0.0
 11
6212.0187563494
 21
4205.8650876886
 31
0.0
  0
LINE
  5
27B
330
1F
100
AcDbEntity
  8
0
  6
Continuous
 62
     7
370
    25
100
AcDbLine
 10
6212.0187563494
 20
4205.8650876886
 30
0.0
 11
6212.0187563494
 21
4210.8650829202
 31
0.0
  0
ARC
  5
27C
330
1F
100
AcDbEntity
  8
0
  6
Continuous
 62
     7
370
    25
100
AcDbCircle
 10
6219.0187553361
 20
4210.865090788
 30
0.0
 40
5.0
100
AcDbArc
 50
270.0
 51
0.0
  0
LINE
  5
27D
330
1F
100
AcDbEntity
  8
0
  6
Continuous
 62
     7
370
    25
100
AcDbLine
 10
6212.0187563494
 20
4205.8650876886
 30
0.0
 11
5882.0187655881
 21
4205.8650876886
 31
0.0
  0
LINE
  5
27E
330
1F
100
AcDbEntity
  8
0
  6
Continuous
 62
     7
370
    25
100
AcDbLine
 10
6666.0187450841
 20
4205.8650876886
 30
0.0
 11
6336.0187543228
 21
4205.8650876886
 31
0.0
  0
LINE
  5
27F
330
1F
100
AcDbEntity
  8
0
  6
Continuous
 62
     7
370
    25
100
AcDbLine
 10
6236.018756558
 20
4233.8650848275
 30
0.0
 11
6236.018756558
 21
4228.8650895959
 31
0.0
  0
LINE
  5
280
330
1F
100
AcDbEntity
  8
0
  6
Continuous
 62
     7
370
    25
100
AcDbLine
 10
6236.018756558
 20
4228.8650895959
 30
0.0
 11
6224.018754591
 21
4228.8650895959
 31
0.0
  0
LINE
  5
281
330
1F
100
AcDbEntity
  8
0
  6
Continuous
 62
     7
370
    25
100
AcDbLine
 10
6219.0187556341
 20
4233.8650848275
 30
0.0
 11
6236.018756558
 21
4233.8650848275
 31
0.0
  0
LINE
  5
282
330
1F
100
AcDbEntity
  8
0
  6
Continuous
 62
     7
370
    25
100
AcDbLine
 10
6324.0187560812
 20
4228.8650895959
 30
0.0
 11
6312.0187541142
 21
4228.8650895959
 31
0.0
  0
LINE
  5
283
330
1F
100
AcDbEntity
  8
0
  6
Continuous
 62
     7
370
    25
100
AcDbLine
 10
6312.0187541142
 20
4233.8650848275
 30
0.0
 11
6312.0187541142
 21
4228.8650895959
 31
0.0
  0
LINE
  5
284
330
1F
100
AcDbEntity
  8
0
  6
Continuous
 62
     7
370
    25
100
AcDbLine
 10
6312.0187541142
 20
4233.8650848275
 30
0.0
 11
6329.0187550381
 21
4233.8650848275
 31
0.0
  0
LINE
  5
285
330
1F
100
AcDbEntity
  8
0
  6
Continuous
 62
     7
370
    25
100
AcDbLine
 10
6312.0187541142
 20
4210.8650829202
 30
0.0
 11
6324.0187560812
 21
4210.8650829202
 31
0.0
  0
LINE
  5
286
330
1F
100
AcDbEntity
  8
0
  6
Continuous
 62
     7
370
    25
100
AcDbLine
 10
6312.0187541142
 20
4210.8650829202
 30
0.0
 11
6312.0187541142
 21
4228.8650895959
 31
0.0
  0
LINE
  5
287
330
1F
100
AcDbEntity
  8
0
  6
Continuous
 62
     7
370
    25
100
AcDbLine
 10
6236.018756558
 20
4228.8650895959
 30
0.0
 11
6236.018756558
 21
4210.8650829202
 31
0.0
  0
LINE
  5
288
330
1F
100
AcDbEntity
  8
0
  6
Continuous
 62
     7
370
    25
100
AcDbLine
 10
6224.018754591
 20
4210.8650829202
 30
0.0
 11
6236.018756558
 21
4210.8650829202
 31
0.0
  0
SPLINE
  5
289
330
1F
100
AcDbEntity
  8
0
  6
Continuous
 62
     7
370
    25
100
AcDbSpline
210
0.0
220
0.0
230
1.0
 70
     8
 71
     3
 72
    24
 73
    20
 74
     0
 42
0.000000001
 43
0.00000001
 40
0.0
 40
0.0
 40
0.0
 40
0.0
 40
0.1249999999999996
 40
0.1249999999999996
 40
0.2499999999999992
 40
0.2499999999999992
 40
0.3749999999999988
 40
0.3749999999999988
 40
0.4999999999999984
 40
0.4999999999999984
 40
0.624999999999998
 40
0.624999999999998
 40
0.7499999999999977
 40
0.7499999999999977
 40
0.8749999999999973
 40
0.8749999999999973
 40
0.9374999999999987
 40
0.9374999999999987
 40
1.0
 40
1.0
 40
1.0
 40
1.0
 10
6327.510688720929
 20
4205.865090787995
 30
0.0
 10
6326.823667538518
 20
4205.865090787995
 30
0.0
 10
6326.156706612759
 20
4205.949540254445
 30
0.0
 10
6324.850454096279
 20
4206.215887902828
 30
0.0
 10
6324.211938558766
 20
4206.398248319306
 30
0.0
 10
6322.961653372464
 20
4206.806257964025
 30
0.0
 10
6322.346866952839
 20
4207.032639487202
 30
0.0
 10
6321.117111154576
 20
4207.500964461246
 30
0.0
 10
6320.501923227785
 20
4207.743180626113
 30
0.0
 10
6319.259110178401
 20
4208.22883354954
 30
0.0
 10
6318.631325523239
 20
4208.472525547088
 30
0.0
 10
6317.354644521146
 20
4208.957542579806
 30
0.0
 10
6316.704238152621
 20
4209.199549038859
 30
0.0
 10
6315.387162598287
 20
4209.679512942499
 30
0.0
 10
6314.719463744659
 20
4209.917945528188
 30
0.0
 10
6313.710159090154
 20
4210.27401984621
 30
0.0
 10
6313.37288349125
 20
4210.39231308625
 30
0.0
 10
6312.696831902714
 20
4210.628706533455
 30
0.0
 10
6312.35622062764
 20
4210.747447518655
 30
0.0
 10
6312.0187553361
 20
4210.865090787995
 30
0.0
  0
LINE
  5
28A
330
1F
100
AcDbEntity
  8
0
  6
Continuous
 62
     7
370
    25
100
AcDbLine
 10
6329.0187550381
 20
4205.8650876886
 30
0.0
 11
6327.51069047
 21
4205.8650876886
 31
0.0
  0
SPLINE
  5
28B
330
1F
100
AcDbEntity
  8
0
  6
Continuous
 62
     7
370
    25
100
AcDbSpline
210
0.0
220
0.0
230
1.0
 70
     8
 71
     3
 72
    24
 73
    20
 74
     0
 42
0.000000001
 43
0.00000001
 40
0.0
 40
0.0
 40
0.0
 40
0.0
 40
0.1249999999999996
 40
0.1249999999999996
 40
0.2499999999999992
 40
0.2499999999999992
 40
0.3749999999999988
 40
0.3749999999999988
 40
0.4999999999999984
 40
0.4999999999999984
 40
0.624999999999998
 40
0.624999999999998
 40
0.7499999999999977
 40
0.7499999999999977
 40
0.8749999999999973
 40
0.8749999999999973
 40
0.9374999999999987
 40
0.9374999999999987
 40
1.0
 40
1.0
 40
1.0
 40
1.0
 10
6220.52682195127
 20
4205.865090787995
 30
0.0
 10
6221.213843133683
 20
4205.865090787995
 30
0.0
 10
6221.880804059441
 20
4205.949540254445
 30
0.0
 10
6223.18705657592
 20
4206.215887902828
 30
0.0
 10
6223.825572113434
 20
4206.398248319306
 30
0.0
 10
6225.075857299737
 20
4206.806257964025
 30
0.0
 10
6225.690643719361
 20
4207.032639487202
 30
0.0
 10
6226.920399517624
 20
4207.500964461246
 30
0.0
 10
6227.535587444415
 20
4207.743180626113
 30
0.0
 10
6228.778400493798
 20
4208.22883354954
 30
0.0
 10
6229.406185148961
 20
4208.472525547088
 30
0.0
 10
6230.682866151054
 20
4208.957542579806
 30
0.0
 10
6231.33327251958
 20
4209.199549038859
 30
0.0
 10
6232.650348073913
 20
4209.679512942499
 30
0.0
 10
6233.318046927541
 20
4209.917945528188
 30
0.0
 10
6234.327351582047
 20
4210.27401984621
 30
0.0
 10
6234.66462718095
 20
4210.39231308625
 30
0.0
 10
6235.340678769487
 20
4210.628706533455
 30
0.0
 10
6235.68129004456
 20
4210.747447518655
 30
0.0
 10
6236.0187553361
 20
4210.865090787995
 30
0.0
  0
LINE
  5
28C
330
1F
100
AcDbEntity
  8
0
  6
Continuous
 62
     7
370
    25
100
AcDbLine
 10
6220.5268202022
 20
4205.8650876886
 30
0.0
 11
6219.0187556341
 21
4205.8650876886
 31
0.0
  0
LINE
  5
28D
330
1F
100
AcDbEntity
  8
0
  6
Continuous
 62
     7
370
    25
100
AcDbLine
 10
6220.5268202022
 20
4200.8650924569
 30
0.0
 11
6220.5268202022
 21
4205.8650876886
 31
0.0
  0
SPLINE
  5
28E
330
1F
100
AcDbEntity
  8
0
  6
Continuous
 62
     7
370
    25
100
AcDbSpline
210
0.0
220
0.0
230
1.0
 70
     8
 71
     3
 72
    23
 73
    19
 74
     0
 42
0.000000001
 43
0.00000001
 40
0.0
 40
0.0
 40
0.0
 40
0.0
 40
0.125000000000007
 40
0.125000000000007
 40
0.187500000000011
 40
0.187500000000011
 40
0.2500000000000151
 40
0.2500000000000151
 40
0.500000000000022
 40
0.500000000000022
 40
0.5625000000000216
 40
0.5625000000000216
 40
0.6250000000000214
 40
0.7500000000000143
 40
0.7500000000000143
 40
0.8750000000000072
 40
0.8750000000000072
 40
1.0
 40
1.0
 40
1.0
 40
1.0
 10
6220.52682195127
 20
4200.865090787995
 30
0.0
 10
6221.332454798238
 20
4200.865090787995
 30
0.0
 10
6222.124281124404
 20
4200.94519413434
 30
0.0
 10
6223.293882703049
 20
4201.170582568963
 30
0.0
 10
6223.680703748193
 20
4201.263385335813
 30
0.0
 10
6224.448474297291
 20
4201.483056663792
 30
0.0
 10
6224.831101794149
 20
4201.610639124262
 30
0.0
 10
6226.701826923109
 20
4202.320409093415
 30
0.0
 10
6228.073540392927
 20
4203.114755490264
 30
0.0
 10
6229.677453276749
 20
4204.308570626152
 30
0.0
 10
6229.99215562487
 20
4204.557218992384
 30
0.0
 10
6230.605220074351
 20
4205.067383360633
 30
0.0
 10
6231.502945530491
 20
4205.853860665593
 30
0.0
 10
6232.344544053147
 20
4206.694821311807
 30
0.0
 10
6233.433047236733
 20
4207.848745603067
 30
0.0
 10
6233.96045959665
 20
4208.442053869173
 30
0.0
 10
6234.998171064399
 20
4209.645282517806
 30
0.0
 10
6235.509301363557
 20
4210.256177259876
 30
0.0
 10
6236.0187553361
 20
4210.865090787995
 30
0.0
  0
SPLINE
  5
28F
330
1F
100
AcDbEntity
  8
0
  6
Continuous
 62
     7
370
    25
100
AcDbSpline
210
0.0
220
0.0
230
1.0
 70
     8
 71
     3
 72
    23
 73
    19
 74
     0
 42
0.000000001
 43
0.00000001
 40
0.0
 40
0.0
 40
0.0
 40
0.0
 40
0.125000000000007
 40
0.125000000000007
 40
0.187500000000011
 40
0.187500000000011
 40
0.2500000000000151
 40
0.2500000000000151
 40
0.500000000000022
 40
0.500000000000022
 40
0.5625000000000216
 40
0.5625000000000216
 40
0.6250000000000214
 40
0.7500000000000143
 40
0.7500000000000143
 40
0.8750000000000072
 40
0.8750000000000072
 40
1.0
 40
1.0
 40
1.0
 40
1.0
 10
6327.510688720929
 20
4200.865090787995
 30
0.0
 10
6326.705055873961
 20
4200.865090787995
 30
0.0
 10
6325.913229547797
 20
4200.94519413434
 30
0.0
 10
6324.743627969151
 20
4201.170582568963
 30
0.0
 10
6324.356806924007
 20
4201.263385335813
 30
0.0
 10
6323.589036374909
 20
4201.483056663792
 30
0.0
 10
6323.206408878052
 20
4201.610639124262
 30
0.0
 10
6321.335683749091
 20
4202.320409093415
 30
0.0
 10
6319.963970279273
 20
4203.114755490264
 30
0.0
 10
6318.360057395451
 20
4204.308570626152
 30
0.0
 10
6318.04535504733
 20
4204.557218992384
 30
0.0
 10
6317.43229059785
 20
4205.067383360633
 30
0.0
 10
6316.534565141709
 20
4205.853860665593
 30
0.0
 10
6315.692966619054
 20
4206.694821311807
 30
0.0
 10
6314.604463435468
 20
4207.848745603067
 30
0.0
 10
6314.07705107555
 20
4208.442053869173
 30
0.0
 10
6313.039339607802
 20
4209.645282517806
 30
0.0
 10
6312.528209308643
 20
4210.256177259876
 30
0.0
 10
6312.0187553361
 20
4210.865090787995
 30
0.0
  0
LINE
  5
290
330
1F
100
AcDbEntity
  8
0
  6
Continuous
 62
     7
370
    25
100
AcDbLine
 10
6327.51069047
 20
4205.8650876886
 30
0.0
 11
6327.51069047
 21
4200.8650924569
 31
0.0
  0
LINE
  5
291
330
1F
100
AcDbEntity
  8
0
  6
Continuous
 62
     7
370
    25
100
AcDbLine
 10
6666.0187450841
 20
4205.8650876886
 30
0.0
 11
6666.0187450841
 21
4200.8650924569
 31
0.0
  0
LINE
  5
292
330
1F
100
AcDbEntity
  8
0
  6
Continuous
 62
     7
370
    25
100
AcDbLine
 10
6666.0187450841
 20
4200.8650924569
 30
0.0
 11
6327.51069047
 21
4200.8650924569
 31
0.0
  0
LINE
  5
293
330
1F
100
AcDbEntity
  8
0
  6
Continuous
 62
     7
370
    25
100
AcDbLine
 10
6220.5268202022
 20
4200.8650924569
 30
0.0
 11
5877.0187405541
 21
4200.8650924569
 31
0.0
  0
LINE
  5
294
330
1F
100
AcDbEntity
  8
0
  6
Continuous
 62
     7
370
    25
100
AcDbLine
 10
6666.0187450841
 20
4200.8650924569
 30
0.0
 11
6671.0187701181
 21
4200.8650924569
 31
0.0
  0
LINE
  5
295
330
1F
100
AcDbEntity
  8
0
  6
Continuous
 62
     7
370
    25
100
AcDbLine
 10
6666.0187450841
 20
4193.8650931722
 30
0.0
 11
6666.0187450841
 21
4200.8650924569
 31
0.0
  0
LINE
  5
296
330
1F
100
AcDbEntity
  8
0
  6
Continuous
 62
     7
370
    25
100
AcDbLine
 10
6666.0187450841
 20
4193.8650931722
 30
0.0
 11
6671.0187701181
 21
4193.8650931722
 31
0.0
  0
LINE
  5
297
330
1F
100
AcDbEntity
  8
0
  6
Continuous
 62
     7
370
    25
100
AcDbLine
 10
6666.0187450841
 20
4193.8650931722
 30
0.0
 11
6666.0187450841
 21
4188.8650979406
 31
0.0
  0
LINE
  5
298
330
1F
100
AcDbEntity
  8
0
  6
Continuous
 62
     7
370
    25
100
AcDbLine
 10
6666.0187450841
 20
4188.8650979406
 30
0.0
 11
6676.0187653497
 21
4188.8650979406
 31
0.0
  0
LINE
  5
299
330
1F
100
AcDbEntity
  8
0
  6
Continuous
 62
     7
370
    25
100
AcDbLine
 10
6312.0187541142
 20
4228.8650895959
 30
0.0
 11
6236.018756558
 21
4228.8650895959
 31
0.0
  0
LINE
  5
29A
330
1F
100
AcDbEntity
  8
0
  6
Continuous
 62
     7
370
    25
100
AcDbLine
 10
6236.018756558
 20
4233.8650848275
 30
0.0
 11
6312.0187541142
 21
4233.8650848275
 31
0.0
  0
LINE
  5
29B
330
1F
100
AcDbEntity
  8
0
  6
Continuous
 62
     7
370
    25
100
AcDbLine
 10
5877.0187405541
 20
4193.8650931722
 30
0.0
 11
6666.0187450841
 21
4193.8650931722
 31
0.0
  0
LINE
  5
29C
330
1F
100
AcDbEntity
  8
0
  6
Continuous
 62
     7
370
    25
100
AcDbLine
 10
6666.0187450841
 20
4188.8650979406
 30
0.0
 11
5877.0187405541
 21
4188.8650979406
 31
0.0
  0
LINE
  5
29D
330
1F
100
AcDbEntity
  8
0
  6
Continuous
 62
     7
370
    25
100
AcDbLine
 10
5893.0187431768
 20
4563.86509049
 30
0.0
 11
6655.0187674954
 21
4563.86509049
 31
0.0
  0
LINE
  5
29E
330
1F
100
AcDbEntity
  8
0
  6
Continuous
 62
     8
370
    25
100
AcDbLine
 10
6524.0187553361
 20
4567.8650911456
 30
0.0
 11
6524.0187553361
 21
4585.5104241079
 31
0.0
  0
LINE
  5
29F
330
1F
100
AcDbEntity
  8
0
  6
Continuous
 62
     8
370
    25
100
AcDbLine
 10
6024.0187553361
 20
4585.5104241079
 30
0.0
 11
6024.0187553361
 21
4567.8650911456
 31
0.0
  0
LINE
  5
2A0
330
1F
100
AcDbEntity
  8
0
  6
Continuous
 62
     8
370
    25
100
AcDbLine
 10
5867.5187436536
 20
4602.4365189975
 30
0.0
 11
5852.1190492108
 21
4602.4365189975
 31
0.0
  0
LINE
  5
2A1
330
1F
100
AcDbEntity
  8
0
  6
Continuous
 62
     8
370
    25
100
AcDbLine
 10
5882.9184678987
 20
4602.4365189975
 30
0.0
 11
5867.5187436536
 21
4602.4365189975
 31
0.0
  0
LINE
  5
2A2
330
1F
100
AcDbEntity
  8
0
  6
Continuous
 62
     8
370
    25
100
AcDbLine
 10
6680.5187670186
 20
4602.4365189975
 30
0.0
 11
6665.1190427735
 21
4602.4365189975
 31
0.0
  0
LINE
  5
2A3
330
1F
100
AcDbEntity
  8
0
  6
Continuous
 62
     8
370
    25
100
AcDbLine
 10
6695.9184614614
 20
4602.4365189975
 30
0.0
 11
6680.5187670186
 21
4602.4365189975
 31
0.0
  0
LINE
  5
2A4
330
1F
100
AcDbEntity
  8
0
  6
Continuous
 62
     8
370
    25
100
AcDbLine
 10
6704.0187624887
 20
4598.865090639
 30
0.0
 11
6649.0187553361
 21
4598.865090639
 31
0.0
  0
LINE
  5
2A5
330
1F
100
AcDbEntity
  8
0
  6
Continuous
 62
     8
370
    25
100
AcDbLine
 10
5899.0187553361
 20
4598.865090639
 30
0.0
 11
5844.0187481835
 21
4598.865090639
 31
0.0
  0
ENDSEC
  0
SECTION
  2
OBJECTS
  0
DICTIONARY
  5
C
330
0
100
AcDbDictionary
281
     1
  3
ACAD_GROUP
350
D
  3
ACAD_LAYOUT
350
1A
  3
ACAD_MLINESTYLE
350
17
  3
ACAD_PLOTSETTINGS
350
19
  3
ACAD_PLOTSTYLENAME
350
E
  3
ACAD_SCALELIST
350
47
  0
DICTIONARY
  5
D
102
{ACAD_REACTORS
330
C
102
}
330
C
100
AcDbDictionary
281
     1
  0
DICTIONARY
  5
1A
102
{ACAD_REACTORS
330
C
102
}
330
C
100
AcDbDictionary
281
     1
  3
Layout1
350
1E
  3
Layout2
350
26
  3
Model
350
22
  0
DICTIONARY
  5
17
102
{ACAD_REACTORS
330
C
102
}
330
C
100
AcDbDictionary
281
     1
  3
Standard
350
18
  0
DICTIONARY
  5
19
102
{ACAD_REACTORS
330
C
102
}
330
C
100
AcDbDictionary
281
     1
  0
ACDBDICTIONARYWDFLT
  5
E
102
{ACAD_REACTORS
330
C
102
}
330
C
100
AcDbDictionary
281
     1
  3
Normal
350
F
100
AcDbDictionaryWithDefault
340
F
  0
DICTIONARY
  5
47
102
{ACAD_REACTORS
330
C
102
}
330
C
100
AcDbDictionary
281
     1
  3
A0
350
48
  3
A1
350
49
  3
A2
350
4A
  3
A3
350
4B
  3
A4
350
4C
  3
A5
350
4D
  3
A6
350
4E
  3
A7
350
4F
  3
A8
350
50
  3
A9
350
51
  3
B0
350
52
  3
B1
350
53
  3
B2
350
54
  3
B3
350
55
  3
B4
350
56
  3
B5
350
57
  3
B6
350
58
  3
B7
350
59
  3
B8
350
5A
  3
B9
350
5B
  3
C0
350
5C
  3
C1
350
5D
  3
C2
350
5E
  3
C3
350
5F
  3
C4
350
60
  3
C5
350
61
  3
C6
350
62
  3
C7
350
63
  3
C8
350
64
  3
C9
350
65
  3
D0
350
66
  3
D1
350
67
  3
D2
350
68
  0
LAYOUT
  5
1E
102
{ACAD_REACTORS
330
1A
102
}
330
1A
100
AcDbPlotSettings
  1

  2
none_device
  4

  6

 40
0.0
 41
0.0
 42
0.0
 43
0.0
 44
0.0
 45
0.0
 46
0.0
 47
0.0
 48
0.0
 49
0.0
140
0.0
141
0.0
142
1.0
143
1.0
 70
   688
 72
     1
 73
     0
 74
     5
  7

 75
    16
147
1.0
148
0.0
149
0.0
100
AcDbLayout
  1
Layout1
 70
     1
 71
     1
 10
0.0
 20
0.0
 11
420.0
 21
297.0
 12
0.0
 22
0.0
 32
0.0
 14
1.0000000000E+20
 24
1.0000000000E+20
 34
1.0000000000E+20
 15
-1.0000000000E+20
 25
-1.0000000000E+20
 35
-1.0000000000E+20
146
0.0
 13
0.0
 23
0.0
 33
0.0
 16
1.0
 26
0.0
 36
0.0
 17
0.0
 27
1.0
 37
0.0
 76
     0
330
1B
  0
LAYOUT
  5
26
102
{ACAD_REACTORS
330
1A
102
}
330
1A
100
AcDbPlotSettings
  1

  2
none_device
  4

  6

 40
0.0
 41
0.0
 42
0.0
 43
0.0
 44
0.0
 45
0.0
 46
0.0
 47
0.0
 48
0.0
 49
0.0
140
0.0
141
0.0
142
1.0
143
1.0
 70
   688
 72
     1
 73
     0
 74
     5
  7

 75
    16
147
1.0
148
0.0
149
0.0
100
AcDbLayout
  1
Layout2
 70
     1
 71
     2
 10
0.0
 20
0.0
 11
0.0
 21
0.0
 12
0.0
 22
0.0
 32
0.0
 14
0.0
 24
0.0
 34
0.0
 15
0.0
 25
0.0
 35
0.0
146
0.0
 13
0.0
 23
0.0
 33
0.0
 16
1.0
 26
0.0
 36
0.0
 17
0.0
 27
1.0
 37
0.0
 76
     0
330
23
  0
LAYOUT
  5
22
102
{ACAD_REACTORS
330
1A
102
}
330
1A
100
AcDbPlotSettings
  1

  2
none_device
  4
Letter_(8.50_x_11.00_Inches)
  6

 40
6.35
 41
6.35
 42
6.35000508
 43
6.35000508
 44
215.9
 45
279.4
 46
0.0
 47
0.0
 48
0.0
 49
0.0
140
0.0
141
0.0
142
1.0
143
1.0
 70
  1712
 72
     1
 73
     0
 74
     0
  7

 75
     0
147
1.0
148
0.0
149
0.0
100
AcDbLayout
  1
Model
 70
     1
 71
     0
 10
0.0
 20
0.0
 11
20000.0
 21
10000.0
 12
0.0
 22
0.0
 32
0.0
 14
0.0
 24
0.0
 34
0.0
 15
20000.0
 25
10000.0
 35
0.0
146
0.0
 13
0.0
 23
0.0
 33
0.0
 16
1.0
 26
0.0
 36
0.0
 17
0.0
 27
1.0
 37
0.0
 76
     0
330
1F
331
29
  0
MLINESTYLE
  5
18
102
{ACAD_REACTORS
330
17
102
}
330
17
100
AcDbMlineStyle
  2
Standard
 70
     0
  3

 62
   256
 51
90.0
 52
90.0
 71
     2
 49
0.5
 62
   256
  6
BYLAYER
 49
-0.5
 62
   256
  6
BYLAYER
  0
ACDBPLACEHOLDER
  5
F
102
{ACAD_REACTORS
330
E
102
}
330
E
  0
SCALE
  5
48
102
{ACAD_REACTORS
330
47
102
}
330
47
100
AcDbScale
 70
     0
300
1:1
140
1.0
141
1.0
290
     1
  0
SCALE
  5
49
102
{ACAD_REACTORS
330
47
102
}
330
47
100
AcDbScale
 70
     0
300
1:2
140
1.0
141
2.0
290
     0
  0
SCALE
  5
4A
102
{ACAD_REACTORS
330
47
102
}
330
47
100
AcDbScale
 70
     0
300
1:4
140
1.0
141
4.0
290
     0
  0
SCALE
  5
4B
102
{ACAD_REACTORS
330
47
102
}
330
47
100
AcDbScale
 70
     0
300
1:5
140
1.0
141
5.0
290
     0
  0
SCALE
  5
4C
102
{ACAD_REACTORS
330
47
102
}
330
47
100
AcDbScale
 70
     0
300
1:8
140
1.0
141
8.0
290
     0
  0
SCALE
  5
4D
102
{ACAD_REACTORS
330
47
102
}
330
47
100
AcDbScale
 70
     0
300
1:10
140
1.0
141
10.0
290
     0
  0
SCALE
  5
4E
102
{ACAD_REACTORS
330
47
102
}
330
47
100
AcDbScale
 70
     0
300
1:16
140
1.0
141
16.0
290
     0
  0
SCALE
  5
4F
102
{ACAD_REACTORS
330
47
102
}
330
47
100
AcDbScale
 70
     0
300
1:20
140
1.0
141
20.0
290
     0
  0
SCALE
  5
50
102
{ACAD_REACTORS
330
47
102
}
330
47
100
AcDbScale
 70
     0
300
1:30
140
1.0
141
30.0
290
     0
  0
SCALE
  5
51
102
{ACAD_REACTORS
330
47
102
}
330
47
100
AcDbScale
 70
     0
300
1:40
140
1.0
141
40.0
290
     0
  0
SCALE
  5
52
102
{ACAD_REACTORS
330
47
102
}
330
47
100
AcDbScale
 70
     0
300
1:50
140
1.0
141
50.0
290
     0
  0
SCALE
  5
53
102
{ACAD_REACTORS
330
47
102
}
330
47
100
AcDbScale
 70
     0
300
1:100
140
1.0
141
100.0
290
     0
  0
SCALE
  5
54
102
{ACAD_REACTORS
330
47
102
}
330
47
100
AcDbScale
 70
     0
300
2:1
140
2.0
141
1.0
290
     0
  0
SCALE
  5
55
102
{ACAD_REACTORS
330
47
102
}
330
47
100
AcDbScale
 70
     0
300
4:1
140
4.0
141
1.0
290
     0
  0
SCALE
  5
56
102
{ACAD_REACTORS
330
47
102
}
330
47
100
AcDbScale
 70
     0
300
8:1
140
8.0
141
1.0
290
     0
  0
SCALE
  5
57
102
{ACAD_REACTORS
330
47
102
}
330
47
100
AcDbScale
 70
     0
300
10:1
140
10.0
141
1.0
290
     0
  0
SCALE
  5
58
102
{ACAD_REACTORS
330
47
102
}
330
47
100
AcDbScale
 70
     0
300
100:1
140
100.0
141
1.0
290
     0
  0
SCALE
  5
59
102
{ACAD_REACTORS
330
47
102
}
330
47
100
AcDbScale
 70
     0
300
1/128" = 1'-0"
140
0.0078125
141
12.0
290
     0
  0
SCALE
  5
5A
102
{ACAD_REACTORS
330
47
102
}
330
47
100
AcDbScale
 70
     0
300
1/64" = 1'-0"
140
0.015625
141
12.0
290
     0
  0
SCALE
  5
5B
102
{ACAD_REACTORS
330
47
102
}
330
47
100
AcDbScale
 70
     0
300
1/32" = 1'-0"
140
0.03125
141
12.0
290
     0
  0
SCALE
  5
5C
102
{ACAD_REACTORS
330
47
102
}
330
47
100
AcDbScale
 70
     0
300
1/16" = 1'-0"
140
0.0625
141
12.0
290
     0
  0
SCALE
  5
5D
102
{ACAD_REACTORS
330
47
102
}
330
47
100
AcDbScale
 70
     0
300
3/32" = 1'-0"
140
0.09375
141
12.0
290
     0
  0
SCALE
  5
5E
102
{ACAD_REACTORS
330
47
102
}
330
47
100
AcDbScale
 70
     0
300
1/8" = 1'-0"
140
0.125
141
12.0
290
     0
  0
SCALE
  5
5F
102
{ACAD_REACTORS
330
47
102
}
330
47
100
AcDbScale
 70
     0
300
3/16" = 1'-0"
140
0.1875
141
12.0
290
     0
  0
SCALE
  5
60
102
{ACAD_REACTORS
330
47
102
}
330
47
100
AcDbScale
 70
     0
300
1/4" = 1'-0"
140
0.25
141
12.0
290
     0
  0
SCALE
  5
61
102
{ACAD_REACTORS
330
47
102
}
330
47
100
AcDbScale
 70
     0
300
3/8" = 1'-0"
140
0.375
141
12.0
290
     0
  0
SCALE
  5
62
102
{ACAD_REACTORS
330
47
102
}
330
47
100
AcDbScale
 70
     0
300
1/2" = 1'-0"
140
0.5
141
12.0
290
     0
  0
SCALE
  5
63
102
{ACAD_REACTORS
330
47
102
}
330
47
100
AcDbScale
 70
     0
300
3/4" = 1'-0"
140
0.75
141
12.0
290
     0
  0
SCALE
  5
64
102
{ACAD_REACTORS
330
47
102
}
330
47
100
AcDbScale
 70
     0
300
1" = 1'-0"
140
1.0
141
12.0
290
     0
  0
SCALE
  5
65
102
{ACAD_REACTORS
330
47
102
}
330
47
100
AcDbScale
 70
     0
300
1-1/2" = 1'-0"
140
1.5
141
12.0
290
     0
  0
SCALE
  5
66
102
{ACAD_REACTORS
330
47
102
}
330
47
100
AcDbScale
 70
     0
300
3" = 1'-0"
140
3.0
141
12.0
290
     0
  0
SCALE
  5
67
102
{ACAD_REACTORS
330
47
102
}
330
47
100
AcDbScale
 70
     0
300
6" = 1'-0"
140
6.0
141
12.0
290
     0
  0
SCALE
  5
68
102
{ACAD_REACTORS
330
47
102
}
330
47
100
AcDbScale
 70
     0
300
1'-0" = 1'-0"
140
12.0
141
12.0
290
     0
  0
ENDSEC
  0
EOF
