  0
SECTION
  2
HEADER
  9
$ACADVER
  1
AC1015
  9
$ACADMAINTVER
 70
     6
  9
$DWGCODEPAGE
  3
ANSI_1250
  9
$INSBASE
 10
0.0
 20
0.0
 30
0.0
  9
$EXTMIN
 10
0.0
 20
0.0
 30
0.0
  9
$EXTMAX
 10
20000.0
 20
10000.0
 30
0.0
  9
$LIMMIN
 10
0.0
 20
0.0
  9
$LIMMAX
 10
20000.0
 20
10000.0
  9
$ORTHOMODE
 70
     0
  9
$REGENMODE
 70
     1
  9
$FILLMODE
 70
     1
  9
$QTEXTMODE
 70
     0
  9
$MIRRTEXT
 70
     1
  9
$LTSCALE
 40
1.0
  9
$ATTMODE
 70
     1
  9
$TEXTSIZE
 40
2.0
  9
$TRACEWID
 40
1.0
  9
$TEXTSTYLE
  7
Standard
  9
$CLAYER
  8
0
  9
$CELTYPE
  6
ByLayer
  9
$CECOLOR
 62
   256
  9
$CELTSCALE
 40
1.0
  9
$DISPSILH
 70
     0
  9
$DIMSCALE
 40
1.0
  9
$DIMASZ
 40
2.0
  9
$DIMEXO
 40
1.0
  9
$DIMDLI
 40
3.75
  9
$DIMRND
 40
0.0
  9
$DIMDLE
 40
0.0
  9
$DIMEXE
 40
1.0
  9
$DIMTP
 40
0.0
  9
$DIMTM
 40
0.0
  9
$DIMTXT
 40
2.0
  9
$DIMCEN
 40
2.5
  9
$DIMTSZ
 40
0.0
  9
$DIMTOL
 70
     0
  9
$DIMLIM
 70
     0
  9
$DIMTIH
 70
     1
  9
$DIMTOH
 70
     1
  9
$DIMSE1
 70
     0
  9
$DIMSE2
 70
     0
  9
$DIMTAD
 70
     1
  9
$DIMZIN
 70
     0
  9
$DIMBLK
  1

  9
$DIMASO
 70
     1
  9
$DIMSHO
 70
     1
  9
$DIMPOST
  1

  9
$DIMAPOST
  1

  9
$DIMALT
 70
     0
  9
$DIMALTD
 70
     3
  9
$DIMALTF
 40
0.0393700787
  9
$DIMLFAC
 40
1.0
  9
$DIMTOFL
 70
     1
  9
$DIMTVP
 40
0.0
  9
$DIMTIX
 70
     0
  9
$DIMSOXD
 70
     0
  9
$DIMSAH
 70
     0
  9
$DIMBLK1
  1

  9
$DIMBLK2
  1

  9
$DIMSTYLE
  2
ISO-25
  9
$DIMCLRD
 70
     0
  9
$DIMCLRE
 70
     0
  9
$DIMCLRT
 70
     0
  9
$DIMTFAC
 40
1.0
  9
$DIMGAP
 40
1.524
  9
$DIMJUST
 70
     0
  9
$DIMSD1
 70
     0
  9
$DIMSD2
 70
     0
  9
$DIMTOLJ
 70
     0
  9
$DIMTZIN
 70
     0
  9
$DIMALTZ
 70
     0
  9
$DIMALTTZ
 70
     0
  9
$DIMUPT
 70
     0
  9
$DIMDEC
 70
     2
  9
$DIMTDEC
 70
     0
  9
$DIMALTU
 70
     2
  9
$DIMALTTD
 70
     3
  9
$DIMTXSTY
  7
Standard
  9
$DIMAUNIT
 70
     0
  9
$DIMADEC
 70
     2
  9
$DIMALTRND
 40
0.0
  9
$DIMAZIN
 70
     0
  9
$DIMDSEP
 70
    44
  9
$DIMATFIT
 70
     3
  9
$DIMFRAC
 70
     0
  9
$DIMLDRBLK
  1

  9
$DIMLUNIT
 70
     2
  9
$DIMLWD
 70
    -2
  9
$DIMLWE
 70
    -2
  9
$DIMTMOVE
 70
     0
  9
$LUNITS
 70
     2
  9
$LUPREC
 70
     3
  9
$SKETCHINC
 40
1.0
  9
$FILLETRAD
 40
10.0
  9
$AUNITS
 70
     0
  9
$AUPREC
 70
     2
  9
$MENU
  1
.
  9
$ELEVATION
 40
0.0
  9
$PELEVATION
 40
0.0
  9
$THICKNESS
 40
0.0
  9
$LIMCHECK
 70
     0
  9
$CHAMFERA
 40
0.0
  9
$CHAMFERB
 40
0.0
  9
$CHAMFERC
 40
0.0
  9
$CHAMFERD
 40
0.0
  9
$SKPOLY
 70
     0
  9
$TDCREATE
 40
2459345.498508137
  9
$TDUCREATE
 40
2459345.415174803
  9
$TDUPDATE
 40
2459345.498508368
  9
$TDUUPDATE
 40
2459345.415175035
  9
$TDINDWG
 40
0.0000000116
  9
$TDUSRTIMER
 40
0.0000000116
  9
$USRTIMER
 70
     1
  9
$ANGBASE
 50
0.0
  9
$ANGDIR
 70
     0
  9
$PDMODE
 70
     0
  9
$PDSIZE
 40
-1.0
  9
$PLINEWID
 40
0.0
  9
$SPLFRAME
 70
     0
  9
$SPLINETYPE
 70
     6
  9
$SPLINESEGS
 70
     8
  9
$HANDSEED
  5
163
  9
$SURFTAB1
 70
     6
  9
$SURFTAB2
 70
     6
  9
$SURFTYPE
 70
     6
  9
$SURFU
 70
     6
  9
$SURFV
 70
     6
  9
$UCSBASE
  2

  9
$UCSNAME
  2

  9
$UCSORG
 10
0.0
 20
0.0
 30
0.0
  9
$UCSXDIR
 10
1.0
 20
0.0
 30
0.0
  9
$UCSYDIR
 10
0.0
 20
1.0
 30
0.0
  9
$UCSORTHOREF
  2

  9
$UCSORTHOVIEW
 70
     0
  9
$UCSORGTOP
 10
0.0
 20
0.0
 30
0.0
  9
$UCSORGBOTTOM
 10
0.0
 20
0.0
 30
0.0
  9
$UCSORGLEFT
 10
0.0
 20
0.0
 30
0.0
  9
$UCSORGRIGHT
 10
0.0
 20
0.0
 30
0.0
  9
$UCSORGFRONT
 10
0.0
 20
0.0
 30
0.0
  9
$UCSORGBACK
 10
0.0
 20
0.0
 30
0.0
  9
$PUCSBASE
  2

  9
$PUCSNAME
  2

  9
$PUCSORG
 10
0.0
 20
0.0
 30
0.0
  9
$PUCSXDIR
 10
1.0
 20
0.0
 30
0.0
  9
$PUCSYDIR
 10
0.0
 20
1.0
 30
0.0
  9
$PUCSORTHOREF
  2

  9
$PUCSORTHOVIEW
 70
     0
  9
$PUCSORGTOP
 10
0.0
 20
0.0
 30
0.0
  9
$PUCSORGBOTTOM
 10
0.0
 20
0.0
 30
0.0
  9
$PUCSORGLEFT
 10
0.0
 20
0.0
 30
0.0
  9
$PUCSORGRIGHT
 10
0.0
 20
0.0
 30
0.0
  9
$PUCSORGFRONT
 10
0.0
 20
0.0
 30
0.0
  9
$PUCSORGBACK
 10
0.0
 20
0.0
 30
0.0
  9
$USERI1
 70
     0
  9
$USERI2
 70
     0
  9
$USERI3
 70
     0
  9
$USERI4
 70
     0
  9
$USERI5
 70
     0
  9
$USERR1
 40
0.0
  9
$USERR2
 40
0.0
  9
$USERR3
 40
0.0
  9
$USERR4
 40
0.0
  9
$USERR5
 40
0.0
  9
$WORLDVIEW
 70
     1
  9
$SHADEDGE
 70
     3
  9
$SHADEDIF
 70
    70
  9
$TILEMODE
 70
     1
  9
$MAXACTVP
 70
    64
  9
$PINSBASE
 10
0.0
 20
0.0
 30
0.0
  9
$PLIMCHECK
 70
     0
  9
$PEXTMIN
 10
1.0000000000E+20
 20
1.0000000000E+20
 30
1.0000000000E+20
  9
$PEXTMAX
 10
-1.0000000000E+20
 20
-1.0000000000E+20
 30
-1.0000000000E+20
  9
$PLIMMIN
 10
0.0
 20
0.0
  9
$PLIMMAX
 10
420.0
 20
297.0
  9
$UNITMODE
 70
     0
  9
$VISRETAIN
 70
     1
  9
$PLINEGEN
 70
     0
  9
$PSLTSCALE
 70
     1
  9
$TREEDEPTH
 70
  3020
  9
$CMLSTYLE
  2
Standard
  9
$CMLJUST
 70
     0
  9
$CMLSCALE
 40
20.0
  9
$PROXYGRAPHICS
 70
     1
  9
$MEASUREMENT
 70
     1
  9
$CELWEIGHT
370
    -1
  9
$ENDCAPS
280
     0
  9
$JOINSTYLE
280
     0
  9
$LWDISPLAY
290
     1
  9
$INSUNITS
 70
     4
  9
$HYPERLINKBASE
  1

  9
$STYLESHEET
  1

  9
$XEDIT
290
     1
  9
$CEPSNTYPE
380
     0
  9
$PSTYLEMODE
290
     1
  9
$FINGERPRINTGUID
  2
{f1590cc8-7994-42d2-91a8-8b1c35227671}
  9
$VERSIONGUID
  2
{FAEB1C32-E019-11D5-929B-00C0DF256EC4}
  9
$EXTNAMES
290
     1
  9
$PSVPSCALE
 40
0.0
  9
$OLESTARTUP
290
     0
  0
ENDSEC
  0
SECTION
  2
CLASSES
  0
CLASS
  1
ACDBDICTIONARYWDFLT
  2
AcDbDictionaryWithDefault
  3
ObjectDBX Classes
 90
        0
280
     0
281
     0
  0
CLASS
  1
VISUALSTYLE
  2
AcDbVisualStyle
  3
ObjectDBX Classes
 90
     4095
280
     0
281
     0
  0
CLASS
  1
MATERIAL
  2
AcDbMaterial
  3
ObjectDBX Classes
 90
     1153
280
     0
281
     0
  0
CLASS
  1
SCALE
  2
AcDbScale
  3
ObjectDBX Classes
 90
     1153
280
     0
281
     0
  0
CLASS
  1
TABLESTYLE
  2
AcDbTableStyle
  3
ObjectDBX Classes
 90
     4095
280
     0
281
     0
  0
CLASS
  1
MLEADERSTYLE
  2
AcDbMLeaderStyle
  3
ACDB_MLEADERSTYLE_CLASS
 90
     4095
280
     0
281
     0
  0
CLASS
  1
SUN
  2
AcDbSun
  3
SCENEOE
 90
     1153
280
     0
281
     0
  0
CLASS
  1
ACDBPLACEHOLDER
  2
AcDbPlaceHolder
  3
ObjectDBX Classes
 90
        0
280
     0
281
     0
  0
CLASS
  1
LAYOUT
  2
AcDbLayout
  3
ObjectDBX Classes
 90
        0
280
     0
281
     0
  0
ENDSEC
  0
SECTION
  2
TABLES
  0
TABLE
  2
VPORT
  5
8
330
0
100
AcDbSymbolTable
 70
     1
  0
VPORT
  5
29
330
8
100
AcDbSymbolTableRecord
100
AcDbViewportTableRecord
  2
*Active
 70
     0
 10
0.0
 20
0.0
 11
1.0
 21
1.0
 12
10000.0
 22
5000.0
 13
0.0
 23
0.0
 14
10.0
 24
10.0
 15
10.0
 25
10.0
 16
0.0
 26
0.0
 36
1.0
 17
0.0
 27
0.0
 37
0.0
 40
10000.0
 41
2.0
 42
50.0
 43
0.0
 44
0.0
 50
0.0
 51
0.0
 71
     0
 72
  2000
 73
     1
 74
     3
 75
     0
 76
     0
 77
     0
 78
     0
281
     0
 65
     1
110
0.0
120
0.0
130
0.0
111
1.0
121
0.0
131
0.0
112
0.0
122
1.0
132
0.0
 79
     0
146
0.0
  0
ENDTAB
  0
TABLE
  2
LTYPE
  5
5
330
0
100
AcDbSymbolTable
 70
     6
  0
LTYPE
  5
14
330
5
100
AcDbSymbolTableRecord
100
AcDbLinetypeTableRecord
  2
ByBlock
 70
     0
  3

 72
    65
 73
     0
 40
0.0
  0
LTYPE
  5
15
330
5
100
AcDbSymbolTableRecord
100
AcDbLinetypeTableRecord
  2
ByLayer
 70
     0
  3

 72
    65
 73
     0
 40
0.0
  0
LTYPE
  5
16
330
5
100
AcDbSymbolTableRecord
100
AcDbLinetypeTableRecord
  2
Continuous
 70
     0
  3
Solid line
 72
    65
 73
     0
 40
0.0
  0
LTYPE
  5
6E
330
5
100
AcDbSymbolTableRecord
100
AcDbLinetypeTableRecord
  2
HIDDEN
 70
     0
  3
Hidden __ __ __ __ __ __ __ __ __ __ __ __ __ __
 72
    65
 73
     2
 40
1.905
 49
1.27
 74
     0
 49
-0.635
 74
     0
  0
LTYPE
  5
6F
330
5
100
AcDbSymbolTableRecord
100
AcDbLinetypeTableRecord
  2
PHANTOM
 70
     0
  3
Phantom ______  __  __  ______  __  __  ______
 72
    65
 73
     6
 40
12.7
 49
6.35
 74
     0
 49
-1.27
 74
     0
 49
1.27
 74
     0
 49
-1.27
 74
     0
 49
1.27
 74
     0
 49
-1.27
 74
     0
  0
LTYPE
  5
70
330
5
100
AcDbSymbolTableRecord
100
AcDbLinetypeTableRecord
  2
CENTER
 70
     0
  3
Center ____ _ ____ _ ____ _ ____ _ ____ _ ____
 72
    65
 73
     4
 40
10.16
 49
6.35
 74
     0
 49
-1.27
 74
     0
 49
1.27
 74
     0
 49
-1.27
 74
     0
  0
LTYPE
  5
71
330
5
100
AcDbSymbolTableRecord
100
AcDbLinetypeTableRecord
  2
CENTERX2
 70
     0
  3
Center (2x) ________  __  ________  __  _____
 72
    65
 73
     4
 40
20.32
 49
12.7
 74
     0
 49
-2.54
 74
     0
 49
2.54
 74
     0
 49
-2.54
 74
     0
  0
LTYPE
  5
72
330
5
100
AcDbSymbolTableRecord
100
AcDbLinetypeTableRecord
  2
DOT2
 70
     0
  3
Dot (.5x) ........................................
 72
    65
 73
     2
 40
0.635
 49
0.0
 74
     0
 49
-0.635
 74
     0
  0
ENDTAB
  0
TABLE
  2
LAYER
  5
2
330
0
100
AcDbSymbolTable
 70
    13
  0
LAYER
  5
10
330
2
100
AcDbSymbolTableRecord
100
AcDbLayerTableRecord
  2
0
 70
     0
 62
     7
  6
Continuous
370
    -3
390
F
  0
LAYER
  5
73
330
2
100
AcDbSymbolTableRecord
100
AcDbLayerTableRecord
  2
FORMAT
 70
     0
 62
     7
  6
Continuous
370
    -3
390
F
  0
LAYER
  5
74
330
2
100
AcDbSymbolTableRecord
100
AcDbLayerTableRecord
  2
OSA
 70
     0
 62
     7
  6
CENTER
370
    -3
390
F
  0
LAYER
  5
75
330
2
100
AcDbSymbolTableRecord
100
AcDbLayerTableRecord
  2
0_35
 70
     0
 62
     7
  6
Continuous
370
    35
390
F
  0
LAYER
  5
76
330
2
100
AcDbSymbolTableRecord
100
AcDbLayerTableRecord
  2
0_5
 70
     0
 62
     7
  6
Continuous
370
    50
390
F
  0
LAYER
  5
77
330
2
100
AcDbSymbolTableRecord
100
AcDbLayerTableRecord
  2
0_25
 70
     0
 62
     7
  6
Continuous
370
    25
390
F
  0
LAYER
  5
78
330
2
100
AcDbSymbolTableRecord
100
AcDbLayerTableRecord
  2
0_18
 70
     0
 62
     7
  6
Continuous
370
    -3
390
F
  0
LAYER
  5
79
330
2
100
AcDbSymbolTableRecord
100
AcDbLayerTableRecord
  2
SLD-0
 70
     0
 62
   179
  6
Continuous
370
    -3
390
F
  0
LAYER
  5
7A
330
2
100
AcDbSymbolTableRecord
100
AcDbLayerTableRecord
  2
KOTY
 70
     0
 62
     7
  6
Continuous
370
    -3
390
F
  0
LAYER
  5
7B
330
2
100
AcDbSymbolTableRecord
100
AcDbLayerTableRecord
  2
SILNA
 70
     0
 62
   179
  6
Continuous
370
    -3
390
F
  0
LAYER
  5
7C
330
2
100
AcDbSymbolTableRecord
100
AcDbLayerTableRecord
  2
0_18_1
 70
     0
 62
   179
  6
Continuous
370
    -3
390
F
  0
LAYER
  5
7D
330
2
100
AcDbSymbolTableRecord
100
AcDbLayerTableRecord
  2
0_35_1
 70
     0
 62
   179
  6
Continuous
370
    35
390
F
  0
LAYER
  5
7E
330
2
100
AcDbSymbolTableRecord
100
AcDbLayerTableRecord
  2
0_5_1
 70
     0
 62
   179
  6
Continuous
370
    50
390
F
  0
ENDTAB
  0
TABLE
  2
STYLE
  5
3
330
0
100
AcDbSymbolTable
 70
     1
  0
STYLE
  5
11
330
3
100
AcDbSymbolTableRecord
100
AcDbTextStyleTableRecord
  2
Standard
 70
     0
 40
0.0
 41
1.0
 50
0.0
 71
     0
 42
2.0
  3
txt
  4

  0
ENDTAB
  0
TABLE
  2
VIEW
  5
6
330
0
100
AcDbSymbolTable
 70
     0
  0
ENDTAB
  0
TABLE
  2
UCS
  5
7
330
0
100
AcDbSymbolTable
 70
     0
  0
ENDTAB
  0
TABLE
  2
APPID
  5
9
330
0
100
AcDbSymbolTable
 70
     1
  0
APPID
  5
12
330
9
100
AcDbSymbolTableRecord
100
AcDbRegAppTableRecord
  2
ACAD
 70
     0
  0
ENDTAB
  0
TABLE
  2
DIMSTYLE
  5
A
330
0
100
AcDbSymbolTable
 70
     1
100
AcDbDimStyleTable
  0
DIMSTYLE
105
27
330
A
100
AcDbSymbolTableRecord
100
AcDbDimStyleTableRecord
  2
ISO-25
 70
     0
 41
2.5
 42
0.625
 43
3.75
 44
1.25
 73
     0
 74
     0
 77
     1
 78
     8
140
2.5
141
2.5
143
0.0393700787
147
0.625
171
     3
172
     1
178
     0
271
     2
272
     2
274
     3
278
    44
283
     0
284
     8
340
11
  0
ENDTAB
  0
TABLE
  2
BLOCK_RECORD
  5
1
330
0
100
AcDbSymbolTable
 70
     1
  0
BLOCK_RECORD
  5
1F
330
1
100
AcDbSymbolTableRecord
100
AcDbBlockTableRecord
  2
*Model_Space
340
22
  0
BLOCK_RECORD
  5
1B
330
1
100
AcDbSymbolTableRecord
100
AcDbBlockTableRecord
  2
*Paper_Space
340
1E
  0
BLOCK_RECORD
  5
23
330
1
100
AcDbSymbolTableRecord
100
AcDbBlockTableRecord
  2
*Paper_Space0
340
26
  0
ENDTAB
  0
ENDSEC
  0
SECTION
  2
BLOCKS
  0
BLOCK
  5
20
330
1F
100
AcDbEntity
  8
0
100
AcDbBlockBegin
  2
*Model_Space
 70
     0
 10
0.0
 20
0.0
 30
0.0
  3
*Model_Space
  1

  0
ENDBLK
  5
21
330
1F
100
AcDbEntity
  8
0
100
AcDbBlockEnd
  0
BLOCK
  5
1C
330
1B
100
AcDbEntity
 67
     1
  8
0
100
AcDbBlockBegin
  2
*Paper_Space
 70
     0
 10
0.0
 20
0.0
 30
0.0
  3
*Paper_Space
  1

  0
ENDBLK
  5
1D
330
1B
100
AcDbEntity
 67
     1
  8
0
100
AcDbBlockEnd
  0
BLOCK
  5
24
330
23
100
AcDbEntity
  8
0
100
AcDbBlockBegin
  2
*Paper_Space0
 70
     0
 10
0.0
 20
0.0
 30
0.0
  3
*Paper_Space0
  1

  0
ENDBLK
  5
25
330
23
100
AcDbEntity
  8
0
100
AcDbBlockEnd
  0
ENDSEC
  0
SECTION
  2
ENTITIES
  0
LINE
  5
7F
330
1F
100
AcDbEntity
  8
0
  6
Continuous
 62
     7
370
    25
100
AcDbLine
 10
6398.1770785501
 20
5059.0325135396
 30
0.0
 11
6398.1770785501
 21
5058.678960149
 31
0.0
  0
LINE
  5
80
330
1F
100
AcDbEntity
  8
0
  6
Continuous
 62
     7
370
    25
100
AcDbLine
 10
6416.6770785501
 20
5058.678960149
 30
0.0
 11
6416.6770785501
 21
5059.0325135396
 31
0.0
  0
LINE
  5
81
330
1F
100
AcDbEntity
  8
0
  6
Continuous
 62
     7
370
    25
100
AcDbLine
 10
6414.9270785501
 20
5058.678960149
 30
0.0
 11
6414.9270785501
 21
5059.3860669302
 31
0.0
  0
LINE
  5
82
330
1F
100
AcDbEntity
  8
0
  6
Continuous
 62
     7
370
    25
100
AcDbLine
 10
6399.9270785501
 20
5059.3860669302
 30
0.0
 11
6399.9270785501
 21
5058.678960149
 31
0.0
  0
LINE
  5
83
330
1F
100
AcDbEntity
  8
0
  6
Continuous
 62
     7
370
    25
100
AcDbLine
 10
6382.5270785501
 20
5101.9213483044
 30
0.0
 11
6382.8270785501
 21
5101.6213483044
 31
0.0
  0
LINE
  5
84
330
1F
100
AcDbEntity
  8
0
  6
Continuous
 62
     7
370
    25
100
AcDbLine
 10
6432.0270785501
 20
5101.6213483044
 30
0.0
 11
6432.3270785501
 21
5101.9213483044
 31
0.0
  0
LINE
  5
85
330
1F
100
AcDbEntity
  8
0
  6
Continuous
 62
     7
370
    25
100
AcDbLine
 10
6432.3270785501
 20
5103.6213483044
 30
0.0
 11
6431.3270785501
 21
5104.6213483044
 31
0.0
  0
LINE
  5
86
330
1F
100
AcDbEntity
  8
0
  6
Continuous
 62
     7
370
    25
100
AcDbLine
 10
6383.5270785501
 20
5104.6213483044
 30
0.0
 11
6382.5270785501
 21
5103.6213483044
 31
0.0
  0
LINE
  5
87
330
1F
100
AcDbEntity
  8
0
  6
Continuous
 62
     7
370
    25
100
AcDbLine
 10
6382.5270785501
 20
5103.6213483044
 30
0.0
 11
6382.5270785501
 21
5101.9213483044
 31
0.0
  0
LINE
  5
88
330
1F
100
AcDbEntity
  8
0
  6
Continuous
 62
     7
370
    25
100
AcDbLine
 10
6432.3270785501
 20
5101.9213483044
 30
0.0
 11
6432.3270785501
 21
5103.6213483044
 31
0.0
  0
LINE
  5
89
330
1F
100
AcDbEntity
  8
0
  6
Continuous
 62
     7
370
    25
100
AcDbLine
 10
6445.3306683886
 20
5019.2213483044
 30
0.0
 11
6445.8306683886
 21
5019.7213483044
 31
0.0
  0
LINE
  5
8A
330
1F
100
AcDbEntity
  8
0
  6
Continuous
 62
     7
370
    25
100
AcDbLine
 10
6445.8306683886
 20
5034.5213483044
 30
0.0
 11
6445.3306683886
 21
5035.0213483044
 31
0.0
  0
LINE
  5
8B
330
1F
100
AcDbEntity
  8
0
  6
Continuous
 62
     7
370
    25
100
AcDbLine
 10
6438.8360490574
 20
5035.0213483044
 30
0.0
 11
6432.1127156737
 21
5035.0213483044
 31
0.0
  0
LINE
  5
8C
330
1F
100
AcDbEntity
  8
0
  6
Continuous
 62
     7
370
    25
100
AcDbLine
 10
6445.3306683886
 20
5035.0213483044
 30
0.0
 11
6442.8252877197
 21
5035.0213483044
 31
0.0
  0
LINE
  5
8D
330
1F
100
AcDbEntity
  8
0
  6
Continuous
 62
     7
370
    25
100
AcDbLine
 10
6432.1126927232
 20
5019.2213483044
 30
0.0
 11
6445.3306683886
 21
5019.2213483044
 31
0.0
  0
LINE
  5
8E
330
1F
100
AcDbEntity
  8
0
  6
Continuous
 62
     7
370
    25
100
AcDbLine
 10
6442.8306683886
 20
5035.0213483044
 30
0.0
 11
6442.8306683886
 21
5050.5173185299
 31
0.0
  0
LINE
  5
8F
330
1F
100
AcDbEntity
  8
0
  6
Continuous
 62
     7
370
    25
100
AcDbLine
 10
6438.8306683886
 20
5050.5173185299
 30
0.0
 11
6438.8306683886
 21
5035.0213483044
 31
0.0
  0
ARC
  5
90
330
1F
100
AcDbEntity
  8
0
  6
Continuous
 62
     7
370
    25
100
AcDbCircle
 10
6440.8306683886
 20
5047.4845075748
 30
0.0
 40
3.633333333333441
100
AcDbArc
 50
56.6164821083
 51
123.3835178917
  0
LINE
  5
91
330
1F
100
AcDbEntity
  8
0
  6
Continuous
 62
     7
370
    25
100
AcDbLine
 10
6382.6770785501
 20
5101.4213483044
 30
0.0
 11
6382.6770785501
 21
4968.8213483044
 31
0.0
  0
LINE
  5
92
330
1F
100
AcDbEntity
  8
0
  6
Continuous
 62
     7
370
    25
100
AcDbLine
 10
6432.1770785501
 20
5035.2213483044
 30
0.0
 11
6432.1770785501
 21
5101.4213483044
 31
0.0
  0
LINE
  5
93
330
1F
100
AcDbEntity
  8
0
  6
Continuous
 62
     7
370
    25
100
AcDbLine
 10
6432.1770785501
 20
4968.8213483044
 30
0.0
 11
6432.1770785501
 21
5019.0246998359
 31
0.0
  0
LINE
  5
94
330
1F
100
AcDbEntity
  8
0
  6
Continuous
 62
     7
370
    25
100
AcDbLine
 10
6432.1770785501
 20
5101.4213483044
 30
0.0
 11
6431.9770785501
 21
5101.6213483044
 31
0.0
  0
LINE
  5
95
330
1F
100
AcDbEntity
  8
0
  6
Continuous
 62
     7
370
    25
100
AcDbLine
 10
6382.8770785501
 20
5101.6213483044
 30
0.0
 11
6382.6770785501
 21
5101.4213483044
 31
0.0
  0
LINE
  5
96
330
1F
100
AcDbEntity
  8
0
  6
Continuous
 62
     7
370
    25
100
AcDbLine
 10
6382.6770785501
 20
4968.8213483044
 30
0.0
 11
6382.8770785501
 21
4968.6213483044
 31
0.0
  0
LINE
  5
97
330
1F
100
AcDbEntity
  8
0
  6
Continuous
 62
     7
370
    25
100
AcDbLine
 10
6431.9770785501
 20
4968.6213483044
 30
0.0
 11
6432.1770785501
 21
4968.8213483044
 31
0.0
  0
LINE
  5
98
330
1F
100
AcDbEntity
  8
0
  6
Continuous
 62
     7
370
    25
100
AcDbLine
 10
6437.4270785501
 20
4964.6213483044
 30
0.0
 11
6437.4270785501
 21
4966.681675238
 31
0.0
  0
LINE
  5
99
330
1F
100
AcDbEntity
  8
0
  6
Continuous
 62
     7
370
    25
100
AcDbLine
 10
6377.4270785501
 20
4966.681675238
 30
0.0
 11
6377.4270785501
 21
4964.6213483044
 31
0.0
  0
LINE
  5
9A
330
1F
100
AcDbEntity
  8
0
  6
Continuous
 62
     7
370
    25
100
AcDbLine
 10
6437.4270785501
 20
4966.681675238
 30
0.0
 11
6436.9441156369
 21
4967.5181915418
 31
0.0
  0
LINE
  5
9B
330
1F
100
AcDbEntity
  8
0
  6
Continuous
 62
     7
370
    25
100
AcDbLine
 10
6377.9100414632
 20
4967.5181915418
 30
0.0
 11
6377.4270785501
 21
4966.681675238
 31
0.0
  0
LINE
  5
9C
330
1F
100
AcDbEntity
  8
0
  6
Continuous
 62
     7
370
    25
100
AcDbLine
 10
6436.9441156369
 20
4967.5181915418
 30
0.0
 11
6432.8270785501
 21
4968.6213483044
 31
0.0
  0
LINE
  5
9D
330
1F
100
AcDbEntity
  8
0
  6
Continuous
 62
     7
370
    25
100
AcDbLine
 10
6382.0270785501
 20
4968.6213483044
 30
0.0
 11
6377.9100414632
 21
4967.5181915418
 31
0.0
  0
CIRCLE
  5
9E
330
1F
100
AcDbEntity
  8
0
  6
Continuous
 62
     7
370
    25
100
AcDbCircle
 10
6407.4270785501
 20
4997.8293878705
 30
0.0
 40
11.00000000000273
  0
ARC
  5
9F
330
1F
100
AcDbEntity
  8
0
  6
Continuous
 62
     7
370
    25
100
AcDbCircle
 10
6402.8991545961
 20
5059.0264049802
 30
0.0
 40
4.722079997103543
100
AcDbArc
 50
161.7911309078
 51
179.9258812286
  0
ARC
  5
A0
330
1F
100
AcDbEntity
  8
0
  6
Continuous
 62
     7
370
    25
100
AcDbCircle
 10
6411.9549787272
 20
5059.0264011541
 30
0.0
 40
4.722103778874927
100
AcDbArc
 50
0.0741648222
 51
18.2088230415
  0
ARC
  5
A1
330
1F
100
AcDbEntity
  8
0
  6
Continuous
 62
     7
370
    25
100
AcDbCircle
 10
6407.4198383821
 20
5064.9440738624
 30
0.0
 40
12.80655589297554
100
AcDbArc
 50
255.8536949078
 51
272.9335791868
  0
ARC
  5
A2
330
1F
100
AcDbEntity
  8
0
  6
Continuous
 62
     7
370
    25
100
AcDbCircle
 10
6407.4878456722
 20
5063.8893929881
 30
0.0
 40
12.45578059465478
100
AcDbArc
 50
273.2728416264
 51
286.8978847609
  0
LINE
  5
A3
330
1F
100
AcDbEntity
  8
0
  6
Continuous
 62
     7
370
    25
100
AcDbLine
 10
6411.1083284293
 20
5052.6785060276
 30
0.0
 11
6411.1083284293
 21
5051.9713992464
 31
0.0
  0
ARC
  5
A4
330
1F
100
AcDbEntity
  8
0
  6
Continuous
 62
     7
370
    25
100
AcDbCircle
 10
6408.2246238963
 20
5062.3260315837
 30
0.0
 40
10.06928503869066
100
AcDbArc
 50
286.6417277582
 51
305.3861985819
  0
ARC
  5
A5
330
1F
100
AcDbEntity
  8
0
  6
Continuous
 62
     7
370
    25
100
AcDbCircle
 10
6410.3224294441
 20
5058.8357465089
 30
0.0
 40
6.57655840494407
100
AcDbArc
 50
309.3327489519
 51
330.2215658007
  0
LINE
  5
A6
330
1F
100
AcDbEntity
  8
0
  6
Continuous
 62
     7
370
    25
100
AcDbLine
 10
6416.0305694244
 20
5056.2766232892
 30
0.0
 11
6416.0305694244
 21
5055.569516508
 31
0.0
  0
ARC
  5
A7
330
1F
100
AcDbEntity
  8
0
  6
Continuous
 62
     7
370
    25
100
AcDbCircle
 10
6411.8357017611
 20
5058.6886868475
 30
0.0
 40
4.838901251524049
100
AcDbArc
 50
330.1009477629
 51
6.3605162398
  0
LINE
  5
A8
330
1F
100
AcDbEntity
  8
0
  6
Continuous
 62
     7
370
    25
100
AcDbLine
 10
6413.3992041053
 20
5063.6013734288
 30
0.0
 11
6413.3992041053
 21
5062.9666614899
 31
0.0
  0
ARC
  5
A9
330
1F
100
AcDbEntity
  8
0
  6
Continuous
 62
     7
370
    25
100
AcDbCircle
 10
6408.0379432484
 20
5053.8772088658
 30
0.0
 40
10.55278479745307
100
AcDbArc
 50
59.4664851876
 51
74.6889829522
  0
LINE
  5
AA
330
1F
100
AcDbEntity
  8
0
  6
Continuous
 62
     7
370
    25
100
AcDbLine
 10
6410.8244959186
 20
5064.5864898319
 30
0.0
 11
6410.8244959186
 21
5064.0554401069
 31
0.0
  0
LINE
  5
AB
330
1F
100
AcDbEntity
  8
0
  6
Continuous
 62
     7
370
    25
100
AcDbLine
 10
6406.6552009061
 20
5064.9880304174
 30
0.0
 11
6406.6552009061
 21
5064.4897788392
 31
0.0
  0
ARC
  5
AC
330
1F
100
AcDbEntity
  8
0
  6
Continuous
 62
     7
370
    25
100
AcDbCircle
 10
6407.366311428
 20
5052.0543137475
 30
0.0
 40
12.45578059466048
100
AcDbArc
 50
93.2728416264
 51
106.8978847609
  0
LINE
  5
AD
330
1F
100
AcDbEntity
  8
0
  6
Continuous
 62
     7
370
    25
100
AcDbLine
 10
6403.7458286708
 20
5064.5101128918
 30
0.0
 11
6403.7458286708
 21
5063.9723074892
 31
0.0
  0
LINE
  5
AE
330
1F
100
AcDbEntity
  8
0
  6
Continuous
 62
     7
370
    25
100
AcDbLine
 10
6400.3633531624
 20
5062.9018906271
 30
0.0
 11
6400.6019333482
 21
5063.0937020992
 31
0.0
  0
LINE
  5
AF
330
1F
100
AcDbEntity
  8
0
  6
Continuous
 62
     7
370
    25
100
AcDbLine
 10
6400.3633531624
 20
5062.9018906271
 30
0.0
 11
6400.3633531624
 21
5062.194783846
 31
0.0
  0
ARC
  5
B0
330
1F
100
AcDbEntity
  8
0
  6
Continuous
 62
     7
370
    25
100
AcDbCircle
 10
6404.5317276561
 20
5057.1079602266
 30
0.0
 40
6.576558405010053
100
AcDbArc
 50
129.332748952
 51
150.2215658006
  0
LINE
  5
B1
330
1F
100
AcDbEntity
  8
0
  6
Continuous
 62
     7
370
    25
100
AcDbLine
 10
6398.8235876758
 20
5061.0812970088
 30
0.0
 11
6398.8235876758
 21
5060.3741902276
 31
0.0
  0
ARC
  5
B2
330
1F
100
AcDbEntity
  8
0
  6
Continuous
 62
     7
370
    25
100
AcDbCircle
 10
6403.0184553391
 20
5058.6692334504
 30
0.0
 40
4.838901251565468
100
AcDbArc
 50
150.1009477631
 51
186.3605162396
  0
LINE
  5
B3
330
1F
100
AcDbEntity
  8
0
  6
Continuous
 62
     7
370
    25
100
AcDbLine
 10
6398.2093399498
 20
5058.1331602327
 30
0.0
 11
6398.2093399498
 21
5057.4260534515
 31
0.0
  0
ARC
  5
B4
330
1F
100
AcDbEntity
  8
0
  6
Continuous
 62
     7
370
    25
100
AcDbCircle
 10
6403.2427461566
 20
5058.057791056
 30
0.0
 40
5.07289566657027
100
AcDbArc
 50
187.1537274672
 51
212.0099799123
  0
ARC
  5
B5
330
1F
100
AcDbEntity
  8
0
  6
Continuous
 62
     7
370
    25
100
AcDbCircle
 10
6405.2561497029
 20
5060.2434682119
 30
0.0
 40
7.581142738951548
100
AcDbArc
 50
219.2415880111
 51
239.9072309031
  0
LINE
  5
B6
330
1F
100
AcDbEntity
  8
0
  6
Continuous
 62
     7
370
    25
100
AcDbLine
 10
6401.4549529949
 20
5053.6841520269
 30
0.0
 11
6401.4549529949
 21
5052.9770452457
 31
0.0
  0
ARC
  5
B7
330
1F
100
AcDbEntity
  8
0
  6
Continuous
 62
     7
370
    25
100
AcDbCircle
 10
6406.8162138517
 20
5062.0664978697
 30
0.0
 40
10.55278479735792
100
AcDbArc
 50
239.4664851875
 51
254.6889829522
  0
ARC
  5
B8
330
1F
100
AcDbEntity
  8
0
  6
Continuous
 62
     7
370
    25
100
AcDbCircle
 10
6403.5665043897
 20
5058.6826843147
 30
0.0
 40
4.379146663795418
100
AcDbArc
 50
142.7951038027
 51
199.014664165
  0
ARC
  5
B9
330
1F
100
AcDbEntity
  8
0
  6
Continuous
 62
     7
370
    25
100
AcDbCircle
 10
6406.3607532572
 20
5056.1320899569
 30
0.0
 40
8.196241706370985
100
AcDbArc
 50
108.4354267553
 51
132.7364365508
  0
ARC
  5
BA
330
1F
100
AcDbEntity
  8
0
  6
Continuous
 62
     7
370
    25
100
AcDbCircle
 10
6407.4413052465
 20
5053.2016199294
 30
0.0
 40
11.31234893729616
100
AcDbArc
 50
73.9746339544
 51
93.3569203416
  0
LWPOLYLINE
  5
BB
330
1F
100
AcDbEntity
  8
0
  6
Continuous
 62
     7
370
    25
100
AcDbPolyline
 90
       31
 70
   128
 43
0.0
 10
6413.2612664661
 20
5062.8035662732
 10
6413.7623392952
 20
5062.4157349141
 10
6414.3861062277
 20
5061.8122039778
 10
6414.8956061181
 20
5061.1572252644
 10
6415.2824729924
 20
5060.4615535064
 10
6415.5403545071
 20
5059.7366116147
 10
6415.6650162548
 20
5058.9943031151
 10
6415.6544112932
 20
5058.2468166928
 10
6415.5087137554
 20
5057.5064260541
 10
6415.230315991
 20
5056.7852883928
 10
6414.8237892835
 20
5056.0952447694
 10
6414.2958087903
 20
5055.4476256811
 10
6413.6550439364
 20
5054.8530650154
 10
6412.9120160631
 20
5054.321325442
 10
6412.0789256674
 20
5053.8611381101
 10
6411.1694520707
 20
5053.4800592828
 10
6410.1985288043
 20
5053.1843462641
 10
6409.1820984012
 20
5052.9788546534
 10
6408.1368506208
 20
5052.8669586173
 10
6407.0799484026
 20
5052.8504954858
 10
6406.0287460517
 20
5052.9297355828
 10
6405.0005042819
 20
5053.1033777883
 10
6404.0121067944
 20
5053.368570902
 10
6403.0797830488
 20
5053.7209604603
 10
6402.2188417751
 20
5054.1547602365
 10
6401.4434196053
 20
5054.6628472501
 10
6400.7662489499
 20
5055.2368787265
 10
6400.1984489324
 20
5055.8674290847
 10
6399.7493428134
 20
5056.5441447053
 10
6399.4263049029
 20
5057.2559139364
 10
6399.4263049029
 20
5057.2559139364
  0
LINE
  5
BC
330
1F
100
AcDbEntity
  8
0
  6
Continuous
 62
     7
370
    25
100
AcDbLine
 10
6415.5953593702
 20
5056.4606625536
 30
0.0
 11
6416.0305694244
 21
5056.2766232892
 31
0.0
  0
ARC
  5
BD
330
1F
100
AcDbEntity
  8
0
  6
Continuous
 62
     7
370
    25
100
AcDbCircle
 10
6410.1627481585
 20
5059.4938643355
 30
0.0
 40
6.222023595872563
100
AcDbArc
 50
308.7303444163
 51
330.8239703362
  0
LINE
  5
BE
330
1F
100
AcDbEntity
  8
0
  6
Continuous
 62
     7
370
    25
100
AcDbLine
 10
6411.1083284293
 20
5052.6785060276
 30
0.0
 11
6410.9846277133
 21
5053.0262464665
 31
0.0
  0
ARC
  5
BF
330
1F
100
AcDbEntity
  8
0
  6
Continuous
 62
     7
370
    25
100
AcDbCircle
 10
6407.4838477376
 20
5064.2712368646
 30
0.0
 40
11.77732013197772
100
AcDbArc
 50
272.8783648797
 51
287.2923615076
  0
ARC
  5
C0
330
1F
100
AcDbEntity
  8
0
  6
Continuous
 62
     7
370
    25
100
AcDbCircle
 10
6406.8508542737
 20
5062.5477812114
 30
0.0
 40
9.978874698150404
100
AcDbArc
 50
239.0259192753
 51
255.1295488645
  0
LINE
  5
C1
330
1F
100
AcDbEntity
  8
0
  6
Continuous
 62
     7
370
    25
100
AcDbLine
 10
6401.7152238187
 20
5053.9918920074
 30
0.0
 11
6401.4549529949
 21
5053.6841520269
 31
0.0
  0
ARC
  5
C2
330
1F
100
AcDbEntity
  8
0
  6
Continuous
 62
     7
370
    25
100
AcDbCircle
 10
6403.4727417621
 20
5058.7592439038
 30
0.0
 40
4.801925345737459
100
AcDbArc
 50
186.4402066722
 51
212.7235007071
  0
LINE
  5
C3
330
1F
100
AcDbEntity
  8
0
  6
Continuous
 62
     7
370
    25
100
AcDbLine
 10
6398.2093399498
 20
5058.1331602327
 30
0.0
 11
6398.7011191948
 21
5058.2206298479
 31
0.0
  0
LINE
  5
C4
330
1F
100
AcDbEntity
  8
0
  6
Continuous
 62
     7
370
    25
100
AcDbLine
 10
6400.7985632165
 20
5062.7178513627
 30
0.0
 11
6400.3633531624
 21
5062.9018906271
 31
0.0
  0
LINE
  5
C5
330
1F
100
AcDbEntity
  8
0
  6
Continuous
 62
     7
370
    25
100
AcDbLine
 10
6406.7281369955
 20
5064.9918518216
 30
0.0
 11
6406.7789016222
 21
5064.8491451815
 31
0.0
  0
LINE
  5
C6
330
1F
100
AcDbEntity
  8
0
  6
Continuous
 62
     7
370
    25
100
AcDbLine
 10
6410.5642250948
 20
5064.4548069075
 30
0.0
 11
6410.7017196549
 21
5064.6173782347
 31
0.0
  0
LINE
  5
C7
330
1F
100
AcDbEntity
  8
0
  6
Continuous
 62
     7
370
    25
100
AcDbLine
 10
6406.6552009061
 20
5064.4897788392
 30
0.0
 11
6406.7789016222
 21
5064.1420384003
 31
0.0
  0
ARC
  5
C8
330
1F
100
AcDbEntity
  8
0
  6
Continuous
 62
     7
370
    25
100
AcDbCircle
 10
6407.3703093626
 20
5052.3795766521
 30
0.0
 40
11.77732013199964
100
AcDbArc
 50
92.8783648797
 51
107.2923615076
  0
LINE
  5
C9
330
1F
100
AcDbEntity
  8
0
  6
Continuous
 62
     7
370
    25
100
AcDbLine
 10
6403.7458286708
 20
5063.9723074892
 30
0.0
 11
6403.8695293869
 21
5063.6245670502
 31
0.0
  0
LINE
  5
CA
330
1F
100
AcDbEntity
  8
0
  6
Continuous
 62
     7
370
    25
100
AcDbLine
 10
6406.7789016222
 20
5064.8491451815
 30
0.0
 11
6406.7789016222
 21
5064.1420384003
 31
0.0
  0
LINE
  5
CB
330
1F
100
AcDbEntity
  8
0
  6
Continuous
 62
     7
370
    25
100
AcDbLine
 10
6413.1389332815
 20
5062.6589215094
 30
0.0
 11
6413.3992041053
 21
5062.9666614899
 31
0.0
  0
ARC
  5
CC
330
1F
100
AcDbEntity
  8
0
  6
Continuous
 62
     7
370
    25
100
AcDbCircle
 10
6408.0033028264
 20
5054.1030323053
 30
0.0
 40
9.978874698211511
100
AcDbArc
 50
59.0259192754
 51
75.1295488644
  0
LINE
  5
CD
330
1F
100
AcDbEntity
  8
0
  6
Continuous
 62
     7
370
    25
100
AcDbLine
 10
6410.5642250948
 20
5063.7477001263
 30
0.0
 11
6410.8244959186
 21
5064.0554401069
 31
0.0
  0
LWPOLYLINE
  5
CE
330
1F
100
AcDbEntity
  8
0
  6
Continuous
 62
     7
370
    25
100
AcDbPolyline
 90
        3
 70
   128
 43
0.0
 10
6399.4263049029
 20
5057.9630207175
 10
6399.2346394745
 20
5058.6981563281
 10
6399.1922440041
 20
5059.0325135396
  0
ARC
  5
CF
330
1F
100
AcDbEntity
  8
0
  6
Continuous
 62
     7
370
    25
100
AcDbCircle
 10
6410.1735630929
 20
5059.830893464
 30
0.0
 40
5.546115420847237
100
AcDbArc
 50
296.2366921889
 51
351.7233458558
  0
ARC
  5
D0
330
1F
100
AcDbEntity
  8
0
  6
Continuous
 62
     7
370
    25
100
AcDbCircle
 10
6405.1590528885
 20
5060.316727028
 30
0.0
 40
6.197122950462632
100
AcDbArc
 50
202.3216846731
 51
241.7807747206
  0
LINE
  5
D1
330
1F
100
AcDbEntity
  8
0
  6
Continuous
 62
     7
370
    25
100
AcDbLine
 10
6410.5642250948
 20
5064.4548069075
 30
0.0
 11
6410.5642250948
 21
5063.7477001263
 31
0.0
  0
LINE
  5
D2
330
1F
100
AcDbEntity
  8
0
  6
Continuous
 62
     7
370
    25
100
AcDbLine
 10
6398.2075340928
 20
5059.5628436255
 30
0.0
 11
6398.1865265036
 21
5059.7976251739
 31
0.0
  0
LINE
  5
D3
330
1F
100
AcDbEntity
  8
0
  6
Continuous
 62
     7
370
    25
100
AcDbLine
 10
6416.6676305966
 20
5059.7976251739
 30
0.0
 11
6416.6466230074
 21
5059.5628436255
 31
0.0
  0
LWPOLYLINE
  5
D4
330
1F
100
AcDbEntity
  8
0
  6
Continuous
 62
     7
370
    25
100
AcDbPolyline
 90
       47
 70
   128
 43
0.0
 10
6400.1536479617
 20
5057.3852817739
 10
6399.9722710955
 20
5058.0976487802
 10
6399.9297631871
 20
5058.8208445174
 10
6400.0269160784
 20
5059.5413972173
 10
6400.261919995
 20
5060.2458843463
 10
6400.6303972584
 20
5060.9211826424
 10
6401.1254838345
 20
5061.5547125758
 10
6401.7379571971
 20
5062.1346726827
 10
6402.4564081262
 20
5062.6502594035
 10
6403.2674532405
 20
5063.0918683331
 10
6404.1559843039
 20
5063.4512731329
 10
6405.1054496641
 20
5063.7217787713
 10
6406.0981625776
 20
5063.8983462402
 10
6407.1156306814
 20
5063.9776864216
 10
6408.1389004696
 20
5063.9583213582
 10
6409.1489103623
 20
5063.8406117844
 10
6410.1268457862
 20
5063.6267504068
 10
6411.0544896546
 20
5063.3207210583
 10
6411.9145617175
 20
5062.9282244866
 10
6412.6910404596
 20
5062.4565721602
 10
6413.3694615512
 20
5061.9145500696
 10
6413.9371872908
 20
5061.3122550607
 10
6414.3836420222
 20
5060.66090675
 10
6414.7005091384
 20
5059.9726385241
 10
6414.8818860047
 20
5059.2602715178
 10
6414.9243939131
 20
5058.5370757806
 10
6414.8272410217
 20
5057.8165230807
 10
6414.5922371051
 20
5057.1120359516
 10
6414.2237598417
 20
5056.4367376556
 10
6413.7286732656
 20
5055.8032077221
 10
6413.1161999031
 20
5055.2232476153
 10
6412.3977489739
 20
5054.7076608945
 10
6411.5867038597
 20
5054.2660519648
 10
6410.6981727962
 20
5053.9066471651
 10
6409.7487074361
 20
5053.6361415266
 10
6408.7559945225
 20
5053.4595740578
 10
6407.7385264188
 20
5053.3802338763
 10
6406.7152566305
 20
5053.3995989397
 10
6405.7052467378
 20
5053.5173085136
 10
6404.7273113139
 20
5053.7311698912
 10
6403.7996674455
 20
5054.0371992397
 10
6402.9395953826
 20
5054.4296958114
 10
6402.1631166405
 20
5054.9013481377
 10
6401.484695549
 20
5055.4433702284
 10
6400.9169698094
 20
5056.0456652373
 10
6400.470515078
 20
5056.697013548
 10
6400.1536479617
 20
5057.3852817739
  0
ARC
  5
D5
330
1F
100
AcDbEntity
  8
0
  6
Continuous
 62
     7
370
    25
100
AcDbCircle
 10
6404.7155655792
 20
5059.1072575576
 30
0.0
 40
4.79659699100123
100
AcDbArc
 50
121.2284020982
 51
176.6677188831
  0
ARC
  5
D6
330
1F
100
AcDbEntity
  8
0
  6
Continuous
 62
     7
370
    25
100
AcDbCircle
 10
6410.3747329421
 20
5059.1957372367
 30
0.0
 40
4.556322632006736
100
AcDbArc
 50
2.3940934407
 51
51.3595399424
  0
LINE
  5
D7
330
1F
100
AcDbEntity
  8
0
  6
Continuous
 62
     7
370
    25
100
AcDbLine
 10
6400.7985632165
 20
5062.7178513627
 30
0.0
 11
6400.7985632165
 21
5062.0107445815
 31
0.0
  0
LINE
  5
D8
330
1F
100
AcDbEntity
  8
0
  6
Continuous
 62
     7
370
    25
100
AcDbLine
 10
6400.7985632165
 20
5062.0107445815
 30
0.0
 11
6400.3633531624
 21
5062.194783846
 31
0.0
  0
ARC
  5
D9
330
1F
100
AcDbEntity
  8
0
  6
Continuous
 62
     7
370
    25
100
AcDbCircle
 10
6404.6914089416
 20
5057.1569491812
 30
0.0
 40
6.222023595869669
100
AcDbArc
 50
128.7303444163
 51
150.8239703362
  0
LINE
  5
DA
330
1F
100
AcDbEntity
  8
0
  6
Continuous
 62
     7
370
    25
100
AcDbLine
 10
6399.2587977299
 20
5060.1901509631
 30
0.0
 11
6398.8235876758
 21
5060.3741902276
 31
0.0
  0
LINE
  5
DB
330
1F
100
AcDbEntity
  8
0
  6
Continuous
 62
     7
370
    25
100
AcDbLine
 10
6398.7011191948
 20
5058.2206298479
 30
0.0
 11
6398.7011191948
 21
5057.5135230667
 31
0.0
  0
LINE
  5
DC
330
1F
100
AcDbEntity
  8
0
  6
Continuous
 62
     7
370
    25
100
AcDbLine
 10
6398.2093399498
 20
5057.4260534515
 30
0.0
 11
6398.7011191948
 21
5057.5135230667
 31
0.0
  0
ARC
  5
DD
330
1F
100
AcDbEntity
  8
0
  6
Continuous
 62
     7
370
    25
100
AcDbCircle
 10
6403.4727417621
 20
5058.0521371226
 30
0.0
 40
4.801925345732736
100
AcDbArc
 50
186.4402066722
 51
212.7235007072
  0
LINE
  5
DE
330
1F
100
AcDbEntity
  8
0
  6
Continuous
 62
     7
370
    25
100
AcDbLine
 10
6398.9411549512
 20
5055.3688166149
 30
0.0
 11
6399.4329341962
 21
5055.4562862301
 31
0.0
  0
LINE
  5
DF
330
1F
100
AcDbEntity
  8
0
  6
Continuous
 62
     7
370
    25
100
AcDbLine
 10
6399.4329341962
 20
5056.1633930113
 30
0.0
 11
6399.4329341962
 21
5055.4562862301
 31
0.0
  0
LINE
  5
E0
330
1F
100
AcDbEntity
  8
0
  6
Continuous
 62
     7
370
    25
100
AcDbLine
 10
6415.5953593702
 20
5056.4606625536
 30
0.0
 11
6415.5953593702
 21
5055.7535557724
 31
0.0
  0
LINE
  5
E1
330
1F
100
AcDbEntity
  8
0
  6
Continuous
 62
     7
370
    25
100
AcDbLine
 10
6415.5953593702
 20
5055.7535557724
 30
0.0
 11
6416.0305694244
 21
5055.569516508
 31
0.0
  0
ARC
  5
E2
330
1F
100
AcDbEntity
  8
0
  6
Continuous
 62
     7
370
    25
100
AcDbCircle
 10
6410.1627481585
 20
5058.7867575543
 30
0.0
 40
6.222023595848692
100
AcDbArc
 50
308.7303444163
 51
330.8239703363
  0
LINE
  5
E3
330
1F
100
AcDbEntity
  8
0
  6
Continuous
 62
     7
370
    25
100
AcDbLine
 10
6414.0555938837
 20
5053.9329621541
 30
0.0
 11
6414.4908039378
 21
5053.7489228896
 31
0.0
  0
LINE
  5
E4
330
1F
100
AcDbEntity
  8
0
  6
Continuous
 62
     7
370
    25
100
AcDbLine
 10
6414.0555938837
 20
5054.6400689352
 30
0.0
 11
6414.0555938837
 21
5053.9329621541
 31
0.0
  0
LINE
  5
E5
330
1F
100
AcDbEntity
  8
0
  6
Continuous
 62
     7
370
    25
100
AcDbLine
 10
6401.7152238187
 20
5053.9918920074
 30
0.0
 11
6401.7152238187
 21
5053.2847852262
 31
0.0
  0
LINE
  5
E6
330
1F
100
AcDbEntity
  8
0
  6
Continuous
 62
     7
370
    25
100
AcDbLine
 10
6404.2899320053
 20
5052.9031133904
 30
0.0
 11
6404.2899320053
 21
5052.1960066092
 31
0.0
  0
ARC
  5
E7
330
1F
100
AcDbEntity
  8
0
  6
Continuous
 62
     7
370
    25
100
AcDbCircle
 10
6406.8508542737
 20
5061.8406744302
 30
0.0
 40
9.978874698129431
100
AcDbArc
 50
239.0259192753
 51
255.1295488645
  0
LINE
  5
E8
330
1F
100
AcDbEntity
  8
0
  6
Continuous
 62
     7
370
    25
100
AcDbLine
 10
6401.7152238187
 20
5053.2847852262
 30
0.0
 11
6401.4549529949
 21
5052.9770452457
 31
0.0
  0
LINE
  5
E9
330
1F
100
AcDbEntity
  8
0
  6
Continuous
 62
     7
370
    25
100
AcDbLine
 10
6404.2899320053
 20
5052.1960066092
 30
0.0
 11
6404.0296611816
 21
5051.8882666287
 31
0.0
  0
LINE
  5
EA
330
1F
100
AcDbEntity
  8
0
  6
Continuous
 62
     7
370
    25
100
AcDbLine
 10
6410.9846277133
 20
5053.0262464665
 30
0.0
 11
6410.9846277133
 21
5052.3191396853
 31
0.0
  0
ARC
  5
EB
330
1F
100
AcDbEntity
  8
0
  6
Continuous
 62
     7
370
    25
100
AcDbCircle
 10
6407.4838477375
 20
5063.5641300835
 30
0.0
 40
11.77732013203363
100
AcDbArc
 50
272.8783648797
 51
287.2923615076
  0
LINE
  5
EC
330
1F
100
AcDbEntity
  8
0
  6
Continuous
 62
     7
370
    25
100
AcDbLine
 10
6408.0752554779
 20
5052.5087751165
 30
0.0
 11
6408.0752554779
 21
5051.8016683353
 31
0.0
  0
LINE
  5
ED
330
1F
100
AcDbEntity
  8
0
  6
Continuous
 62
     7
370
    25
100
AcDbLine
 10
6411.1083284293
 20
5051.9713992464
 30
0.0
 11
6410.9846277133
 21
5052.3191396853
 31
0.0
  0
LINE
  5
EE
330
1F
100
AcDbEntity
  8
0
  6
Continuous
 62
     7
370
    25
100
AcDbLine
 10
6408.198956194
 20
5051.4539278963
 30
0.0
 11
6408.0752554779
 21
5051.8016683353
 31
0.0
  0
LINE
  5
EF
330
1F
100
AcDbEntity
  8
0
  6
Continuous
 62
     7
370
    25
100
AcDbLine
 10
6382.5270785501
 20
5101.9213483044
 30
0.0
 11
6432.3270785501
 21
5101.9213483044
 31
0.0
  0
LINE
  5
F0
330
1F
100
AcDbEntity
  8
0
  6
Continuous
 62
     7
370
    25
100
AcDbLine
 10
6382.8270785501
 20
5101.6213483044
 30
0.0
 11
6432.0270785501
 21
5101.6213483044
 31
0.0
  0
LINE
  5
F1
330
1F
100
AcDbEntity
  8
0
  6
Continuous
 62
     7
370
    25
100
AcDbLine
 10
6383.5270785501
 20
5104.6213483044
 30
0.0
 11
6431.3270785501
 21
5104.6213483044
 31
0.0
  0
LINE
  5
F2
330
1F
100
AcDbEntity
  8
0
  6
Continuous
 62
     7
370
    25
100
AcDbLine
 10
6382.5270785501
 20
5103.6213483044
 30
0.0
 11
6432.3270785501
 21
5103.6213483044
 31
0.0
  0
LINE
  5
F3
330
1F
100
AcDbEntity
  8
0
  6
Continuous
 62
     7
370
    25
100
AcDbLine
 10
6445.8306683886
 20
5034.5213483044
 30
0.0
 11
6445.8306683886
 21
5019.7213483044
 31
0.0
  0
LINE
  5
F4
330
1F
100
AcDbEntity
  8
0
  6
Continuous
 62
     7
370
    25
100
AcDbLine
 10
6445.3306683886
 20
5035.0213483044
 30
0.0
 11
6445.3306683886
 21
5019.2213483044
 31
0.0
  0
ARC
  5
F5
330
1F
100
AcDbEntity
  8
0
  6
Continuous
 62
     7
370
    25
100
AcDbCircle
 10
6441.2285155487
 20
5040.273227412
 30
0.0
 40
5.487876045787099
100
AcDbArc
 50
265.842658017
 51
286.609775237
  0
ARC
  5
F6
330
1F
100
AcDbEntity
  8
0
  6
Continuous
 62
     7
370
    25
100
AcDbCircle
 10
6436.2180002096
 20
5001.7413150671
 30
0.0
 40
33.37872929104339
100
AcDbArc
 50
82.0567704154
 51
85.4591260989
  0
ARC
  5
F7
330
1F
100
AcDbEntity
  8
0
  6
Continuous
 62
     7
370
    25
100
AcDbCircle
 10
6440.8306683886
 20
5010.7948468295
 30
0.0
 40
39.77278916536115
100
AcDbArc
 50
87.1176296651
 51
92.8823703349
  0
ARC
  5
F8
330
1F
100
AcDbEntity
  8
0
  6
Continuous
 62
     7
370
    25
100
AcDbCircle
 10
6407.4270785501
 20
5062.1213483044
 30
0.0
 40
12.95000000000022
100
AcDbArc
 50
26.3603643512
 51
153.6396356488
  0
LINE
  5
F9
330
1F
100
AcDbEntity
  8
0
  6
Continuous
 62
     7
370
    25
100
AcDbLine
 10
6395.8236307866
 20
5067.8713483044
 30
0.0
 11
6394.3106766044
 21
5066.8713483044
 31
0.0
  0
ARC
  5
FA
330
1F
100
AcDbEntity
  8
0
  6
Continuous
 62
     7
370
    25
100
AcDbCircle
 10
6407.4270785501
 20
5062.1213483044
 30
0.0
 40
13.95000000000071
100
AcDbArc
 50
19.9074488975
 51
160.0925511025
  0
LINE
  5
FB
330
1F
100
AcDbEntity
  8
0
  6
Continuous
 62
     7
370
    25
100
AcDbLine
 10
6420.5434804957
 20
5066.8713483044
 30
0.0
 11
6419.0305263136
 21
5067.8713483044
 31
0.0
  0
LINE
  5
FC
330
1F
100
AcDbEntity
  8
0
  6
Continuous
 62
     7
370
    25
100
AcDbLine
 10
6395.8236307866
 20
5067.8713483044
 30
0.0
 11
6419.0305263136
 21
5067.8713483044
 31
0.0
  0
ARC
  5
FD
330
1F
100
AcDbEntity
  8
0
  6
Continuous
 62
     7
370
    25
100
AcDbCircle
 10
6407.4270785501
 20
5062.1213483044
 30
0.0
 40
13.95000000000071
100
AcDbArc
 50
160.0925511025
 51
19.9074488975
  0
LWPOLYLINE
  5
FE
330
1F
100
AcDbEntity
  8
0
  6
Continuous
 62
     7
370
    25
100
AcDbPolyline
 90
       54
 70
   128
 43
0.0
 10
6407.4270785501
 20
5050.9344790037
 10
6408.6041745745
 20
5050.9838736587
 10
6409.764746751
 20
5051.1313642309
 10
6410.8925031902
 20
5051.3748802761
 10
6411.9716126638
 20
5051.7110033628
 10
6412.9869268401
 20
5052.1350150596
 10
6413.9241929338
 20
5052.6409631717
 10
6414.7702537834
 20
5053.2217452967
 10
6415.5132325491
 20
5053.8692085267
 10
6416.1426994378
 20
5054.5742638971
 10
6416.6498181141
 20
5055.3270139761
 10
6417.0274697434
 20
5056.1168918026
 10
6417.2703529246
 20
5056.9328092233
 10
6417.3750581104
 20
5057.7633125462
 10
6417.3401154694
 20
5058.5967433252
 10
6417.1660155196
 20
5059.4214020189
 10
6416.8552022429
 20
5060.2257122269
 10
6416.4120387762
 20
5060.9983831972
 10
6415.8427461632
 20
5061.7285683228
 10
6415.1553160242
 20
5062.4060174053
 10
6414.3593983717
 20
5063.0212205446
 10
6413.4661661447
 20
5063.565541637
 10
6412.4881583657
 20
5064.0313396076
 10
6411.4391041201
 20
5064.412075674
 10
6410.3337298299
 20
5064.7024051363
 10
6409.1875525273
 20
5064.8982524054
 10
6408.016662029
 20
5064.9968682148
 10
6406.8374950711
 20
5064.9968682148
 10
6405.6666045728
 20
5064.8982524054
 10
6404.5204272702
 20
5064.7024051363
 10
6403.4150529801
 20
5064.412075674
 10
6402.3659987345
 20
5064.0313396076
 10
6401.3879909555
 20
5063.565541637
 10
6400.4947587285
 20
5063.0212205446
 10
6399.6988410759
 20
5062.4060174053
 10
6399.011410937
 20
5061.7285683228
 10
6398.442118324
 20
5060.9983831972
 10
6397.9989548573
 20
5060.2257122269
 10
6397.6881415805
 20
5059.4214020189
 10
6397.5140416308
 20
5058.5967433252
 10
6397.4790989898
 20
5057.7633125462
 10
6397.5838041755
 20
5056.9328092233
 10
6397.8266873568
 20
5056.1168918026
 10
6398.2043389861
 20
5055.3270139761
 10
6398.7114576624
 20
5054.5742638971
 10
6399.340924551
 20
5053.8692085267
 10
6400.0839033168
 20
5053.2217452967
 10
6400.9299641664
 20
5052.6409631717
 10
6401.86723026
 20
5052.1350150596
 10
6402.8825444364
 20
5051.7110033628
 10
6403.9616539099
 20
5051.3748802761
 10
6405.0894103491
 20
5051.1313642309
 10
6406.2499825256
 20
5050.9838736587
 10
6407.4270785501
 20
5050.9344790037
  0
LINE
  5
FF
330
1F
100
AcDbEntity
  8
0
  6
Continuous
 62
     7
370
    25
100
AcDbLine
 10
6407.4270785501
 20
5052.0498340753
 30
0.0
 11
6408.0752554779
 21
5052.0656972754
 31
0.0
  0
ARC
  5
100
330
1F
100
AcDbEntity
  8
0
  6
Continuous
 62
     7
370
    25
100
AcDbCircle
 10
6408.2407538022
 20
5062.3689632773
 30
0.0
 40
10.19814488764727
100
AcDbArc
 50
286.3309961346
 51
304.7632014981
  0
ARC
  5
101
330
1F
100
AcDbEntity
  8
0
  6
Continuous
 62
     7
370
    25
100
AcDbCircle
 10
6411.7218279605
 20
5058.6991803246
 30
0.0
 40
5.060380037535436
100
AcDbArc
 50
328.3714775855
 51
44.8908397467
  0
ARC
  5
102
330
1F
100
AcDbEntity
  8
0
  6
Continuous
 62
     7
370
    25
100
AcDbCircle
 10
6403.146147286
 20
5058.6807854184
 30
0.0
 40
5.083152956380641
100
AcDbArc
 50
135.0721930292
 51
193.7818781589
  0
ARC
  5
103
330
1F
100
AcDbEntity
  8
0
  6
Continuous
 62
     7
370
    25
100
AcDbCircle
 10
6405.3935716357
 20
5060.4552331675
 30
0.0
 40
7.933068014802167
100
AcDbArc
 50
219.3489321138
 51
240.2325341998
  0
ARC
  5
104
330
1F
100
AcDbEntity
  8
0
  6
Continuous
 62
     7
370
    25
100
AcDbCircle
 10
6407.4077959142
 20
5064.9587145094
 30
0.0
 40
12.90889483577734
100
AcDbArc
 50
256.0232383561
 51
270.0855854879
  0
LINE
  5
105
330
1F
100
AcDbEntity
  8
0
  6
Continuous
 62
     7
370
    25
100
AcDbLine
 10
6416.6676305966
 20
5059.328062077
 30
0.0
 11
6416.7183715172
 21
5059.5628436255
 31
0.0
  0
LINE
  5
106
330
1F
100
AcDbEntity
  8
0
  6
Continuous
 62
     7
370
    25
100
AcDbLine
 10
6398.135785583
 20
5059.5628436255
 30
0.0
 11
6398.1865265036
 21
5059.328062077
 31
0.0
  0
LWPOLYLINE
  5
107
330
1F
100
AcDbEntity
  8
0
  6
Continuous
 62
     7
370
    25
100
AcDbPolyline
 90
       21
 70
   128
 43
0.0
 10
6432.1759875503
 20
5019.0246998359
 10
6432.1770419961
 20
5019.0214599978
 10
6432.1378281607
 20
5019.1420847845
 10
6432.0368667061
 20
5019.460462384
 10
6431.8790659342
 20
5019.983618481
 10
6431.6826277665
 20
5020.6886841759
 10
6431.4609945723
 20
5021.5827005124
 10
6431.2387649062
 20
5022.6443060751
 10
6431.0388674637
 20
5023.8711058979
 10
6430.8964748726
 20
5025.1566438113
 10
6430.8211547611
 20
5026.5466294448
 10
6430.8253051455
 20
5027.8455774196
 10
6430.9029326819
 20
5029.1617470935
 10
6431.0376893233
 20
5030.3630208797
 10
6431.2220089918
 20
5031.5083991049
 10
6431.4364641007
 20
5032.5525631333
 10
6431.6618232383
 20
5033.4751149118
 10
6431.8700178901
 20
5034.2280200698
 10
6432.0407498522
 20
5034.7946992652
 10
6432.1410407004
 20
5035.1105550965
 10
6432.1770785501
 20
5035.2213483044
  0
CIRCLE
  5
108
330
1F
100
AcDbEntity
  8
0
  6
Continuous
 62
     7
370
    25
100
AcDbCircle
 10
6407.4270785501
 20
4997.6213483044
 30
0.0
 40
11.04999999999745
  0
ARC
  5
109
330
1F
100
AcDbEntity
  8
0
  6
Continuous
 62
     7
370
    25
100
AcDbCircle
 10
6407.3841699171
 20
5062.0824583152
 30
0.0
 40
13.96117594920635
100
AcDbArc
 50
115.0095673061
 51
270.1760945821
  0
ARC
  5
10A
330
1F
100
AcDbEntity
  8
0
  6
Continuous
 62
     7
370
    25
100
AcDbCircle
 10
6407.491076483
 20
5062.1330680181
 30
0.0
 40
13.95339963729024
100
AcDbArc
 50
273.7928216524
 51
103.9588572483
  0
LINE
  5
10B
330
1F
100
AcDbEntity
  8
0
  6
Continuous
 62
     7
370
    25
100
AcDbLine
 10
6408.3385400839
 20
5048.203427249
 30
0.0
 11
6407.4270785501
 21
5048.1213483044
 31
0.0
  0
LINE
  5
10C
330
1F
100
AcDbEntity
  8
0
  6
Continuous
 62
     7
370
    25
100
AcDbLine
 10
6407.4270785501
 20
5101.4213483044
 30
0.0
 11
6382.6770785501
 21
5101.4213483044
 31
0.0
  0
LINE
  5
10D
330
1F
100
AcDbEntity
  8
0
  6
Continuous
 62
     7
370
    25
100
AcDbLine
 10
6432.1770785501
 20
5101.4213483044
 30
0.0
 11
6407.4270785501
 21
5101.4213483044
 31
0.0
  0
LINE
  5
10E
330
1F
100
AcDbEntity
  8
0
  6
Continuous
 62
     7
370
    25
100
AcDbLine
 10
6382.6770785501
 20
4968.8213483044
 30
0.0
 11
6432.1770785501
 21
4968.8213483044
 31
0.0
  0
LINE
  5
10F
330
1F
100
AcDbEntity
  8
0
  6
Continuous
 62
     7
370
    25
100
AcDbLine
 10
6399.4427188387
 20
5073.6213483044
 30
0.0
 11
6399.5307186292
 21
5073.6213483044
 31
0.0
  0
LINE
  5
110
330
1F
100
AcDbEntity
  8
0
  6
Continuous
 62
     7
370
    25
100
AcDbLine
 10
6415.323438471
 20
5073.6213483044
 30
0.0
 11
6415.4114382614
 21
5073.6213483044
 31
0.0
  0
LINE
  5
111
330
1F
100
AcDbEntity
  8
0
  6
Continuous
 62
     7
370
    25
100
AcDbLine
 10
6437.4270785501
 20
4964.6213483044
 30
0.0
 11
6377.4270785501
 21
4964.6213483044
 31
0.0
  0
LINE
  5
112
330
1F
100
AcDbEntity
  8
0
  6
Continuous
 62
     7
370
    25
100
AcDbLine
 10
6437.4270785501
 20
4966.681675238
 30
0.0
 11
6377.4270785501
 21
4966.681675238
 31
0.0
  0
LINE
  5
113
330
1F
100
AcDbEntity
  8
0
  6
Continuous
 62
     7
370
    25
100
AcDbLine
 10
6436.9226890775
 20
4967.5181915418
 30
0.0
 11
6436.9441156369
 21
4967.5181915418
 31
0.0
  0
LINE
  5
114
330
1F
100
AcDbEntity
  8
0
  6
Continuous
 62
     7
370
    25
100
AcDbLine
 10
6377.9100414632
 20
4967.5181915418
 30
0.0
 11
6436.9226890775
 21
4967.5181915418
 31
0.0
  0
LINE
  5
115
330
1F
100
AcDbEntity
  8
0
  6
Continuous
 62
     7
370
    25
100
AcDbLine
 10
6432.8270785501
 20
4968.6213483044
 30
0.0
 11
6382.0270785501
 21
4968.6213483044
 31
0.0
  0
LINE
  5
116
330
1F
100
AcDbEntity
  8
0
  6
Continuous
 62
     7
370
    25
100
AcDbLine
 10
6629.4007705165
 20
4986.8293878705
 30
0.0
 11
6629.5274877005
 21
4986.8293878705
 31
0.0
  0
LINE
  5
117
330
1F
100
AcDbEntity
  8
0
  6
Continuous
 62
     7
370
    25
100
AcDbLine
 10
6629.5274877005
 20
5008.8293878705
 30
0.0
 11
6629.514296251
 21
5008.8293878705
 31
0.0
  0
LINE
  5
118
330
1F
100
AcDbEntity
  8
0
  6
Continuous
 62
     7
370
    25
100
AcDbLine
 10
6629.5274877005
 20
4986.8293878705
 30
0.0
 11
6629.5274877005
 21
5008.8293878705
 31
0.0
  0
LINE
  5
119
330
1F
100
AcDbEntity
  8
0
  6
Continuous
 62
     7
370
    25
100
AcDbLine
 10
6579.864296251
 20
5101.9213483044
 30
0.0
 11
6580.164296251
 21
5101.6213483044
 31
0.0
  0
LINE
  5
11A
330
1F
100
AcDbEntity
  8
0
  6
Continuous
 62
     7
370
    25
100
AcDbLine
 10
6629.364296251
 20
5101.6213483044
 30
0.0
 11
6629.664296251
 21
5101.9213483044
 31
0.0
  0
LINE
  5
11B
330
1F
100
AcDbEntity
  8
0
  6
Continuous
 62
     7
370
    25
100
AcDbLine
 10
6579.864296251
 20
5103.6213483044
 30
0.0
 11
6579.864296251
 21
5101.9213483044
 31
0.0
  0
LINE
  5
11C
330
1F
100
AcDbEntity
  8
0
  6
Continuous
 62
     7
370
    25
100
AcDbLine
 10
6629.664296251
 20
5101.9213483044
 30
0.0
 11
6629.664296251
 21
5103.6213483044
 31
0.0
  0
LINE
  5
11D
330
1F
100
AcDbEntity
  8
0
  6
Continuous
 62
     7
370
    25
100
AcDbLine
 10
6629.664296251
 20
5103.6213483044
 30
0.0
 11
6628.664296251
 21
5104.6213483044
 31
0.0
  0
LINE
  5
11E
330
1F
100
AcDbEntity
  8
0
  6
Continuous
 62
     7
370
    25
100
AcDbLine
 10
6580.864296251
 20
5104.6213483044
 30
0.0
 11
6579.864296251
 21
5103.6213483044
 31
0.0
  0
LINE
  5
11F
330
1F
100
AcDbEntity
  8
0
  6
Continuous
 62
     7
370
    25
100
AcDbLine
 10
6629.4861257131
 20
5048.1713483044
 30
0.0
 11
6675.064296251
 21
5048.1713483044
 31
0.0
  0
LINE
  5
120
330
1F
100
AcDbEntity
  8
0
  6
Continuous
 62
     7
370
    25
100
AcDbLine
 10
6693.764296251
 20
5076.0713483044
 30
0.0
 11
6629.4861260202
 21
5076.0713483044
 31
0.0
  0
LINE
  5
121
330
1F
100
AcDbEntity
  8
0
  6
Continuous
 62
     7
370
    25
100
AcDbLine
 10
6694.764296251
 20
5075.0713483044
 30
0.0
 11
6693.764296251
 21
5076.0713483044
 31
0.0
  0
LINE
  5
122
330
1F
100
AcDbEntity
  8
0
  6
Continuous
 62
     7
370
    25
100
AcDbLine
 10
6580.014296251
 20
4968.8213483044
 30
0.0
 11
6580.214296251
 21
4968.6213483044
 31
0.0
  0
LINE
  5
123
330
1F
100
AcDbEntity
  8
0
  6
Continuous
 62
     7
370
    25
100
AcDbLine
 10
6629.314296251
 20
4968.6213483044
 30
0.0
 11
6629.514296251
 21
4968.8213483044
 31
0.0
  0
LINE
  5
124
330
1F
100
AcDbEntity
  8
0
  6
Continuous
 62
     7
370
    25
100
AcDbLine
 10
6629.514296251
 20
5101.4213483044
 30
0.0
 11
6629.314296251
 21
5101.6213483044
 31
0.0
  0
LINE
  5
125
330
1F
100
AcDbEntity
  8
0
  6
Continuous
 62
     7
370
    25
100
AcDbLine
 10
6580.214296251
 20
5101.6213483044
 30
0.0
 11
6580.014296251
 21
5101.4213483044
 31
0.0
  0
LINE
  5
126
330
1F
100
AcDbEntity
  8
0
  6
Continuous
 62
     7
370
    25
100
AcDbLine
 10
6580.014296251
 20
5097.1866889858
 30
0.0
 11
6580.014296251
 21
4968.8213483044
 31
0.0
  0
LINE
  5
127
330
1F
100
AcDbEntity
  8
0
  6
Continuous
 62
     7
370
    25
100
AcDbLine
 10
6580.014296251
 20
5101.4213483044
 30
0.0
 11
6580.014296251
 21
5099.6713483044
 31
0.0
  0
LINE
  5
128
330
1F
100
AcDbEntity
  8
0
  6
Continuous
 62
     7
370
    25
100
AcDbLine
 10
6629.514296251
 20
5076.1157379811
 30
0.0
 11
6629.514296251
 21
5101.4213483044
 31
0.0
  0
LINE
  5
129
330
1F
100
AcDbEntity
  8
0
  6
Continuous
 62
     7
370
    25
100
AcDbLine
 10
6629.514296251
 20
5008.8293878705
 30
0.0
 11
6629.514296251
 21
5048.1213483044
 31
0.0
  0
LINE
  5
12A
330
1F
100
AcDbEntity
  8
0
  6
Continuous
 62
     7
370
    25
100
AcDbLine
 10
6629.514296251
 20
4968.8213483044
 30
0.0
 11
6629.514296251
 21
4986.5713483044
 31
0.0
  0
LINE
  5
12B
330
1F
100
AcDbEntity
  8
0
  6
Continuous
 62
     7
370
    25
100
AcDbLine
 10
6634.764296251
 20
4966.681675238
 30
0.0
 11
6634.2813333379
 21
4967.5181915418
 31
0.0
  0
LINE
  5
12C
330
1F
100
AcDbEntity
  8
0
  6
Continuous
 62
     7
370
    25
100
AcDbLine
 10
6575.2472591642
 20
4967.5181915418
 30
0.0
 11
6574.764296251
 21
4966.681675238
 31
0.0
  0
LINE
  5
12D
330
1F
100
AcDbEntity
  8
0
  6
Continuous
 62
     7
370
    25
100
AcDbLine
 10
6634.764296251
 20
4964.6213483044
 30
0.0
 11
6634.764296251
 21
4966.681675238
 31
0.0
  0
LINE
  5
12E
330
1F
100
AcDbEntity
  8
0
  6
Continuous
 62
     7
370
    25
100
AcDbLine
 10
6574.764296251
 20
4966.681675238
 30
0.0
 11
6574.764296251
 21
4964.6213483044
 31
0.0
  0
LINE
  5
12F
330
1F
100
AcDbEntity
  8
0
  6
Continuous
 62
     7
370
    25
100
AcDbLine
 10
6634.2813333379
 20
4967.5181915418
 30
0.0
 11
6630.164296251
 21
4968.6213483044
 31
0.0
  0
LINE
  5
130
330
1F
100
AcDbEntity
  8
0
  6
Continuous
 62
     7
370
    25
100
AcDbLine
 10
6579.364296251
 20
4968.6213483044
 30
0.0
 11
6575.2472591642
 21
4967.5181915418
 31
0.0
  0
ARC
  5
131
330
1F
100
AcDbEntity
  8
0
  6
Continuous
 62
     7
370
    25
100
AcDbCircle
 10
6652.2135807683
 20
4997.8940550235
 30
0.0
 40
25.18401451524369
100
AcDbArc
 50
154.3507610349
 51
155.2640816904
  0
ARC
  5
132
330
1F
100
AcDbEntity
  8
0
  6
Continuous
 62
     7
370
    25
100
AcDbCircle
 10
6660.5668125069
 20
5001.7492433476
 30
0.0
 40
34.43895718368221
100
AcDbArc
 50
199.8469321573
 51
205.6724721536
  0
LINE
  5
133
330
1F
100
AcDbEntity
  8
0
  6
Continuous
 62
     7
370
    25
100
AcDbLine
 10
6579.864296251
 20
5101.9213483044
 30
0.0
 11
6629.664296251
 21
5101.9213483044
 31
0.0
  0
LINE
  5
134
330
1F
100
AcDbEntity
  8
0
  6
Continuous
 62
     7
370
    25
100
AcDbLine
 10
6580.164296251
 20
5101.6213483044
 30
0.0
 11
6629.364296251
 21
5101.6213483044
 31
0.0
  0
LINE
  5
135
330
1F
100
AcDbEntity
  8
0
  6
Continuous
 62
     7
370
    25
100
AcDbLine
 10
6579.864296251
 20
5103.6213483044
 30
0.0
 11
6629.664296251
 21
5103.6213483044
 31
0.0
  0
LINE
  5
136
330
1F
100
AcDbEntity
  8
0
  6
Continuous
 62
     7
370
    25
100
AcDbLine
 10
6580.864296251
 20
5104.6213483044
 30
0.0
 11
6628.664296251
 21
5104.6213483044
 31
0.0
  0
LINE
  5
137
330
1F
100
AcDbEntity
  8
0
  6
Continuous
 62
     7
370
    25
100
AcDbLine
 10
6693.764296251
 20
5066.8713483044
 30
0.0
 11
6693.764296251
 21
5076.0713483044
 31
0.0
  0
LINE
  5
138
330
1F
100
AcDbEntity
  8
0
  6
Continuous
 62
     7
370
    25
100
AcDbLine
 10
6693.764296251
 20
5066.8713483044
 30
0.0
 11
6675.064296251
 21
5048.1713483044
 31
0.0
  0
LINE
  5
139
330
1F
100
AcDbEntity
  8
0
  6
Continuous
 62
     7
370
    25
100
AcDbLine
 10
6694.764296251
 20
5067.8713483044
 30
0.0
 11
6694.764296251
 21
5075.0713483044
 31
0.0
  0
LINE
  5
13A
330
1F
100
AcDbEntity
  8
0
  6
Continuous
 62
     7
370
    25
100
AcDbLine
 10
6694.764296251
 20
5067.8713483044
 30
0.0
 11
6693.764296251
 21
5066.8713483044
 31
0.0
  0
LINE
  5
13B
330
1F
100
AcDbEntity
  8
0
  6
Continuous
 62
     7
370
    25
100
AcDbLine
 10
6580.014296251
 20
4968.8213483044
 30
0.0
 11
6629.514296251
 21
4968.8213483044
 31
0.0
  0
LINE
  5
13C
330
1F
100
AcDbEntity
  8
0
  6
Continuous
 62
     7
370
    25
100
AcDbLine
 10
6629.514296251
 20
5101.4213483044
 30
0.0
 11
6580.014296251
 21
5101.4213483044
 31
0.0
  0
ARC
  5
13D
330
1F
100
AcDbEntity
  8
0
  6
Continuous
 62
     7
370
    25
100
AcDbCircle
 10
6652.5097770837
 20
4997.6064103923
 30
0.0
 40
25.5061705084917
100
AcDbArc
 50
155.3552717051
 51
205.6353988062
  0
LWPOLYLINE
  5
13E
330
1F
100
AcDbEntity
  8
0
  6
Continuous
 62
     7
370
    25
100
AcDbPolyline
 90
       21
 70
   128
 43
0.0
 10
6629.514296251
 20
5048.1213483044
 10
6629.422535535
 20
5048.284214765
 10
6629.1451813528
 20
5048.7847423514
 10
6628.7250185747
 20
5049.5693080611
 10
6628.1769547425
 20
5050.650076464
 10
6627.5251739387
 20
5052.0468729774
 10
6626.8327945972
 20
5053.7275339596
 10
6626.1346545117
 20
5055.786546635
 10
6625.5575160905
 20
5058.1469941063
 10
6625.2782280908
 20
5060.057638168
 10
6625.1741974531
 20
5062.0817619935
 10
6625.2653474792
 20
5064.0528248013
 10
6625.5441302581
 20
5066.0250646567
 10
6625.9611515667
 20
5067.8436009441
 10
6626.4899990651
 20
5069.5673984497
 10
6627.1547370562
 20
5071.328374939
 10
6627.8430475097
 20
5072.894753507
 10
6628.5226266452
 20
5074.282588501
 10
6629.0811357134
 20
5075.3405079387
 10
6629.4017043624
 20
5075.9213257843
 10
6629.511137801
 20
5076.1157379811
  0
ARC
  5
13F
330
1F
100
AcDbEntity
  8
0
  6
Continuous
 62
     7
370
    25
100
AcDbCircle
 10
6555.282424114
 20
5098.4213830866
 30
0.0
 40
24.76343902711622
100
AcDbArc
 50
357.1420728552
 51
2.8933048533
  0
LINE
  5
140
330
1F
100
AcDbEntity
  8
0
  6
Continuous
 62
     7
370
    25
100
AcDbLine
 10
6634.764296251
 20
4966.681675238
 30
0.0
 11
6574.764296251
 21
4966.681675238
 31
0.0
  0
LINE
  5
141
330
1F
100
AcDbEntity
  8
0
  6
Continuous
 62
     7
370
    25
100
AcDbLine
 10
6575.2472591642
 20
4967.5181915418
 30
0.0
 11
6634.2813333379
 21
4967.5181915418
 31
0.0
  0
LINE
  5
142
330
1F
100
AcDbEntity
  8
0
  6
Continuous
 62
     7
370
    25
100
AcDbLine
 10
6603.6214251181
 20
4964.6213483044
 30
0.0
 11
6574.764296251
 21
4964.6213483044
 31
0.0
  0
LINE
  5
143
330
1F
100
AcDbEntity
  8
0
  6
Continuous
 62
     7
370
    25
100
AcDbLine
 10
6634.764296251
 20
4964.6213483044
 30
0.0
 11
6603.6214251181
 21
4964.6213483044
 31
0.0
  0
LINE
  5
144
330
1F
100
AcDbEntity
  8
0
  6
Continuous
 62
     7
370
    25
100
AcDbLine
 10
6603.7966653585
 20
4968.6213483044
 30
0.0
 11
6579.364296251
 21
4968.6213483044
 31
0.0
  0
LINE
  5
145
330
1F
100
AcDbEntity
  8
0
  6
Continuous
 62
     7
370
    25
100
AcDbLine
 10
6630.164296251
 20
4968.6213483044
 30
0.0
 11
6603.7966653585
 21
4968.6213483044
 31
0.0
  0
LINE
  5
146
330
1F
100
AcDbEntity
  8
0
  6
Continuous
 62
     7
370
    25
100
AcDbLine
 10
6445.3306683886
 20
4823.0465917063
 30
0.0
 11
6431.0406339791
 21
4823.0465917063
 31
0.0
  0
LINE
  5
147
330
1F
100
AcDbEntity
  8
0
  6
Continuous
 62
     7
370
    25
100
AcDbLine
 10
6431.0406339791
 20
4807.2465917063
 30
0.0
 11
6445.3306683886
 21
4807.2465917063
 31
0.0
  0
LINE
  5
148
330
1F
100
AcDbEntity
  8
0
  6
Continuous
 62
     7
370
    25
100
AcDbLine
 10
6445.3306683886
 20
4807.2465917063
 30
0.0
 11
6445.8306683886
 21
4807.7465917063
 31
0.0
  0
LINE
  5
149
330
1F
100
AcDbEntity
  8
0
  6
Continuous
 62
     7
370
    25
100
AcDbLine
 10
6445.8306683886
 20
4822.5465917063
 30
0.0
 11
6445.3306683886
 21
4823.0465917063
 31
0.0
  0
LINE
  5
14A
330
1F
100
AcDbEntity
  8
0
  6
Continuous
 62
     7
370
    25
100
AcDbLine
 10
6442.8306683886
 20
4815.293199086
 30
0.0
 11
6442.8306683886
 21
4815.5808464766
 31
0.0
  0
LINE
  5
14B
330
1F
100
AcDbEntity
  8
0
  6
Continuous
 62
     7
370
    25
100
AcDbLine
 10
6438.8306683886
 20
4815.5808464766
 30
0.0
 11
6438.8306683886
 21
4815.293199086
 31
0.0
  0
LINE
  5
14C
330
1F
100
AcDbEntity
  8
0
  6
Continuous
 62
     7
370
    25
100
AcDbLine
 10
6393.4770785501
 20
4794.5211826195
 30
0.0
 11
6393.4770785501
 21
4730.8965917063
 31
0.0
  0
LINE
  5
14D
330
1F
100
AcDbEntity
  8
0
  6
Continuous
 62
     7
370
    25
100
AcDbLine
 10
6421.3770785501
 20
4730.8965917063
 30
0.0
 11
6421.3770785501
 21
4794.5211826195
 31
0.0
  0
CIRCLE
  5
14E
330
1F
100
AcDbEntity
  8
0
  6
Continuous
 62
     7
370
    25
100
AcDbCircle
 10
6407.4270785501
 20
4815.1465917063
 30
0.0
 40
23.90000000000055
  0
CIRCLE
  5
14F
330
1F
100
AcDbEntity
  8
0
  6
Continuous
 62
     7
370
    25
100
AcDbCircle
 10
6407.4270785501
 20
4815.1465917063
 30
0.0
 40
24.90000000000055
  0
LINE
  5
150
330
1F
100
AcDbEntity
  8
0
  6
Continuous
 62
     7
370
    25
100
AcDbLine
 10
6445.3306683886
 20
4823.0465917063
 30
0.0
 11
6445.3306683886
 21
4807.2465917063
 31
0.0
  0
ARC
  5
151
330
1F
100
AcDbEntity
  8
0
  6
Continuous
 62
     7
370
    25
100
AcDbCircle
 10
6440.8656856973
 20
4815.2309613803
 30
0.0
 40
1.942509515259645
100
AcDbArc
 50
268.9670821858
 51
1.8793020113
  0
ARC
  5
152
330
1F
100
AcDbEntity
  8
0
  6
Continuous
 62
     7
370
    25
100
AcDbCircle
 10
6440.8207195807
 20
4815.2677302312
 30
0.0
 40
1.978987722393322
100
AcDbArc
 50
179.222952198
 51
270.2880397371
  0
LINE
  5
153
330
1F
100
AcDbEntity
  8
0
  6
Continuous
 62
     7
370
    25
100
AcDbLine
 10
6445.8306683886
 20
4822.5465917063
 30
0.0
 11
6445.8306683886
 21
4807.7465917063
 31
0.0
  0
CIRCLE
  5
154
330
1F
100
AcDbEntity
  8
0
  6
Continuous
 62
     7
370
    25
100
AcDbCircle
 10
6440.8304534927
 20
4815.580610581
 30
0.0
 40
1.999840300372534
  0
LINE
  5
155
330
1F
100
AcDbEntity
  8
0
  6
Continuous
 62
     7
370
    25
100
AcDbLine
 10
6394.3106766044
 20
4726.1465917063
 30
0.0
 11
6420.5434804957
 21
4726.1465917063
 31
0.0
  0
ARC
  5
156
330
1F
100
AcDbEntity
  8
0
  6
Continuous
 62
     7
370
    25
100
AcDbCircle
 10
6407.4270785501
 20
4730.8965917063
 30
0.0
 40
13.94999999999955
100
AcDbArc
 50
180.0
 51
199.9074488975
  0
ARC
  5
157
330
1F
100
AcDbEntity
  8
0
  6
Continuous
 62
     7
370
    25
100
AcDbCircle
 10
6407.4270785501
 20
4730.8965917063
 30
0.0
 40
13.95000000000073
100
AcDbArc
 50
340.0925511025
 51
0.0
  0
LINE
  5
158
330
1F
100
AcDbEntity
  8
0
  6
Continuous
 62
     7
370
    25
100
AcDbLine
 10
6395.8236307866
 20
4725.1465917063
 30
0.0
 11
6419.0305263136
 21
4725.1465917063
 31
0.0
  0
LINE
  5
159
330
1F
100
AcDbEntity
  8
0
  6
Continuous
 62
     7
370
    25
100
AcDbLine
 10
6395.8236307866
 20
4725.1465917063
 30
0.0
 11
6394.3106766044
 21
4726.1465917063
 31
0.0
  0
LINE
  5
15A
330
1F
100
AcDbEntity
  8
0
  6
Continuous
 62
     7
370
    25
100
AcDbLine
 10
6420.5434804957
 20
4726.1465917063
 30
0.0
 11
6419.0305263136
 21
4725.1465917063
 31
0.0
  0
ARC
  5
15B
330
1F
100
AcDbEntity
  8
0
  6
Continuous
 62
     7
370
    25
100
AcDbCircle
 10
6407.4270785501
 20
4815.1465917063
 30
0.0
 40
25.40000000000096
100
AcDbArc
 50
18.1209295307
 51
177.8167486155
  0
ARC
  5
15C
330
1F
100
AcDbEntity
  8
0
  6
Continuous
 62
     7
370
    25
100
AcDbCircle
 10
6407.4270785501
 20
4815.1465917063
 30
0.0
 40
25.39999999999985
100
AcDbArc
 50
303.3130106878
 51
341.8790704693
  0
ARC
  5
15D
330
1F
100
AcDbEntity
  8
0
  6
Continuous
 62
     7
370
    25
100
AcDbCircle
 10
6407.4270785501
 20
4815.1465917063
 30
0.0
 40
25.39999999999956
100
AcDbArc
 50
177.8167486155
 51
236.6869893122
  0
ARC
  5
15E
330
1F
100
AcDbEntity
  8
0
  6
Continuous
 62
     7
370
    25
100
AcDbCircle
 10
6407.4270785501
 20
4815.1465917063
 30
0.0
 40
29.51703708685619
100
AcDbArc
 50
15.5240025033
 51
241.7962522017
  0
ARC
  5
15F
330
1F
100
AcDbEntity
  8
0
  6
Continuous
 62
     7
370
    25
100
AcDbCircle
 10
6407.4270785501
 20
4815.1465917063
 30
0.0
 40
29.51703708685595
100
AcDbArc
 50
298.2037477983
 51
344.4759974967
  0
ARC
  5
160
330
1F
100
AcDbEntity
  8
0
  6
Continuous
 62
     7
370
    25
100
AcDbCircle
 10
6407.4270785501
 20
4815.1465917063
 30
0.0
 40
30.00000000000002
100
AcDbArc
 50
297.7102220493
 51
344.7320573143
  0
ARC
  5
161
330
1F
100
AcDbEntity
  8
0
  6
Continuous
 62
     7
370
    25
100
AcDbCircle
 10
6407.4270785501
 20
4815.1465917063
 30
0.0
 40
30.00000000000103
100
AcDbArc
 50
15.2679426857
 51
242.2897779508
  0
ENDSEC
  0
SECTION
  2
OBJECTS
  0
DICTIONARY
  5
C
330
0
100
AcDbDictionary
281
     1
  3
ACAD_GROUP
350
D
  3
ACAD_LAYOUT
350
1A
  3
ACAD_MLINESTYLE
350
17
  3
ACAD_PLOTSETTINGS
350
19
  3
ACAD_PLOTSTYLENAME
350
E
  3
ACAD_SCALELIST
350
47
  3
DWGPROPS
350
162
  0
DICTIONARY
  5
D
102
{ACAD_REACTORS
330
C
102
}
330
C
100
AcDbDictionary
281
     1
  0
DICTIONARY
  5
1A
102
{ACAD_REACTORS
330
C
102
}
330
C
100
AcDbDictionary
281
     1
  3
Layout1
350
1E
  3
Layout2
350
26
  3
Model
350
22
  0
DICTIONARY
  5
17
102
{ACAD_REACTORS
330
C
102
}
330
C
100
AcDbDictionary
281
     1
  3
Standard
350
18
  0
DICTIONARY
  5
19
102
{ACAD_REACTORS
330
C
102
}
330
C
100
AcDbDictionary
281
     1
  0
ACDBDICTIONARYWDFLT
  5
E
102
{ACAD_REACTORS
330
C
102
}
330
C
100
AcDbDictionary
281
     1
  3
Normal
350
F
100
AcDbDictionaryWithDefault
340
F
  0
DICTIONARY
  5
47
102
{ACAD_REACTORS
330
C
102
}
330
C
100
AcDbDictionary
281
     1
  3
A0
350
48
  3
A1
350
49
  3
A2
350
4A
  3
A3
350
4B
  3
A4
350
4C
  3
A5
350
4D
  3
A6
350
4E
  3
A7
350
4F
  3
A8
350
50
  3
A9
350
51
  3
B0
350
52
  3
B1
350
53
  3
B2
350
54
  3
B3
350
55
  3
B4
350
56
  3
B5
350
57
  3
B6
350
58
  3
B7
350
59
  3
B8
350
5A
  3
B9
350
5B
  3
C0
350
5C
  3
C1
350
5D
  3
C2
350
5E
  3
C3
350
5F
  3
C4
350
60
  3
C5
350
61
  3
C6
350
62
  3
C7
350
63
  3
C8
350
64
  3
C9
350
65
  3
D0
350
66
  3
D1
350
67
  3
D2
350
68
  0
XRECORD
  5
162
102
{ACAD_REACTORS
330
C
102
}
330
C
100
AcDbXrecord
280
     1
  1
DWGPROPS COOKIE
  2

  3

  4

  6

  7

  8
radek.stransky
  9

300
=
301
=
302
=
303
=
304
=
305
=
306
=
307
=
308
=
309
=
 40
0.0
 41
2459345.415174803
 42
2459345.415175035
  1

 90
        0
  0
LAYOUT
  5
1E
102
{ACAD_REACTORS
330
1A
102
}
330
1A
100
AcDbPlotSettings
  1

  2
none_device
  4

  6

 40
0.0
 41
0.0
 42
0.0
 43
0.0
 44
0.0
 45
0.0
 46
0.0
 47
0.0
 48
0.0
 49
0.0
140
0.0
141
0.0
142
1.0
143
1.0
 70
   688
 72
     1
 73
     0
 74
     5
  7

 75
    16
147
1.0
148
0.0
149
0.0
100
AcDbLayout
  1
Layout1
 70
     1
 71
     1
 10
0.0
 20
0.0
 11
420.0
 21
297.0
 12
0.0
 22
0.0
 32
0.0
 14
1.0000000000E+20
 24
1.0000000000E+20
 34
1.0000000000E+20
 15
-1.0000000000E+20
 25
-1.0000000000E+20
 35
-1.0000000000E+20
146
0.0
 13
0.0
 23
0.0
 33
0.0
 16
1.0
 26
0.0
 36
0.0
 17
0.0
 27
1.0
 37
0.0
 76
     0
330
1B
  0
LAYOUT
  5
26
102
{ACAD_REACTORS
330
1A
102
}
330
1A
100
AcDbPlotSettings
  1

  2
none_device
  4

  6

 40
0.0
 41
0.0
 42
0.0
 43
0.0
 44
0.0
 45
0.0
 46
0.0
 47
0.0
 48
0.0
 49
0.0
140
0.0
141
0.0
142
1.0
143
1.0
 70
   688
 72
     1
 73
     0
 74
     5
  7

 75
    16
147
1.0
148
0.0
149
0.0
100
AcDbLayout
  1
Layout2
 70
     1
 71
     2
 10
0.0
 20
0.0
 11
0.0
 21
0.0
 12
0.0
 22
0.0
 32
0.0
 14
0.0
 24
0.0
 34
0.0
 15
0.0
 25
0.0
 35
0.0
146
0.0
 13
0.0
 23
0.0
 33
0.0
 16
1.0
 26
0.0
 36
0.0
 17
0.0
 27
1.0
 37
0.0
 76
     0
330
23
  0
LAYOUT
  5
22
102
{ACAD_REACTORS
330
1A
102
}
330
1A
100
AcDbPlotSettings
  1

  2
none_device
  4
Letter_(8.50_x_11.00_Inches)
  6

 40
6.35
 41
6.35
 42
6.35000508
 43
6.35000508
 44
215.9
 45
279.4
 46
0.0
 47
0.0
 48
0.0
 49
0.0
140
0.0
141
0.0
142
1.0
143
1.0
 70
  1712
 72
     1
 73
     0
 74
     0
  7

 75
     0
147
1.0
148
0.0
149
0.0
100
AcDbLayout
  1
Model
 70
     1
 71
     0
 10
0.0
 20
0.0
 11
20000.0
 21
10000.0
 12
0.0
 22
0.0
 32
0.0
 14
0.0
 24
0.0
 34
0.0
 15
20000.0
 25
10000.0
 35
0.0
146
0.0
 13
0.0
 23
0.0
 33
0.0
 16
1.0
 26
0.0
 36
0.0
 17
0.0
 27
1.0
 37
0.0
 76
     0
330
1F
331
29
  0
MLINESTYLE
  5
18
102
{ACAD_REACTORS
330
17
102
}
330
17
100
AcDbMlineStyle
  2
Standard
 70
     0
  3

 62
   256
 51
90.0
 52
90.0
 71
     2
 49
0.5
 62
   256
  6
BYLAYER
 49
-0.5
 62
   256
  6
BYLAYER
  0
ACDBPLACEHOLDER
  5
F
102
{ACAD_REACTORS
330
E
102
}
330
E
  0
SCALE
  5
48
102
{ACAD_REACTORS
330
47
102
}
330
47
100
AcDbScale
 70
     0
300
1:1
140
1.0
141
1.0
290
     1
  0
SCALE
  5
49
102
{ACAD_REACTORS
330
47
102
}
330
47
100
AcDbScale
 70
     0
300
1:2
140
1.0
141
2.0
290
     0
  0
SCALE
  5
4A
102
{ACAD_REACTORS
330
47
102
}
330
47
100
AcDbScale
 70
     0
300
1:4
140
1.0
141
4.0
290
     0
  0
SCALE
  5
4B
102
{ACAD_REACTORS
330
47
102
}
330
47
100
AcDbScale
 70
     0
300
1:5
140
1.0
141
5.0
290
     0
  0
SCALE
  5
4C
102
{ACAD_REACTORS
330
47
102
}
330
47
100
AcDbScale
 70
     0
300
1:8
140
1.0
141
8.0
290
     0
  0
SCALE
  5
4D
102
{ACAD_REACTORS
330
47
102
}
330
47
100
AcDbScale
 70
     0
300
1:10
140
1.0
141
10.0
290
     0
  0
SCALE
  5
4E
102
{ACAD_REACTORS
330
47
102
}
330
47
100
AcDbScale
 70
     0
300
1:16
140
1.0
141
16.0
290
     0
  0
SCALE
  5
4F
102
{ACAD_REACTORS
330
47
102
}
330
47
100
AcDbScale
 70
     0
300
1:20
140
1.0
141
20.0
290
     0
  0
SCALE
  5
50
102
{ACAD_REACTORS
330
47
102
}
330
47
100
AcDbScale
 70
     0
300
1:30
140
1.0
141
30.0
290
     0
  0
SCALE
  5
51
102
{ACAD_REACTORS
330
47
102
}
330
47
100
AcDbScale
 70
     0
300
1:40
140
1.0
141
40.0
290
     0
  0
SCALE
  5
52
102
{ACAD_REACTORS
330
47
102
}
330
47
100
AcDbScale
 70
     0
300
1:50
140
1.0
141
50.0
290
     0
  0
SCALE
  5
53
102
{ACAD_REACTORS
330
47
102
}
330
47
100
AcDbScale
 70
     0
300
1:100
140
1.0
141
100.0
290
     0
  0
SCALE
  5
54
102
{ACAD_REACTORS
330
47
102
}
330
47
100
AcDbScale
 70
     0
300
2:1
140
2.0
141
1.0
290
     0
  0
SCALE
  5
55
102
{ACAD_REACTORS
330
47
102
}
330
47
100
AcDbScale
 70
     0
300
4:1
140
4.0
141
1.0
290
     0
  0
SCALE
  5
56
102
{ACAD_REACTORS
330
47
102
}
330
47
100
AcDbScale
 70
     0
300
8:1
140
8.0
141
1.0
290
     0
  0
SCALE
  5
57
102
{ACAD_REACTORS
330
47
102
}
330
47
100
AcDbScale
 70
     0
300
10:1
140
10.0
141
1.0
290
     0
  0
SCALE
  5
58
102
{ACAD_REACTORS
330
47
102
}
330
47
100
AcDbScale
 70
     0
300
100:1
140
100.0
141
1.0
290
     0
  0
SCALE
  5
59
102
{ACAD_REACTORS
330
47
102
}
330
47
100
AcDbScale
 70
     0
300
1/128" = 1'-0"
140
0.0078125
141
12.0
290
     0
  0
SCALE
  5
5A
102
{ACAD_REACTORS
330
47
102
}
330
47
100
AcDbScale
 70
     0
300
1/64" = 1'-0"
140
0.015625
141
12.0
290
     0
  0
SCALE
  5
5B
102
{ACAD_REACTORS
330
47
102
}
330
47
100
AcDbScale
 70
     0
300
1/32" = 1'-0"
140
0.03125
141
12.0
290
     0
  0
SCALE
  5
5C
102
{ACAD_REACTORS
330
47
102
}
330
47
100
AcDbScale
 70
     0
300
1/16" = 1'-0"
140
0.0625
141
12.0
290
     0
  0
SCALE
  5
5D
102
{ACAD_REACTORS
330
47
102
}
330
47
100
AcDbScale
 70
     0
300
3/32" = 1'-0"
140
0.09375
141
12.0
290
     0
  0
SCALE
  5
5E
102
{ACAD_REACTORS
330
47
102
}
330
47
100
AcDbScale
 70
     0
300
1/8" = 1'-0"
140
0.125
141
12.0
290
     0
  0
SCALE
  5
5F
102
{ACAD_REACTORS
330
47
102
}
330
47
100
AcDbScale
 70
     0
300
3/16" = 1'-0"
140
0.1875
141
12.0
290
     0
  0
SCALE
  5
60
102
{ACAD_REACTORS
330
47
102
}
330
47
100
AcDbScale
 70
     0
300
1/4" = 1'-0"
140
0.25
141
12.0
290
     0
  0
SCALE
  5
61
102
{ACAD_REACTORS
330
47
102
}
330
47
100
AcDbScale
 70
     0
300
3/8" = 1'-0"
140
0.375
141
12.0
290
     0
  0
SCALE
  5
62
102
{ACAD_REACTORS
330
47
102
}
330
47
100
AcDbScale
 70
     0
300
1/2" = 1'-0"
140
0.5
141
12.0
290
     0
  0
SCALE
  5
63
102
{ACAD_REACTORS
330
47
102
}
330
47
100
AcDbScale
 70
     0
300
3/4" = 1'-0"
140
0.75
141
12.0
290
     0
  0
SCALE
  5
64
102
{ACAD_REACTORS
330
47
102
}
330
47
100
AcDbScale
 70
     0
300
1" = 1'-0"
140
1.0
141
12.0
290
     0
  0
SCALE
  5
65
102
{ACAD_REACTORS
330
47
102
}
330
47
100
AcDbScale
 70
     0
300
1-1/2" = 1'-0"
140
1.5
141
12.0
290
     0
  0
SCALE
  5
66
102
{ACAD_REACTORS
330
47
102
}
330
47
100
AcDbScale
 70
     0
300
3" = 1'-0"
140
3.0
141
12.0
290
     0
  0
SCALE
  5
67
102
{ACAD_REACTORS
330
47
102
}
330
47
100
AcDbScale
 70
     0
300
6" = 1'-0"
140
6.0
141
12.0
290
     0
  0
SCALE
  5
68
102
{ACAD_REACTORS
330
47
102
}
330
47
100
AcDbScale
 70
     0
300
1'-0" = 1'-0"
140
12.0
141
12.0
290
     0
  0
ENDSEC
  0
EOF
